ISO-10303-21;
HEADER;
FILE_DESCRIPTION (( 'STEP AP214' ),
    '1' );
FILE_NAME ('Micro_GEM-171-2.STEP',
    '2021-09-01T19:55:08',
    ( '' ),
    ( '' ),
    'SwSTEP 2.0',
    'SolidWorks 2020',
    '' );
FILE_SCHEMA (( 'AUTOMOTIVE_DESIGN' ));
ENDSEC;

DATA;
#1 = CARTESIAN_POINT ( 'NONE',  ( 0.0000000000000000000, 0.0000000000000000000, 2.000000000000000000 ) ) ;
#2 = CARTESIAN_POINT ( 'NONE',  ( -0.08586404999999999732, 0.0000000000000000000, 2.103062679886566065E-17 ) ) ;
#3 = CARTESIAN_POINT ( 'NONE',  ( 7.654042494670957853E-17, 0.0000000000000000000, 0.6250000000000000000 ) ) ;
#4 =( NAMED_UNIT ( * ) PLANE_ANGLE_UNIT ( ) SI_UNIT ( $, .RADIAN. ) );
#5 = CARTESIAN_POINT ( 'NONE',  ( 0.08586405000000006671, 0.0000000000000000000, 0.6250000000000000000 ) ) ;
#6 = EDGE_CURVE ( 'NONE', #126, #101, #166, .T. ) ;
#7 = CIRCLE ( 'NONE', #163, 0.09375000000000001388 ) ;
#8 = ORIENTED_EDGE ( 'NONE', *, *, #183, .T. ) ;
#9 = VECTOR ( 'NONE', #50, 39.37007874015748143 ) ;
#10 = LINE ( 'NONE', #54, #282 ) ;
#11 = CYLINDRICAL_SURFACE ( 'NONE', #296, 0.09375000000000001388 ) ;
#12 = EDGE_LOOP ( 'NONE', ( #289, #22 ) ) ;
#13 = DIRECTION ( 'NONE',  ( -1.000000000000000000, 0.0000000000000000000, 1.224646799147353454E-16 ) ) ;
#14 = ORIENTED_EDGE ( 'NONE', *, *, #288, .F. ) ;
#15 = AXIS2_PLACEMENT_3D ( 'NONE', #111, #193, #245 ) ;
#16 = CARTESIAN_POINT ( 'NONE',  ( 0.0000000000000000000, 0.0000000000000000000, 1.984999999999999654 ) ) ;
#17 = ORIENTED_EDGE ( 'NONE', *, *, #246, .F. ) ;
#18 = ADVANCED_FACE ( 'NONE', ( #233 ), #207, .T. ) ;
#19 = ORIENTED_EDGE ( 'NONE', *, *, #97, .F. ) ;
#20 = DIRECTION ( 'NONE',  ( 0.0000000000000000000, 0.0000000000000000000, -1.000000000000000000 ) ) ;
#21 = AXIS2_PLACEMENT_3D ( 'NONE', #249, #247, #91 ) ;
#22 = ORIENTED_EDGE ( 'NONE', *, *, #246, .T. ) ;
#23 = FACE_OUTER_BOUND ( 'NONE', #139, .T. ) ;
#24 = CARTESIAN_POINT ( 'NONE',  ( 0.09375000000000001388, 1.148106374200643863E-17, 1.984999999999999654 ) ) ;
#25 = ADVANCED_FACE ( 'NONE', ( #287 ), #284, .T. ) ;
#26 = PRODUCT_CONTEXT ( 'NONE', #211, 'mechanical' ) ;
#27 = DIMENSIONAL_EXPONENTS ( 1.000000000000000000, 0.0000000000000000000, 0.0000000000000000000, 0.0000000000000000000, 0.0000000000000000000, 0.0000000000000000000, 0.0000000000000000000 ) ;
#28 = CARTESIAN_POINT ( 'NONE',  ( 0.0000000000000000000, 0.0000000000000000000, 2.000000000000000000 ) ) ;
#29 = VECTOR ( 'NONE', #279, 39.37007874015748143 ) ;
#30 = ADVANCED_FACE ( 'NONE', ( #205 ), #38, .F. ) ;
#31 = DIRECTION ( 'NONE',  ( -1.224646799147353207E-16, -0.0000000000000000000, -1.000000000000000000 ) ) ;
#32 = ORIENTED_EDGE ( 'NONE', *, *, #161, .T. ) ;
#33 = CARTESIAN_POINT ( 'NONE',  ( -0.09374999999999991673, 0.0000000000000000000, 0.6697234448654140193 ) ) ;
#34 = ADVANCED_FACE ( 'NONE', ( #80 ), #11, .T. ) ;
#35 = CIRCLE ( 'NONE', #167, 0.09375000000000001388 ) ;
#36 = ORIENTED_EDGE ( 'NONE', *, *, #76, .T. ) ;
#37 = CARTESIAN_POINT ( 'NONE',  ( 0.0000000000000000000, 0.0000000000000000000, 1.984999999999999654 ) ) ;
#38 = PLANE ( 'NONE',  #283 ) ;
#39 = DIRECTION ( 'NONE',  ( 0.0000000000000000000, 0.0000000000000000000, -1.000000000000000000 ) ) ;
#40 =( GEOMETRIC_REPRESENTATION_CONTEXT ( 3 ) GLOBAL_UNCERTAINTY_ASSIGNED_CONTEXT ( ( #195 ) ) GLOBAL_UNIT_ASSIGNED_CONTEXT ( ( #292, #67, #122 ) ) REPRESENTATION_CONTEXT ( 'NONE', 'WORKASPACE' ) );
#41 = ORIENTED_EDGE ( 'NONE', *, *, #161, .F. ) ;
#42 = ORIENTED_EDGE ( 'NONE', *, *, #134, .T. ) ;
#43 = CARTESIAN_POINT ( 'NONE',  ( 0.09375000000000001388, 1.148106374200643863E-17, 2.000000000000000000 ) ) ;
#44 = ORIENTED_EDGE ( 'NONE', *, *, #134, .F. ) ;
#45 = LINE ( 'NONE', #43, #96 ) ;
#46 = APPLICATION_PROTOCOL_DEFINITION ( 'draft international standard', 'automotive_design', 1998, #211 ) ;
#47 = FACE_OUTER_BOUND ( 'NONE', #263, .T. ) ;
#48 = AXIS2_PLACEMENT_3D ( 'NONE', #3, #141, #137 ) ;
#49 = DIRECTION ( 'NONE',  ( 1.224646799147353207E-16, 0.0000000000000000000, 1.000000000000000000 ) ) ;
#50 = DIRECTION ( 'NONE',  ( -1.224646799147353207E-16, -0.0000000000000000000, -1.000000000000000000 ) ) ;
#51 = CIRCLE ( 'NONE', #48, 0.08586404999999999732 ) ;
#52 = CARTESIAN_POINT ( 'NONE',  ( 0.0000000000000000000, 0.0000000000000000000, 2.000000000000000000 ) ) ;
#53 = EDGE_CURVE ( 'NONE', #126, #129, #135, .T. ) ;
#54 = CARTESIAN_POINT ( 'NONE',  ( -0.08586404999999992793, 1.051531339943283032E-17, 0.6250000000000000000 ) ) ;
#55 = DIRECTION ( 'NONE',  ( -0.0000000000000000000, -0.0000000000000000000, -1.000000000000000000 ) ) ;
#56 = DIRECTION ( 'NONE',  ( 0.0000000000000000000, 0.0000000000000000000, -1.000000000000000000 ) ) ;
#57 = ORIENTED_EDGE ( 'NONE', *, *, #194, .T. ) ;
#58 = EDGE_CURVE ( 'NONE', #280, #98, #222, .T. ) ;
#59 = ORIENTED_EDGE ( 'NONE', *, *, #103, .F. ) ;
#60 = STYLED_ITEM ( 'NONE', ( #151 ), #232 ) ;
#61 = PRODUCT_DEFINITION_FORMATION_WITH_SPECIFIED_SOURCE ( 'ANY', '', #104, .NOT_KNOWN. ) ;
#62 = ORIENTED_EDGE ( 'NONE', *, *, #157, .T. ) ;
#63 = PRESENTATION_LAYER_ASSIGNMENT (  '', '', ( #60 ) ) ;
#64 = DIRECTION ( 'NONE',  ( -1.000000000000000000, 0.0000000000000000000, 0.0000000000000000000 ) ) ;
#65 = DIRECTION ( 'NONE',  ( 0.0000000000000000000, 0.0000000000000000000, 1.000000000000000000 ) ) ;
#66 = ORIENTED_EDGE ( 'NONE', *, *, #159, .F. ) ;
#67 =( NAMED_UNIT ( * ) PLANE_ANGLE_UNIT ( ) SI_UNIT ( $, .RADIAN. ) );
#68 = CARTESIAN_POINT ( 'NONE',  ( 0.0000000000000000000, 0.0000000000000000000, 2.000000000000000000 ) ) ;
#69 =( NAMED_UNIT ( * ) SI_UNIT ( $, .STERADIAN. ) SOLID_ANGLE_UNIT ( ) );
#70 = CARTESIAN_POINT ( 'NONE',  ( 1.287754489664668799E-33, 0.0000000000000000000, 1.051531339943283032E-17 ) ) ;
#71 = LENGTH_MEASURE_WITH_UNIT ( LENGTH_MEASURE( 0.02539999999999999897 ), #74 );
#72 = SURFACE_SIDE_STYLE ('',( #295 ) ) ;
#73 = PRODUCT_DEFINITION_CONTEXT ( 'detailed design', #171, 'design' ) ;
#74 =( LENGTH_UNIT ( ) NAMED_UNIT ( * ) SI_UNIT ( $, .METRE. ) );
#75 = AXIS2_PLACEMENT_3D ( 'NONE', #189, #123, #244 ) ;
#76 = EDGE_CURVE ( 'NONE', #129, #182, #35, .T. ) ;
#77 = AXIS2_PLACEMENT_3D ( 'NONE', #70, #261, #152 ) ;
#78 = AXIS2_PLACEMENT_3D ( 'NONE', #219, #228, #95 ) ;
#79 = ORIENTED_EDGE ( 'NONE', *, *, #97, .T. ) ;
#80 = FACE_OUTER_BOUND ( 'NONE', #124, .T. ) ;
#81 = ORIENTED_EDGE ( 'NONE', *, *, #76, .F. ) ;
#82 = ORIENTED_EDGE ( 'NONE', *, *, #58, .F. ) ;
#83 = AXIS2_PLACEMENT_3D ( 'NONE', #120, #230, #13 ) ;
#84 = ORIENTED_EDGE ( 'NONE', *, *, #212, .T. ) ;
#85 = CARTESIAN_POINT ( 'NONE',  ( -0.08586404999999992793, 1.099818857071963216E-17, 0.6250000000000000000 ) ) ;
#86 = DIRECTION ( 'NONE',  ( -0.0000000000000000000, -0.0000000000000000000, -1.000000000000000000 ) ) ;
#87 = ORIENTED_EDGE ( 'NONE', *, *, #53, .T. ) ;
#88 = CARTESIAN_POINT ( 'NONE',  ( 0.0000000000000000000, 0.0000000000000000000, 0.0000000000000000000 ) ) ;
#89 = VECTOR ( 'NONE', #181, 39.37007874015748143 ) ;
#90 = COLOUR_RGB ( '',0.7921568627450980005, 0.8196078431372548767, 0.9333333333333333481 ) ;
#91 = DIRECTION ( 'NONE',  ( 1.000000000000000000, 0.0000000000000000000, 0.0000000000000000000 ) ) ;
#92 = ADVANCED_FACE ( 'NONE', ( #274 ), #164, .T. ) ;
#93 =( CONVERSION_BASED_UNIT ( 'INCH', #267 ) LENGTH_UNIT ( ) NAMED_UNIT ( #27 ) );
#94 = SURFACE_STYLE_USAGE ( .BOTH. , #72 ) ;
#95 = DIRECTION ( 'NONE',  ( 1.000000000000000000, 0.0000000000000000000, 0.0000000000000000000 ) ) ;
#96 = VECTOR ( 'NONE', #86, 39.37007874015748143 ) ;
#97 = EDGE_CURVE ( 'NONE', #101, #182, #45, .T. ) ;
#98 = VERTEX_POINT ( 'NONE', #290 ) ;
#99 = CARTESIAN_POINT ( 'NONE',  ( 0.0000000000000000000, 0.0000000000000000000, 0.0000000000000000000 ) ) ;
#100 = ORIENTED_EDGE ( 'NONE', *, *, #258, .F. ) ;
#101 = VERTEX_POINT ( 'NONE', #24 ) ;
#102 = CONICAL_SURFACE ( 'NONE', #248, 0.08586404999999999732, 0.1745329251994338360 ) ;
#103 = EDGE_CURVE ( 'NONE', #241, #280, #192, .T. ) ;
#104 = PRODUCT ( 'Micro_GEM-171-2', 'Micro_GEM-171-2', '', ( #26 ) ) ;
#105 = DIRECTION ( 'NONE',  ( -1.000000000000000000, 0.0000000000000000000, 0.0000000000000000000 ) ) ;
#106 = DIMENSIONAL_EXPONENTS ( 1.000000000000000000, 0.0000000000000000000, 0.0000000000000000000, 0.0000000000000000000, 0.0000000000000000000, 0.0000000000000000000, 0.0000000000000000000 ) ;
#107 = DIRECTION ( 'NONE',  ( 0.0000000000000000000, 0.0000000000000000000, -1.000000000000000000 ) ) ;
#108 = CONICAL_SURFACE ( 'NONE', #78, 0.08586404999999999732, 0.1745329251994338360 ) ;
#109 = CARTESIAN_POINT ( 'NONE',  ( 0.08586405000000006671, 0.0000000000000000000, 0.6250000000000000000 ) ) ;
#110 = FACE_OUTER_BOUND ( 'NONE', #286, .T. ) ;
#111 = CARTESIAN_POINT ( 'NONE',  ( 1.287754489664668799E-33, 0.0000000000000000000, 1.051531339943283032E-17 ) ) ;
#112 = APPLICATION_PROTOCOL_DEFINITION ( 'draft international standard', 'automotive_design', 1998, #171 ) ;
#113 = CLOSED_SHELL ( 'NONE', ( #18, #223, #204, #264, #34, #25, #92, #127, #240, #30 ) ) ;
#114 = DIRECTION ( 'NONE',  ( 0.0000000000000000000, 0.0000000000000000000, 1.000000000000000000 ) ) ;
#115 = PRESENTATION_STYLE_ASSIGNMENT (( #243 ) ) ;
#116 = ORIENTED_EDGE ( 'NONE', *, *, #278, .F. ) ;
#117 = AXIS2_PLACEMENT_3D ( 'NONE', #88, #268, #271 ) ;
#118 = EDGE_LOOP ( 'NONE', ( #186, #57 ) ) ;
#119 = ORIENTED_EDGE ( 'NONE', *, *, #258, .T. ) ;
#120 = CARTESIAN_POINT ( 'NONE',  ( 0.0000000000000000000, 0.0000000000000000000, 0.0000000000000000000 ) ) ;
#121 = VECTOR ( 'NONE', #125, 39.37007874015748143 ) ;
#122 =( NAMED_UNIT ( * ) SI_UNIT ( $, .STERADIAN. ) SOLID_ANGLE_UNIT ( ) );
#123 = DIRECTION ( 'NONE',  ( -1.224646799147353207E-16, -0.0000000000000000000, -1.000000000000000000 ) ) ;
#124 = EDGE_LOOP ( 'NONE', ( #19, #238, #87, #44 ) ) ;
#125 = DIRECTION ( 'NONE',  ( -0.7071067811865463515, 0.0000000000000000000, -0.7071067811865486830 ) ) ;
#126 = VERTEX_POINT ( 'NONE', #156 ) ;
#127 = ADVANCED_FACE ( 'NONE', ( #196 ), #108, .T. ) ;
#128 =( NAMED_UNIT ( * ) SI_UNIT ( $, .STERADIAN. ) SOLID_ANGLE_UNIT ( ) );
#129 = VERTEX_POINT ( 'NONE', #33 ) ;
#130 = CIRCLE ( 'NONE', #209, 0.07874999999999980627 ) ;
#131 = CARTESIAN_POINT ( 'NONE',  ( 8.201746730683681886E-17, 0.0000000000000000000, 0.6697234448654140193 ) ) ;
#132 =( CONVERSION_BASED_UNIT ( 'INCH', #71 ) LENGTH_UNIT ( ) NAMED_UNIT ( #106 ) );
#133 = AXIS2_PLACEMENT_3D ( 'NONE', #16, #39, #143 ) ;
#134 = EDGE_CURVE ( 'NONE', #182, #129, #7, .T. ) ;
#135 = LINE ( 'NONE', #259, #89 ) ;
#136 = CARTESIAN_POINT ( 'NONE',  ( 0.0000000000000000000, 0.0000000000000000000, 2.000000000000000000 ) ) ;
#137 = DIRECTION ( 'NONE',  ( -1.000000000000000000, 0.0000000000000000000, 0.0000000000000000000 ) ) ;
#138 =( GEOMETRIC_REPRESENTATION_CONTEXT ( 3 ) GLOBAL_UNCERTAINTY_ASSIGNED_CONTEXT ( ( #277 ) ) GLOBAL_UNIT_ASSIGNED_CONTEXT ( ( #132, #298, #128 ) ) REPRESENTATION_CONTEXT ( 'NONE', 'WORKASPACE' ) );
#139 = EDGE_LOOP ( 'NONE', ( #59, #119, #36, #297 ) ) ;
#140 = PRODUCT_RELATED_PRODUCT_CATEGORY ( 'part', '', ( #104 ) ) ;
#141 = DIRECTION ( 'NONE',  ( -1.224646799147353207E-16, -0.0000000000000000000, -1.000000000000000000 ) ) ;
#142 = EDGE_LOOP ( 'NONE', ( #210, #66, #84, #116 ) ) ;
#143 = DIRECTION ( 'NONE',  ( 1.000000000000000000, 0.0000000000000000000, 0.0000000000000000000 ) ) ;
#144 = AXIS2_PLACEMENT_3D ( 'NONE', #28, #20, #105 ) ;
#145 = CARTESIAN_POINT ( 'NONE',  ( 0.09375000000000009714, 1.148106374200644787E-17, 0.6697234448654140193 ) ) ;
#146 = EDGE_LOOP ( 'NONE', ( #100, #41, #202, #42 ) ) ;
#147 = ORIENTED_EDGE ( 'NONE', *, *, #53, .F. ) ;
#148 = CARTESIAN_POINT ( 'NONE',  ( 0.07874999999999980627, 1.056257864264590573E-17, 2.000000000000000000 ) ) ;
#149 = DIRECTION ( 'NONE',  ( -1.000000000000000000, 0.0000000000000000000, 0.0000000000000000000 ) ) ;
#150 =( GEOMETRIC_REPRESENTATION_CONTEXT ( 3 ) GLOBAL_UNCERTAINTY_ASSIGNED_CONTEXT ( ( #153 ) ) GLOBAL_UNIT_ASSIGNED_CONTEXT ( ( #93, #4, #69 ) ) REPRESENTATION_CONTEXT ( 'NONE', 'WORKASPACE' ) );
#151 = PRESENTATION_STYLE_ASSIGNMENT (( #94 ) ) ;
#152 = DIRECTION ( 'NONE',  ( -1.000000000000000000, 0.0000000000000000000, 1.224646799147353454E-16 ) ) ;
#153 = UNCERTAINTY_MEASURE_WITH_UNIT (LENGTH_MEASURE( 1.000000000000000082E-05 ), #93, 'distance_accuracy_value', 'NONE');
#154 = CIRCLE ( 'NONE', #77, 0.08586404999999999732 ) ;
#155 = STYLED_ITEM ( 'NONE', ( #115 ), #217 ) ;
#156 = CARTESIAN_POINT ( 'NONE',  ( -0.09375000000000001388, 0.0000000000000000000, 1.984999999999999654 ) ) ;
#157 = EDGE_CURVE ( 'NONE', #241, #208, #172, .T. ) ;
#158 = CARTESIAN_POINT ( 'NONE',  ( 0.0000000000000000000, 0.0000000000000000000, 2.000000000000000000 ) ) ;
#159 = EDGE_CURVE ( 'NONE', #178, #234, #270, .T. ) ;
#160 = ORIENTED_EDGE ( 'NONE', *, *, #58, .T. ) ;
#161 = EDGE_CURVE ( 'NONE', #280, #241, #51, .T. ) ;
#162 = CARTESIAN_POINT ( 'NONE',  ( -0.07874999999999980627, 0.0000000000000000000, 2.000000000000000000 ) ) ;
#163 = AXIS2_PLACEMENT_3D ( 'NONE', #281, #175, #250 ) ;
#164 = CONICAL_SURFACE ( 'NONE', #144, 0.07874999999999980627, 0.7853981633974466137 ) ;
#165 = ORIENTED_EDGE ( 'NONE', *, *, #212, .F. ) ;
#166 = CIRCLE ( 'NONE', #191, 0.09375000000000001388 ) ;
#167 = AXIS2_PLACEMENT_3D ( 'NONE', #131, #218, #197 ) ;
#168 = SHAPE_DEFINITION_REPRESENTATION ( #229, #217 ) ;
#169 = DIRECTION ( 'NONE',  ( 1.000000000000000000, 0.0000000000000000000, 0.0000000000000000000 ) ) ;
#170 = FILL_AREA_STYLE_COLOUR ( '', #90 ) ;
#171 = APPLICATION_CONTEXT ( 'automotive_design' ) ;
#172 = LINE ( 'NONE', #257, #174 ) ;
#173 = CARTESIAN_POINT ( 'NONE',  ( 0.08586404999999999732, 1.051531339943283032E-17, -1.051531339943283032E-17 ) ) ;
#174 = VECTOR ( 'NONE', #31, 39.37007874015748143 ) ;
#175 = DIRECTION ( 'NONE',  ( -1.224646799147353207E-16, -0.0000000000000000000, -1.000000000000000000 ) ) ;
#176 = MECHANICAL_DESIGN_GEOMETRIC_PRESENTATION_REPRESENTATION (  '', ( #155 ), #150 ) ;
#177 = AXIS2_PLACEMENT_3D ( 'NONE', #136, #260, #227 ) ;
#178 = VERTEX_POINT ( 'NONE', #162 ) ;
#179 = DIRECTION ( 'NONE',  ( 1.000000000000000000, 0.0000000000000000000, -0.0000000000000000000 ) ) ;
#180 = DIRECTION ( 'NONE',  ( 1.000000000000000000, 0.0000000000000000000, 0.0000000000000000000 ) ) ;
#181 = DIRECTION ( 'NONE',  ( -0.0000000000000000000, -0.0000000000000000000, -1.000000000000000000 ) ) ;
#182 = VERTEX_POINT ( 'NONE', #145 ) ;
#183 = EDGE_CURVE ( 'NONE', #234, #101, #239, .T. ) ;
#184 = CIRCLE ( 'NONE', #133, 0.09375000000000001388 ) ;
#185 =( LENGTH_UNIT ( ) NAMED_UNIT ( * ) SI_UNIT ( $, .METRE. ) );
#186 = ORIENTED_EDGE ( 'NONE', *, *, #159, .T. ) ;
#187 = EDGE_CURVE ( 'NONE', #280, #182, #256, .T. ) ;
#188 = FACE_OUTER_BOUND ( 'NONE', #203, .T. ) ;
#189 = CARTESIAN_POINT ( 'NONE',  ( 7.654042494670957853E-17, 0.0000000000000000000, 0.6250000000000000000 ) ) ;
#190 = PRESENTATION_LAYER_ASSIGNMENT (  '', '', ( #155 ) ) ;
#191 = AXIS2_PLACEMENT_3D ( 'NONE', #37, #56, #180 ) ;
#192 = CIRCLE ( 'NONE', #75, 0.08586404999999999732 ) ;
#193 = DIRECTION ( 'NONE',  ( -1.224646799147353207E-16, -0.0000000000000000000, -1.000000000000000000 ) ) ;
#194 = EDGE_CURVE ( 'NONE', #234, #178, #130, .T. ) ;
#195 = UNCERTAINTY_MEASURE_WITH_UNIT (LENGTH_MEASURE( 1.000000000000000082E-05 ), #292, 'distance_accuracy_value', 'NONE');
#196 = FACE_OUTER_BOUND ( 'NONE', #146, .T. ) ;
#197 = DIRECTION ( 'NONE',  ( 1.000000000000000000, 0.0000000000000000000, 0.0000000000000000000 ) ) ;
#198 = DIRECTION ( 'NONE',  ( 1.000000000000000000, 0.0000000000000000000, 0.0000000000000000000 ) ) ;
#199 = CARTESIAN_POINT ( 'NONE',  ( -0.07874999999999980627, 0.0000000000000000000, 2.000000000000000000 ) ) ;
#200 = PRODUCT_DEFINITION ( 'UNKNOWN', '', #61, #73 ) ;
#201 = DIRECTION ( 'NONE',  ( 0.7071067811865463515, 8.659560562354916834E-17, -0.7071067811865486830 ) ) ;
#202 = ORIENTED_EDGE ( 'NONE', *, *, #187, .T. ) ;
#203 = EDGE_LOOP ( 'NONE', ( #82, #32, #62, #17 ) ) ;
#204 = ADVANCED_FACE ( 'NONE', ( #47 ), #216, .T. ) ;
#205 = FACE_OUTER_BOUND ( 'NONE', #12, .T. ) ;
#206 = ORIENTED_EDGE ( 'NONE', *, *, #6, .T. ) ;
#207 = CYLINDRICAL_SURFACE ( 'NONE', #83, 0.08586404999999999732 ) ;
#208 = VERTEX_POINT ( 'NONE', #2 ) ;
#209 = AXIS2_PLACEMENT_3D ( 'NONE', #251, #65, #169 ) ;
#210 = ORIENTED_EDGE ( 'NONE', *, *, #183, .F. ) ;
#211 = APPLICATION_CONTEXT ( 'automotive_design' ) ;
#212 = EDGE_CURVE ( 'NONE', #178, #126, #242, .T. ) ;
#213 = SURFACE_SIDE_STYLE ('',( #220 ) ) ;
#214 = CYLINDRICAL_SURFACE ( 'NONE', #117, 0.08586404999999999732 ) ;
#215 = EDGE_LOOP ( 'NONE', ( #236, #160, #14, #273 ) ) ;
#216 = CONICAL_SURFACE ( 'NONE', #255, 0.07874999999999980627, 0.7853981633974466137 ) ;
#217 = ADVANCED_BREP_SHAPE_REPRESENTATION ( 'Micro_GEM-171-2', ( #232, #21 ), #138 ) ;
#218 = DIRECTION ( 'NONE',  ( -1.224646799147353207E-16, -0.0000000000000000000, -1.000000000000000000 ) ) ;
#219 = CARTESIAN_POINT ( 'NONE',  ( 7.654042494670957853E-17, 0.0000000000000000000, 0.6250000000000000000 ) ) ;
#220 = SURFACE_STYLE_FILL_AREA ( #275 ) ;
#221 = ORIENTED_EDGE ( 'NONE', *, *, #194, .F. ) ;
#222 = LINE ( 'NONE', #173, #9 ) ;
#223 = ADVANCED_FACE ( 'NONE', ( #23 ), #102, .T. ) ;
#224 = CIRCLE ( 'NONE', #15, 0.08586404999999999732 ) ;
#225 = DIRECTION ( 'NONE',  ( -0.0000000000000000000, -0.0000000000000000000, -1.000000000000000000 ) ) ;
#226 = DIRECTION ( 'NONE',  ( -0.1736481776669311639, 2.126576849575782392E-17, 0.9848077530122080203 ) ) ;
#227 = DIRECTION ( 'NONE',  ( 1.000000000000000000, 0.0000000000000000000, -0.0000000000000000000 ) ) ;
#228 = DIRECTION ( 'NONE',  ( 1.224646799147353207E-16, 0.0000000000000000000, 1.000000000000000000 ) ) ;
#229 = PRODUCT_DEFINITION_SHAPE ( 'NONE', 'NONE',  #200 ) ;
#230 = DIRECTION ( 'NONE',  ( -1.224646799147353207E-16, -0.0000000000000000000, -1.000000000000000000 ) ) ;
#231 = AXIS2_PLACEMENT_3D ( 'NONE', #52, #225, #64 ) ;
#232 = MANIFOLD_SOLID_BREP ( 'Cut-Revolve1', #113 ) ;
#233 = FACE_OUTER_BOUND ( 'NONE', #215, .T. ) ;
#234 = VERTEX_POINT ( 'NONE', #148 ) ;
#235 = MECHANICAL_DESIGN_GEOMETRIC_PRESENTATION_REPRESENTATION (  '', ( #60 ), #40 ) ;
#236 = ORIENTED_EDGE ( 'NONE', *, *, #103, .T. ) ;
#237 = AXIS2_PLACEMENT_3D ( 'NONE', #1, #114, #198 ) ;
#238 = ORIENTED_EDGE ( 'NONE', *, *, #278, .T. ) ;
#239 = LINE ( 'NONE', #252, #265 ) ;
#240 = ADVANCED_FACE ( 'NONE', ( #188 ), #214, .T. ) ;
#241 = VERTEX_POINT ( 'NONE', #85 ) ;
#242 = LINE ( 'NONE', #199, #121 ) ;
#243 = SURFACE_STYLE_USAGE ( .BOTH. , #213 ) ;
#244 = DIRECTION ( 'NONE',  ( -1.000000000000000000, 0.0000000000000000000, 0.0000000000000000000 ) ) ;
#245 = DIRECTION ( 'NONE',  ( -1.000000000000000000, 0.0000000000000000000, 1.224646799147353454E-16 ) ) ;
#246 = EDGE_CURVE ( 'NONE', #98, #208, #154, .T. ) ;
#247 = DIRECTION ( 'NONE',  ( 0.0000000000000000000, 0.0000000000000000000, 1.000000000000000000 ) ) ;
#248 = AXIS2_PLACEMENT_3D ( 'NONE', #272, #49, #293 ) ;
#249 = CARTESIAN_POINT ( 'NONE',  ( 0.0000000000000000000, 0.0000000000000000000, 0.0000000000000000000 ) ) ;
#250 = DIRECTION ( 'NONE',  ( 1.000000000000000000, 0.0000000000000000000, 0.0000000000000000000 ) ) ;
#251 = CARTESIAN_POINT ( 'NONE',  ( 0.0000000000000000000, 0.0000000000000000000, 2.000000000000000000 ) ) ;
#252 = CARTESIAN_POINT ( 'NONE',  ( 0.07874999999999980627, 9.644093543285380530E-18, 2.000000000000000000 ) ) ;
#253 = CYLINDRICAL_SURFACE ( 'NONE', #231, 0.09375000000000001388 ) ;
#254 = COLOUR_RGB ( '',0.7921568627450980005, 0.8196078431372548767, 0.9333333333333333481 ) ;
#255 = AXIS2_PLACEMENT_3D ( 'NONE', #68, #107, #149 ) ;
#256 = LINE ( 'NONE', #5, #29 ) ;
#257 = CARTESIAN_POINT ( 'NONE',  ( -0.08586404999999999732, 0.0000000000000000000, 1.051531339943283032E-17 ) ) ;
#258 = EDGE_CURVE ( 'NONE', #241, #129, #10, .T. ) ;
#259 = CARTESIAN_POINT ( 'NONE',  ( -0.09375000000000001388, 0.0000000000000000000, 2.000000000000000000 ) ) ;
#260 = DIRECTION ( 'NONE',  ( 0.0000000000000000000, 0.0000000000000000000, 1.000000000000000000 ) ) ;
#261 = DIRECTION ( 'NONE',  ( -1.224646799147353207E-16, -0.0000000000000000000, -1.000000000000000000 ) ) ;
#262 = DIRECTION ( 'NONE',  ( -1.000000000000000000, 0.0000000000000000000, 0.0000000000000000000 ) ) ;
#263 = EDGE_LOOP ( 'NONE', ( #221, #8, #266, #165 ) ) ;
#264 = ADVANCED_FACE ( 'NONE', ( #110 ), #253, .T. ) ;
#265 = VECTOR ( 'NONE', #201, 39.37007874015748143 ) ;
#266 = ORIENTED_EDGE ( 'NONE', *, *, #6, .F. ) ;
#267 = LENGTH_MEASURE_WITH_UNIT ( LENGTH_MEASURE( 0.02539999999999999897 ), #294 );
#268 = DIRECTION ( 'NONE',  ( -1.224646799147353207E-16, -0.0000000000000000000, -1.000000000000000000 ) ) ;
#269 = FILL_AREA_STYLE ('',( #299 ) ) ;
#270 = CIRCLE ( 'NONE', #237, 0.07874999999999980627 ) ;
#271 = DIRECTION ( 'NONE',  ( -1.000000000000000000, 0.0000000000000000000, 1.224646799147353454E-16 ) ) ;
#272 = CARTESIAN_POINT ( 'NONE',  ( 7.654042494670957853E-17, 0.0000000000000000000, 0.6250000000000000000 ) ) ;
#273 = ORIENTED_EDGE ( 'NONE', *, *, #157, .F. ) ;
#274 = FACE_OUTER_BOUND ( 'NONE', #142, .T. ) ;
#275 = FILL_AREA_STYLE ('',( #170 ) ) ;
#276 = LENGTH_MEASURE_WITH_UNIT ( LENGTH_MEASURE( 0.02539999999999999897 ), #185 );
#277 = UNCERTAINTY_MEASURE_WITH_UNIT (LENGTH_MEASURE( 1.000000000000000082E-05 ), #132, 'distance_accuracy_value', 'NONE');
#278 = EDGE_CURVE ( 'NONE', #101, #126, #184, .T. ) ;
#279 = DIRECTION ( 'NONE',  ( 0.1736481776669313304, 0.0000000000000000000, 0.9848077530122077983 ) ) ;
#280 = VERTEX_POINT ( 'NONE', #109 ) ;
#281 = CARTESIAN_POINT ( 'NONE',  ( 8.201746730683681886E-17, 0.0000000000000000000, 0.6697234448654140193 ) ) ;
#282 = VECTOR ( 'NONE', #226, 39.37007874015747433 ) ;
#283 = AXIS2_PLACEMENT_3D ( 'NONE', #99, #285, #179 ) ;
#284 = PLANE ( 'NONE',  #177 ) ;
#285 = DIRECTION ( 'NONE',  ( 0.0000000000000000000, 0.0000000000000000000, 1.000000000000000000 ) ) ;
#286 = EDGE_LOOP ( 'NONE', ( #206, #79, #81, #147 ) ) ;
#287 = FACE_OUTER_BOUND ( 'NONE', #118, .T. ) ;
#288 = EDGE_CURVE ( 'NONE', #208, #98, #224, .T. ) ;
#289 = ORIENTED_EDGE ( 'NONE', *, *, #288, .T. ) ;
#290 = CARTESIAN_POINT ( 'NONE',  ( 0.08586404999999999732, 1.051531339943283032E-17, 0.0000000000000000000 ) ) ;
#291 = DIMENSIONAL_EXPONENTS ( 1.000000000000000000, 0.0000000000000000000, 0.0000000000000000000, 0.0000000000000000000, 0.0000000000000000000, 0.0000000000000000000, 0.0000000000000000000 ) ;
#292 =( CONVERSION_BASED_UNIT ( 'INCH', #276 ) LENGTH_UNIT ( ) NAMED_UNIT ( #291 ) );
#293 = DIRECTION ( 'NONE',  ( 1.000000000000000000, 0.0000000000000000000, 0.0000000000000000000 ) ) ;
#294 =( LENGTH_UNIT ( ) NAMED_UNIT ( * ) SI_UNIT ( $, .METRE. ) );
#295 = SURFACE_STYLE_FILL_AREA ( #269 ) ;
#296 = AXIS2_PLACEMENT_3D ( 'NONE', #158, #55, #262 ) ;
#297 = ORIENTED_EDGE ( 'NONE', *, *, #187, .F. ) ;
#298 =( NAMED_UNIT ( * ) PLANE_ANGLE_UNIT ( ) SI_UNIT ( $, .RADIAN. ) );
#299 = FILL_AREA_STYLE_COLOUR ( '', #254 ) ;
ENDSEC;
END-ISO-10303-21;
