ISO-10303-21;
HEADER;
FILE_DESCRIPTION (( 'STEP AP214' ),
    '1' );
FILE_NAME ('Micro_BMRM-011-4X.STEP',
    '2021-09-03T14:27:08',
    ( '' ),
    ( '' ),
    'SwSTEP 2.0',
    'SolidWorks 2020',
    '' );
FILE_SCHEMA (( 'AUTOMOTIVE_DESIGN' ));
ENDSEC;

DATA;
#1 = DIRECTION ( 'NONE',  ( 1.000000000000000000, 0.0000000000000000000, 0.0000000000000000000 ) ) ;
#2 =( CONVERSION_BASED_UNIT ( 'INCH', #73 ) LENGTH_UNIT ( ) NAMED_UNIT ( #55 ) );
#3 = CARTESIAN_POINT ( 'NONE',  ( 3.973705736380780789E-18, 0.0000000000000000000, 0.0000000000000000000 ) ) ;
#4 = LINE ( 'NONE', #197, #254 ) ;
#5 =( NAMED_UNIT ( * ) SI_UNIT ( $, .STERADIAN. ) SOLID_ANGLE_UNIT ( ) );
#6 = EDGE_CURVE ( 'NONE', #102, #131, #322, .T. ) ;
#7 = CARTESIAN_POINT ( 'NONE',  ( 0.0000000000000000000, 0.0000000000000000000, 1.968503999999999809 ) ) ;
#8 = AXIS2_PLACEMENT_3D ( 'NONE', #128, #221, #98 ) ;
#9 = CONICAL_SURFACE ( 'NONE', #230, 0.06374000000000018540, 0.7853981633974522758 ) ;
#10 = DIRECTION ( 'NONE',  ( -1.224646799147353207E-16, -0.0000000000000000000, -1.000000000000000000 ) ) ;
#11 = CARTESIAN_POINT ( 'NONE',  ( -0.02163184649999998557, 6.146003027036724905E-18, 0.1299210000000000087 ) ) ;
#12 = ORIENTED_EDGE ( 'NONE', *, *, #51, .F. ) ;
#13 = ORIENTED_EDGE ( 'NONE', *, *, #246, .T. ) ;
#14 = ORIENTED_EDGE ( 'NONE', *, *, #45, .F. ) ;
#15 = SURFACE_STYLE_USAGE ( .BOTH. , #240 ) ;
#16 = EDGE_LOOP ( 'NONE', ( #67, #17, #23, #63 ) ) ;
#17 = ORIENTED_EDGE ( 'NONE', *, *, #6, .F. ) ;
#18 =( CONVERSION_BASED_UNIT ( 'INCH', #147 ) LENGTH_UNIT ( ) NAMED_UNIT ( #223 ) );
#19 = EDGE_LOOP ( 'NONE', ( #42, #316, #312 ) ) ;
#20 = DIRECTION ( 'NONE',  ( 0.0000000000000000000, 1.000000000000000000, 0.0000000000000000000 ) ) ;
#21 = LINE ( 'NONE', #148, #201 ) ;
#22 = DIRECTION ( 'NONE',  ( -1.000000000000000000, 0.0000000000000000000, 1.224646799147353207E-16 ) ) ;
#23 = ORIENTED_EDGE ( 'NONE', *, *, #318, .T. ) ;
#24 =( NAMED_UNIT ( * ) SI_UNIT ( $, .STERADIAN. ) SOLID_ANGLE_UNIT ( ) );
#25 = MECHANICAL_DESIGN_GEOMETRIC_PRESENTATION_REPRESENTATION (  '', ( #113 ), #279 ) ;
#26 = DIRECTION ( 'NONE',  ( -0.7071067811865502373, 0.0000000000000000000, -0.7071067811865446862 ) ) ;
#27 = EDGE_CURVE ( 'NONE', #91, #136, #153, .T. ) ;
#28 = AXIS2_PLACEMENT_3D ( 'NONE', #140, #215, #248 ) ;
#29 = CARTESIAN_POINT ( 'NONE',  ( 0.0000000000000000000, 0.0000000000000000000, 1.953504000000000129 ) ) ;
#30 = EDGE_CURVE ( 'NONE', #157, #91, #61, .T. ) ;
#31 = CARTESIAN_POINT ( 'NONE',  ( 2.649137157587187450E-18, 0.0000000000000000000, 0.02163184649999999945 ) ) ;
#32 = CARTESIAN_POINT ( 'NONE',  ( 0.0000000000000000000, 0.0000000000000000000, 0.0000000000000000000 ) ) ;
#33 = PRESENTATION_LAYER_ASSIGNMENT (  '', '', ( #208 ) ) ;
#34 = ADVANCED_FACE ( 'NONE', ( #320 ), #56, .T. ) ;
#35 = DIRECTION ( 'NONE',  ( 1.000000000000000000, 0.0000000000000000000, 0.0000000000000000000 ) ) ;
#36 = DIRECTION ( 'NONE',  ( 1.000000000000000000, 0.0000000000000000000, 0.0000000000000000000 ) ) ;
#37 = VERTEX_POINT ( 'NONE', #250 ) ;
#38 = CARTESIAN_POINT ( 'NONE',  ( 2.649137157587187450E-18, 0.0000000000000000000, 0.02163184649999999945 ) ) ;
#39 = DIRECTION ( 'NONE',  ( 0.1736481776669313581, 0.0000000000000000000, 0.9848077530122077983 ) ) ;
#40 = LENGTH_MEASURE_WITH_UNIT ( LENGTH_MEASURE( 0.02539999999999999897 ), #161 );
#41 = UNCERTAINTY_MEASURE_WITH_UNIT (LENGTH_MEASURE( 1.000000000000000082E-05 ), #46, 'distance_accuracy_value', 'NONE');
#42 = ORIENTED_EDGE ( 'NONE', *, *, #190, .F. ) ;
#43 = DIRECTION ( 'NONE',  ( -1.000000000000000000, 0.0000000000000000000, 0.0000000000000000000 ) ) ;
#44 = SHAPE_DEFINITION_REPRESENTATION ( #48, #309 ) ;
#45 = EDGE_CURVE ( 'NONE', #100, #91, #21, .T. ) ;
#46 =( CONVERSION_BASED_UNIT ( 'INCH', #40 ) LENGTH_UNIT ( ) NAMED_UNIT ( #141 ) );
#47 = DIRECTION ( 'NONE',  ( 1.000000000000000000, 0.0000000000000000000, 0.0000000000000000000 ) ) ;
#48 = PRODUCT_DEFINITION_SHAPE ( 'NONE', 'NONE',  #266 ) ;
#49 =( NAMED_UNIT ( * ) PLANE_ANGLE_UNIT ( ) SI_UNIT ( $, .RADIAN. ) );
#50 = DIRECTION ( 'NONE',  ( -0.0000000000000000000, -0.0000000000000000000, -1.000000000000000000 ) ) ;
#51 = EDGE_CURVE ( 'NONE', #269, #188, #66, .T. ) ;
#52 = CARTESIAN_POINT ( 'NONE',  ( 0.07874000000000004607, 9.642868896486264672E-18, 0.4537974326964857585 ) ) ;
#53 = CIRCLE ( 'NONE', #311, 0.07874000000000000443 ) ;
#54 = EDGE_LOOP ( 'NONE', ( #217, #209, #243, #133 ) ) ;
#55 = DIMENSIONAL_EXPONENTS ( 1.000000000000000000, 0.0000000000000000000, 0.0000000000000000000, 0.0000000000000000000, 0.0000000000000000000, 0.0000000000000000000, 0.0000000000000000000 ) ;
#56 = CONICAL_SURFACE ( 'NONE', #8, 0.06374000000000018540, 0.7853981633974522758 ) ;
#57 = EDGE_CURVE ( 'NONE', #37, #157, #4, .T. ) ;
#58 = CARTESIAN_POINT ( 'NONE',  ( 1.591073367920233116E-17, 0.0000000000000000000, 0.1299210000000000087 ) ) ;
#59 = DIRECTION ( 'NONE',  ( 0.0000000000000000000, 1.000000000000000000, 0.0000000000000000000 ) ) ;
#60 = DIRECTION ( 'NONE',  ( -1.000000000000000000, 0.0000000000000000000, 0.0000000000000000000 ) ) ;
#61 = CIRCLE ( 'NONE', #159, 0.07874000000000000443 ) ;
#62 = CIRCLE ( 'NONE', #127, 0.02163184649999999945 ) ;
#63 = ORIENTED_EDGE ( 'NONE', *, *, #199, .T. ) ;
#64 = APPLICATION_CONTEXT ( 'automotive_design' ) ;
#65 = CARTESIAN_POINT ( 'NONE',  ( 0.02163184649999999945, 2.649137157587187450E-18, -2.649137157587187450E-18 ) ) ;
#66 = CIRCLE ( 'NONE', #285, 0.02163184649999999945 ) ;
#67 = ORIENTED_EDGE ( 'NONE', *, *, #206, .F. ) ;
#68 = SURFACE_STYLE_FILL_AREA ( #134 ) ;
#69 = DIRECTION ( 'NONE',  ( -1.000000000000000000, 0.0000000000000000000, 0.0000000000000000000 ) ) ;
#70 = CARTESIAN_POINT ( 'NONE',  ( 5.557415734130376665E-17, 0.0000000000000000000, 0.4537974326964857585 ) ) ;
#71 = VECTOR ( 'NONE', #299, 39.37007874015748143 ) ;
#72 = DIRECTION ( 'NONE',  ( 1.224646799147353207E-16, 0.0000000000000000000, 1.000000000000000000 ) ) ;
#73 = LENGTH_MEASURE_WITH_UNIT ( LENGTH_MEASURE( 0.02539999999999999897 ), #166 );
#74 = ORIENTED_EDGE ( 'NONE', *, *, #199, .F. ) ;
#75 = DIRECTION ( 'NONE',  ( 1.224646799147353207E-16, 1.000000000000000000, -0.0000000000000000000 ) ) ;
#76 = ORIENTED_EDGE ( 'NONE', *, *, #45, .T. ) ;
#77 = APPLICATION_PROTOCOL_DEFINITION ( 'draft international standard', 'automotive_design', 1998, #145 ) ;
#78 = COLOUR_RGB ( '',0.7921568627450980005, 0.8196078431372548767, 0.9333333333333333481 ) ;
#79 = FACE_OUTER_BOUND ( 'NONE', #89, .T. ) ;
#80 = AXIS2_PLACEMENT_3D ( 'NONE', #234, #314, #86 ) ;
#81 = CARTESIAN_POINT ( 'NONE',  ( 0.0000000000000000000, 0.0000000000000000000, 1.968503999999999809 ) ) ;
#82 = ADVANCED_FACE ( 'NONE', ( #105 ), #258, .T. ) ;
#83 = DIRECTION ( 'NONE',  ( 1.224646799147353207E-16, 0.0000000000000000000, 1.000000000000000000 ) ) ;
#84 = CARTESIAN_POINT ( 'NONE',  ( 0.0000000000000000000, 0.0000000000000000000, 1.968503999999999809 ) ) ;
#85 = AXIS2_PLACEMENT_3D ( 'NONE', #58, #83, #129 ) ;
#86 = DIRECTION ( 'NONE',  ( 1.000000000000000000, 0.0000000000000000000, 0.0000000000000000000 ) ) ;
#87 = ADVANCED_FACE ( 'NONE', ( #200 ), #176, .T. ) ;
#88 = ORIENTED_EDGE ( 'NONE', *, *, #257, .T. ) ;
#89 = EDGE_LOOP ( 'NONE', ( #252, #290 ) ) ;
#90 = AXIS2_PLACEMENT_3D ( 'NONE', #31, #59, #256 ) ;
#91 = VERTEX_POINT ( 'NONE', #106 ) ;
#92 = ORIENTED_EDGE ( 'NONE', *, *, #30, .F. ) ;
#93 = FILL_AREA_STYLE_COLOUR ( '', #99 ) ;
#94 = DIRECTION ( 'NONE',  ( 0.0000000000000000000, -1.000000000000000000, 0.0000000000000000000 ) ) ;
#95 = SURFACE_STYLE_FILL_AREA ( #119 ) ;
#96 = ORIENTED_EDGE ( 'NONE', *, *, #174, .T. ) ;
#97 =( NAMED_UNIT ( * ) PLANE_ANGLE_UNIT ( ) SI_UNIT ( $, .RADIAN. ) );
#98 = DIRECTION ( 'NONE',  ( -1.000000000000000000, 0.0000000000000000000, 0.0000000000000000000 ) ) ;
#99 = COLOUR_RGB ( '',0.7921568627450980005, 0.8196078431372548767, 0.9333333333333333481 ) ;
#100 = VERTEX_POINT ( 'NONE', #179 ) ;
#101 = DIRECTION ( 'NONE',  ( -0.1736481776669311639, 2.126576849575783008E-17, 0.9848077530122080203 ) ) ;
#102 = VERTEX_POINT ( 'NONE', #202 ) ;
#103 = PRODUCT_DEFINITION_CONTEXT ( 'detailed design', #64, 'design' ) ;
#104 = CIRCLE ( 'NONE', #227, 0.07874000000000000443 ) ;
#105 = FACE_OUTER_BOUND ( 'NONE', #19, .T. ) ;
#106 = CARTESIAN_POINT ( 'NONE',  ( -0.07874000000000000443, 0.0000000000000000000, 1.953504000000000129 ) ) ;
#107 = EDGE_CURVE ( 'NONE', #37, #100, #310, .T. ) ;
#108 = AXIS2_PLACEMENT_3D ( 'NONE', #224, #293, #195 ) ;
#109 = DIRECTION ( 'NONE',  ( -1.000000000000000000, 0.0000000000000000000, 1.224646799147353207E-16 ) ) ;
#110 = FACE_OUTER_BOUND ( 'NONE', #138, .T. ) ;
#111 = CARTESIAN_POINT ( 'NONE',  ( 0.02163184650000002027, 0.0000000000000000000, 0.1299210000000000087 ) ) ;
#112 = AXIS2_PLACEMENT_3D ( 'NONE', #278, #20, #36 ) ;
#113 = STYLED_ITEM ( 'NONE', ( #218 ), #309 ) ;
#114 = CARTESIAN_POINT ( 'NONE',  ( 0.0000000000000000000, 0.0000000000000000000, 1.968503999999999809 ) ) ;
#115 = PRESENTATION_STYLE_ASSIGNMENT (( #15 ) ) ;
#116 = ORIENTED_EDGE ( 'NONE', *, *, #239, .F. ) ;
#117 = VECTOR ( 'NONE', #39, 39.37007874015748143 ) ;
#118 = ORIENTED_EDGE ( 'NONE', *, *, #304, .F. ) ;
#119 = FILL_AREA_STYLE ('',( #319 ) ) ;
#120 = LINE ( 'NONE', #275, #222 ) ;
#121 = ORIENTED_EDGE ( 'NONE', *, *, #51, .T. ) ;
#122 = LINE ( 'NONE', #150, #193 ) ;
#123 = CIRCLE ( 'NONE', #268, 0.02163184649999999945 ) ;
#124 = DIRECTION ( 'NONE',  ( 0.0000000000000000000, 0.0000000000000000000, -1.000000000000000000 ) ) ;
#125 = DIRECTION ( 'NONE',  ( -1.000000000000000000, 0.0000000000000000000, 1.973253873681292640E-16 ) ) ;
#126 = ADVANCED_FACE ( 'NONE', ( #231 ), #226, .T. ) ;
#127 = AXIS2_PLACEMENT_3D ( 'NONE', #244, #94, #124 ) ;
#128 = CARTESIAN_POINT ( 'NONE',  ( 0.0000000000000000000, 0.0000000000000000000, 1.968503999999999809 ) ) ;
#129 = DIRECTION ( 'NONE',  ( 1.000000000000000000, 0.0000000000000000000, 0.0000000000000000000 ) ) ;
#130 = DIRECTION ( 'NONE',  ( 1.000000000000000000, 0.0000000000000000000, 0.0000000000000000000 ) ) ;
#131 = VERTEX_POINT ( 'NONE', #11 ) ;
#132 = FACE_OUTER_BOUND ( 'NONE', #54, .T. ) ;
#133 = ORIENTED_EDGE ( 'NONE', *, *, #318, .F. ) ;
#134 = FILL_AREA_STYLE ('',( #93 ) ) ;
#135 = DIRECTION ( 'NONE',  ( -0.0000000000000000000, -0.0000000000000000000, -1.000000000000000000 ) ) ;
#136 = VERTEX_POINT ( 'NONE', #204 ) ;
#137 = ADVANCED_FACE ( 'NONE', ( #79 ), #154, .T. ) ;
#138 = EDGE_LOOP ( 'NONE', ( #274, #186, #76, #92 ) ) ;
#139 = AXIS2_PLACEMENT_3D ( 'NONE', #7, #135, #232 ) ;
#140 = CARTESIAN_POINT ( 'NONE',  ( 2.649137157587187450E-18, 0.0000000000000000000, 0.02163184649999999945 ) ) ;
#141 = DIMENSIONAL_EXPONENTS ( 1.000000000000000000, 0.0000000000000000000, 0.0000000000000000000, 0.0000000000000000000, 0.0000000000000000000, 0.0000000000000000000, 0.0000000000000000000 ) ;
#142 = DIRECTION ( 'NONE',  ( -1.224646799147353207E-16, -0.0000000000000000000, -1.000000000000000000 ) ) ;
#143 = CARTESIAN_POINT ( 'NONE',  ( 0.07874000000000000443, 9.642868896486258509E-18, 1.968503999999999809 ) ) ;
#144 = PRODUCT_CONTEXT ( 'NONE', #145, 'mechanical' ) ;
#145 = APPLICATION_CONTEXT ( 'automotive_design' ) ;
#146 = DIRECTION ( 'NONE',  ( -1.224646799147353207E-16, -0.0000000000000000000, -1.000000000000000000 ) ) ;
#147 = LENGTH_MEASURE_WITH_UNIT ( LENGTH_MEASURE( 0.02539999999999999897 ), #321 );
#148 = CARTESIAN_POINT ( 'NONE',  ( -0.06374000000000018540, 0.0000000000000000000, 1.968503999999999809 ) ) ;
#149 = EDGE_CURVE ( 'NONE', #131, #102, #164, .T. ) ;
#150 = CARTESIAN_POINT ( 'NONE',  ( -0.02163184649999998557, 2.649137157587188220E-18, 0.1299210000000000087 ) ) ;
#151 = ADVANCED_FACE ( 'NONE', ( #280 ), #203, .T. ) ;
#152 = AXIS2_PLACEMENT_3D ( 'NONE', #253, #167, #22 ) ;
#153 = LINE ( 'NONE', #323, #302 ) ;
#154 = PLANE ( 'NONE',  #277 ) ;
#155 = DIRECTION ( 'NONE',  ( -1.224646799147353207E-16, -0.0000000000000000000, -1.000000000000000000 ) ) ;
#156 = MECHANICAL_DESIGN_GEOMETRIC_PRESENTATION_REPRESENTATION (  '', ( #208 ), #187 ) ;
#157 = VERTEX_POINT ( 'NONE', #242 ) ;
#158 = ORIENTED_EDGE ( 'NONE', *, *, #27, .T. ) ;
#159 = AXIS2_PLACEMENT_3D ( 'NONE', #29, #228, #163 ) ;
#160 = AXIS2_PLACEMENT_3D ( 'NONE', #84, #261, #313 ) ;
#161 =( LENGTH_UNIT ( ) NAMED_UNIT ( * ) SI_UNIT ( $, .METRE. ) );
#162 = EDGE_LOOP ( 'NONE', ( #287, #170, #158, #74 ) ) ;
#163 = DIRECTION ( 'NONE',  ( 1.000000000000000000, 0.0000000000000000000, 0.0000000000000000000 ) ) ;
#164 = CIRCLE ( 'NONE', #207, 0.02163184650000000292 ) ;
#165 = CIRCLE ( 'NONE', #28, 0.02163184649999999945 ) ;
#166 =( LENGTH_UNIT ( ) NAMED_UNIT ( * ) SI_UNIT ( $, .METRE. ) );
#167 = DIRECTION ( 'NONE',  ( -1.224646799147353207E-16, -0.0000000000000000000, -1.000000000000000000 ) ) ;
#168 = ORIENTED_EDGE ( 'NONE', *, *, #304, .T. ) ;
#169 = DIRECTION ( 'NONE',  ( -1.000000000000000000, 1.224646799147353207E-16, 0.0000000000000000000 ) ) ;
#170 = ORIENTED_EDGE ( 'NONE', *, *, #30, .T. ) ;
#171 = FACE_OUTER_BOUND ( 'NONE', #271, .T. ) ;
#172 = DIRECTION ( 'NONE',  ( 0.0000000000000000000, 0.0000000000000000000, -1.000000000000000000 ) ) ;
#173 = SURFACE_SIDE_STYLE ('',( #95 ) ) ;
#174 = EDGE_CURVE ( 'NONE', #188, #269, #165, .T. ) ;
#175 =( GEOMETRIC_REPRESENTATION_CONTEXT ( 3 ) GLOBAL_UNCERTAINTY_ASSIGNED_CONTEXT ( ( #259 ) ) GLOBAL_UNIT_ASSIGNED_CONTEXT ( ( #2, #49, #191 ) ) REPRESENTATION_CONTEXT ( 'NONE', 'WORKASPACE' ) );
#176 = CYLINDRICAL_SURFACE ( 'NONE', #236, 0.02163184649999999945 ) ;
#177 = ADVANCED_FACE ( 'NONE', ( #132 ), #303, .T. ) ;
#178 = DIRECTION ( 'NONE',  ( 0.0000000000000000000, 0.0000000000000000000, 1.000000000000000000 ) ) ;
#179 = CARTESIAN_POINT ( 'NONE',  ( -0.06374000000000018540, 0.0000000000000000000, 1.968503999999999809 ) ) ;
#180 = EDGE_CURVE ( 'NONE', #102, #269, #184, .T. ) ;
#181 = CARTESIAN_POINT ( 'NONE',  ( 0.0000000000000000000, 0.0000000000000000000, 1.968503999999999809 ) ) ;
#182 = MANIFOLD_SOLID_BREP ( 'Fillet1', #301 ) ;
#183 = VERTEX_POINT ( 'NONE', #52 ) ;
#184 = LINE ( 'NONE', #65, #265 ) ;
#185 = ORIENTED_EDGE ( 'NONE', *, *, #297, .F. ) ;
#186 = ORIENTED_EDGE ( 'NONE', *, *, #286, .F. ) ;
#187 =( GEOMETRIC_REPRESENTATION_CONTEXT ( 3 ) GLOBAL_UNCERTAINTY_ASSIGNED_CONTEXT ( ( #41 ) ) GLOBAL_UNIT_ASSIGNED_CONTEXT ( ( #46, #255, #24 ) ) REPRESENTATION_CONTEXT ( 'NONE', 'WORKASPACE' ) );
#188 = VERTEX_POINT ( 'NONE', #194 ) ;
#189 = CARTESIAN_POINT ( 'NONE',  ( 1.591073367920233116E-17, 0.0000000000000000000, 0.1299210000000000087 ) ) ;
#190 = EDGE_CURVE ( 'NONE', #262, #188, #123, .T. ) ;
#191 =( NAMED_UNIT ( * ) SI_UNIT ( $, .STERADIAN. ) SOLID_ANGLE_UNIT ( ) );
#192 = EDGE_LOOP ( 'NONE', ( #168, #13, #116, #315 ) ) ;
#193 = VECTOR ( 'NONE', #101, 39.37007874015747433 ) ;
#194 = CARTESIAN_POINT ( 'NONE',  ( -0.02163184649999999598, 0.0000000000000000000, 0.02163184650000000292 ) ) ;
#195 = DIRECTION ( 'NONE',  ( 1.000000000000000000, 0.0000000000000000000, 0.0000000000000000000 ) ) ;
#196 = DIRECTION ( 'NONE',  ( 0.0000000000000000000, 0.0000000000000000000, 1.000000000000000000 ) ) ;
#197 = CARTESIAN_POINT ( 'NONE',  ( 0.06374000000000018540, 7.805898697765251255E-18, 1.968503999999999809 ) ) ;
#198 = ADVANCED_FACE ( 'NONE', ( #171 ), #272, .T. ) ;
#199 = EDGE_CURVE ( 'NONE', #183, #136, #104, .T. ) ;
#200 = FACE_OUTER_BOUND ( 'NONE', #237, .T. ) ;
#201 = VECTOR ( 'NONE', #26, 39.37007874015748854 ) ;
#202 = CARTESIAN_POINT ( 'NONE',  ( 0.02163184650000002027, 0.0000000000000000000, 0.1299210000000000087 ) ) ;
#203 = SPHERICAL_SURFACE ( 'NONE', #112, 0.02163184649999999945 ) ;
#204 = CARTESIAN_POINT ( 'NONE',  ( -0.07873999999999994892, 0.0000000000000000000, 0.4537974326964857585 ) ) ;
#205 = FACE_OUTER_BOUND ( 'NONE', #192, .T. ) ;
#206 = EDGE_CURVE ( 'NONE', #131, #136, #122, .T. ) ;
#207 = AXIS2_PLACEMENT_3D ( 'NONE', #283, #10, #60 ) ;
#208 = STYLED_ITEM ( 'NONE', ( #115 ), #182 ) ;
#209 = ORIENTED_EDGE ( 'NONE', *, *, #206, .T. ) ;
#210 = EDGE_LOOP ( 'NONE', ( #289, #300, #118, #14 ) ) ;
#211 = DIRECTION ( 'NONE',  ( 1.000000000000000000, 0.0000000000000000000, 0.0000000000000000000 ) ) ;
#212 = PRODUCT_RELATED_PRODUCT_CATEGORY ( 'part', '', ( #294 ) ) ;
#213 = EDGE_LOOP ( 'NONE', ( #185, #233, #12 ) ) ;
#214 = AXIS2_PLACEMENT_3D ( 'NONE', #114, #282, #211 ) ;
#215 = DIRECTION ( 'NONE',  ( 1.224646799147353207E-16, 0.0000000000000000000, 1.000000000000000000 ) ) ;
#216 = CYLINDRICAL_SURFACE ( 'NONE', #139, 0.07874000000000000443 ) ;
#217 = ORIENTED_EDGE ( 'NONE', *, *, #149, .F. ) ;
#218 = PRESENTATION_STYLE_ASSIGNMENT (( #296 ) ) ;
#219 = CARTESIAN_POINT ( 'NONE',  ( 2.649137157587187450E-18, 0.0000000000000000000, 0.02163184649999999945 ) ) ;
#220 = CARTESIAN_POINT ( 'NONE',  ( 0.0000000000000000000, 0.0000000000000000000, 0.0000000000000000000 ) ) ;
#221 = DIRECTION ( 'NONE',  ( 0.0000000000000000000, 0.0000000000000000000, -1.000000000000000000 ) ) ;
#222 = VECTOR ( 'NONE', #251, 39.37007874015748143 ) ;
#223 = DIMENSIONAL_EXPONENTS ( 1.000000000000000000, 0.0000000000000000000, 0.0000000000000000000, 0.0000000000000000000, 0.0000000000000000000, 0.0000000000000000000, 0.0000000000000000000 ) ;
#224 = CARTESIAN_POINT ( 'NONE',  ( 5.557415734130376665E-17, 0.0000000000000000000, 0.4537974326964857585 ) ) ;
#225 = CARTESIAN_POINT ( 'NONE',  ( 0.0000000000000000000, 0.0000000000000000000, 1.953504000000000129 ) ) ;
#226 = CONICAL_SURFACE ( 'NONE', #85, 0.02163184650000000292, 0.1745329251994338637 ) ;
#227 = AXIS2_PLACEMENT_3D ( 'NONE', #70, #146, #1 ) ;
#228 = DIRECTION ( 'NONE',  ( 0.0000000000000000000, 0.0000000000000000000, -1.000000000000000000 ) ) ;
#229 = AXIS2_PLACEMENT_3D ( 'NONE', #189, #142, #69 ) ;
#230 = AXIS2_PLACEMENT_3D ( 'NONE', #181, #292, #43 ) ;
#231 = FACE_OUTER_BOUND ( 'NONE', #16, .T. ) ;
#232 = DIRECTION ( 'NONE',  ( -1.000000000000000000, 0.0000000000000000000, 0.0000000000000000000 ) ) ;
#233 = ORIENTED_EDGE ( 'NONE', *, *, #190, .T. ) ;
#234 = CARTESIAN_POINT ( 'NONE',  ( 1.591073367920233116E-17, 0.0000000000000000000, 0.1299210000000000087 ) ) ;
#235 = CARTESIAN_POINT ( 'NONE',  ( 0.02163184650000000292, 2.649137157587187450E-18, 0.02163184649999999598 ) ) ;
#236 = AXIS2_PLACEMENT_3D ( 'NONE', #32, #155, #109 ) ;
#237 = EDGE_LOOP ( 'NONE', ( #276, #298, #88, #96 ) ) ;
#238 = ORIENTED_EDGE ( 'NONE', *, *, #149, .T. ) ;
#239 = EDGE_CURVE ( 'NONE', #136, #183, #260, .T. ) ;
#240 = SURFACE_SIDE_STYLE ('',( #68 ) ) ;
#241 = ORIENTED_EDGE ( 'NONE', *, *, #180, .T. ) ;
#242 = CARTESIAN_POINT ( 'NONE',  ( 0.07874000000000000443, 9.642868896486258509E-18, 1.953504000000000129 ) ) ;
#243 = ORIENTED_EDGE ( 'NONE', *, *, #239, .T. ) ;
#244 = CARTESIAN_POINT ( 'NONE',  ( 2.649137157587187450E-18, 0.0000000000000000000, 0.02163184649999999945 ) ) ;
#245 = CIRCLE ( 'NONE', #214, 0.06374000000000018540 ) ;
#246 = EDGE_CURVE ( 'NONE', #157, #183, #270, .T. ) ;
#247 = AXIS2_PLACEMENT_3D ( 'NONE', #220, #196, #47 ) ;
#248 = DIRECTION ( 'NONE',  ( -1.000000000000000000, 0.0000000000000000000, 1.973253873681292640E-16 ) ) ;
#249 = APPLICATION_PROTOCOL_DEFINITION ( 'draft international standard', 'automotive_design', 1998, #64 ) ;
#250 = CARTESIAN_POINT ( 'NONE',  ( 0.06374000000000018540, 8.724383797125754882E-18, 1.968503999999999809 ) ) ;
#251 = DIRECTION ( 'NONE',  ( -1.224646799147353207E-16, -0.0000000000000000000, -1.000000000000000000 ) ) ;
#252 = ORIENTED_EDGE ( 'NONE', *, *, #286, .T. ) ;
#253 = CARTESIAN_POINT ( 'NONE',  ( 0.0000000000000000000, 0.0000000000000000000, 0.0000000000000000000 ) ) ;
#254 = VECTOR ( 'NONE', #306, 39.37007874015748854 ) ;
#255 =( NAMED_UNIT ( * ) PLANE_ANGLE_UNIT ( ) SI_UNIT ( $, .RADIAN. ) );
#256 = DIRECTION ( 'NONE',  ( 1.000000000000000000, 0.0000000000000000000, 0.0000000000000000000 ) ) ;
#257 = EDGE_CURVE ( 'NONE', #131, #188, #120, .T. ) ;
#258 = SPHERICAL_SURFACE ( 'NONE', #90, 0.02163184649999999945 ) ;
#259 = UNCERTAINTY_MEASURE_WITH_UNIT (LENGTH_MEASURE( 1.000000000000000082E-05 ), #2, 'distance_accuracy_value', 'NONE');
#260 = CIRCLE ( 'NONE', #108, 0.07874000000000000443 ) ;
#261 = DIRECTION ( 'NONE',  ( -0.0000000000000000000, -0.0000000000000000000, -1.000000000000000000 ) ) ;
#262 = VERTEX_POINT ( 'NONE', #3 ) ;
#263 = ADVANCED_FACE ( 'NONE', ( #273 ), #216, .T. ) ;
#264 = DIRECTION ( 'NONE',  ( -1.224646799147353207E-16, -0.0000000000000000000, -1.000000000000000000 ) ) ;
#265 = VECTOR ( 'NONE', #264, 39.37007874015748143 ) ;
#266 = PRODUCT_DEFINITION ( 'UNKNOWN', '', #325, #103 ) ;
#267 = AXIS2_PLACEMENT_3D ( 'NONE', #81, #178, #130 ) ;
#268 = AXIS2_PLACEMENT_3D ( 'NONE', #38, #75, #169 ) ;
#269 = VERTEX_POINT ( 'NONE', #235 ) ;
#270 = LINE ( 'NONE', #143, #71 ) ;
#271 = EDGE_LOOP ( 'NONE', ( #238, #241, #121, #288 ) ) ;
#272 = CYLINDRICAL_SURFACE ( 'NONE', #152, 0.02163184649999999945 ) ;
#273 = FACE_OUTER_BOUND ( 'NONE', #162, .T. ) ;
#274 = ORIENTED_EDGE ( 'NONE', *, *, #57, .F. ) ;
#275 = CARTESIAN_POINT ( 'NONE',  ( -0.02163184649999999945, 0.0000000000000000000, 2.649137157587187450E-18 ) ) ;
#276 = ORIENTED_EDGE ( 'NONE', *, *, #180, .F. ) ;
#277 = AXIS2_PLACEMENT_3D ( 'NONE', #307, #305, #281 ) ;
#278 = CARTESIAN_POINT ( 'NONE',  ( 2.649137157587187450E-18, 0.0000000000000000000, 0.02163184649999999945 ) ) ;
#279 =( GEOMETRIC_REPRESENTATION_CONTEXT ( 3 ) GLOBAL_UNCERTAINTY_ASSIGNED_CONTEXT ( ( #284 ) ) GLOBAL_UNIT_ASSIGNED_CONTEXT ( ( #18, #97, #5 ) ) REPRESENTATION_CONTEXT ( 'NONE', 'WORKASPACE' ) );
#280 = FACE_OUTER_BOUND ( 'NONE', #213, .T. ) ;
#281 = DIRECTION ( 'NONE',  ( 1.000000000000000000, 0.0000000000000000000, -0.0000000000000000000 ) ) ;
#282 = DIRECTION ( 'NONE',  ( 0.0000000000000000000, 0.0000000000000000000, 1.000000000000000000 ) ) ;
#283 = CARTESIAN_POINT ( 'NONE',  ( 1.591073367920233116E-17, 0.0000000000000000000, 0.1299210000000000087 ) ) ;
#284 = UNCERTAINTY_MEASURE_WITH_UNIT (LENGTH_MEASURE( 1.000000000000000082E-05 ), #18, 'distance_accuracy_value', 'NONE');
#285 = AXIS2_PLACEMENT_3D ( 'NONE', #219, #72, #125 ) ;
#286 = EDGE_CURVE ( 'NONE', #100, #37, #245, .T. ) ;
#287 = ORIENTED_EDGE ( 'NONE', *, *, #246, .F. ) ;
#288 = ORIENTED_EDGE ( 'NONE', *, *, #257, .F. ) ;
#289 = ORIENTED_EDGE ( 'NONE', *, *, #107, .F. ) ;
#290 = ORIENTED_EDGE ( 'NONE', *, *, #107, .T. ) ;
#291 = ADVANCED_FACE ( 'NONE', ( #110 ), #9, .T. ) ;
#292 = DIRECTION ( 'NONE',  ( 0.0000000000000000000, 0.0000000000000000000, -1.000000000000000000 ) ) ;
#293 = DIRECTION ( 'NONE',  ( -1.224646799147353207E-16, -0.0000000000000000000, -1.000000000000000000 ) ) ;
#294 = PRODUCT ( 'Micro_BMRM-011-4X', 'Micro_BMRM-011-4X', '', ( #144 ) ) ;
#295 = PRESENTATION_LAYER_ASSIGNMENT (  '', '', ( #113 ) ) ;
#296 = SURFACE_STYLE_USAGE ( .BOTH. , #173 ) ;
#297 = EDGE_CURVE ( 'NONE', #262, #269, #62, .T. ) ;
#298 = ORIENTED_EDGE ( 'NONE', *, *, #6, .T. ) ;
#299 = DIRECTION ( 'NONE',  ( -0.0000000000000000000, -0.0000000000000000000, -1.000000000000000000 ) ) ;
#300 = ORIENTED_EDGE ( 'NONE', *, *, #57, .T. ) ;
#301 = CLOSED_SHELL ( 'NONE', ( #151, #198, #177, #34, #324, #263, #137, #291, #126, #87, #82 ) ) ;
#302 = VECTOR ( 'NONE', #50, 39.37007874015748143 ) ;
#303 = CONICAL_SURFACE ( 'NONE', #80, 0.02163184650000000292, 0.1745329251994338637 ) ;
#304 = EDGE_CURVE ( 'NONE', #91, #157, #53, .T. ) ;
#305 = DIRECTION ( 'NONE',  ( 0.0000000000000000000, 0.0000000000000000000, 1.000000000000000000 ) ) ;
#306 = DIRECTION ( 'NONE',  ( 0.7071067811865502373, 8.659560562354966138E-17, -0.7071067811865446862 ) ) ;
#307 = CARTESIAN_POINT ( 'NONE',  ( 0.0000000000000000000, 0.0000000000000000000, 1.968503999999999809 ) ) ;
#308 = CYLINDRICAL_SURFACE ( 'NONE', #160, 0.07874000000000000443 ) ;
#309 = ADVANCED_BREP_SHAPE_REPRESENTATION ( 'Micro_BMRM-011-4X', ( #182, #247 ), #175 ) ;
#310 = CIRCLE ( 'NONE', #267, 0.06374000000000018540 ) ;
#311 = AXIS2_PLACEMENT_3D ( 'NONE', #225, #172, #35 ) ;
#312 = ORIENTED_EDGE ( 'NONE', *, *, #174, .F. ) ;
#313 = DIRECTION ( 'NONE',  ( -1.000000000000000000, 0.0000000000000000000, 0.0000000000000000000 ) ) ;
#314 = DIRECTION ( 'NONE',  ( 1.224646799147353207E-16, 0.0000000000000000000, 1.000000000000000000 ) ) ;
#315 = ORIENTED_EDGE ( 'NONE', *, *, #27, .F. ) ;
#316 = ORIENTED_EDGE ( 'NONE', *, *, #297, .T. ) ;
#317 = LINE ( 'NONE', #111, #117 ) ;
#318 = EDGE_CURVE ( 'NONE', #102, #183, #317, .T. ) ;
#319 = FILL_AREA_STYLE_COLOUR ( '', #78 ) ;
#320 = FACE_OUTER_BOUND ( 'NONE', #210, .T. ) ;
#321 =( LENGTH_UNIT ( ) NAMED_UNIT ( * ) SI_UNIT ( $, .METRE. ) );
#322 = CIRCLE ( 'NONE', #229, 0.02163184650000000292 ) ;
#323 = CARTESIAN_POINT ( 'NONE',  ( -0.07874000000000000443, 0.0000000000000000000, 1.968503999999999809 ) ) ;
#324 = ADVANCED_FACE ( 'NONE', ( #205 ), #308, .T. ) ;
#325 = PRODUCT_DEFINITION_FORMATION_WITH_SPECIFIED_SOURCE ( 'ANY', '', #294, .NOT_KNOWN. ) ;
ENDSEC;
END-ISO-10303-21;
