ISO-10303-21;
HEADER;
FILE_DESCRIPTION (( 'STEP AP214' ),
    '1' );
FILE_NAME ('59668.STEP',
    '2023-07-24T15:52:20',
    ( '' ),
    ( '' ),
    'SwSTEP 2.0',
    'SolidWorks 2023',
    '' );
FILE_SCHEMA (( 'AUTOMOTIVE_DESIGN' ));
ENDSEC;

DATA;
#1 = CYLINDRICAL_SURFACE ( 'NONE', #96, 12.50000000000000000 ) ;
#2 = SURFACE_SIDE_STYLE ('',( #232 ) ) ;
#3 = COLOUR_RGB ( '',1.000000000000000000, 0.000000000000000000, 0.000000000000000000 ) ;
#4 = PLANE ( 'NONE',  #163 ) ;
#5 = ADVANCED_FACE ( 'NONE', ( #287 ), #1, .T. ) ;
#6 = DIRECTION ( 'NONE',  ( -4.082155997157840121E-17, 1.000000000000000000, -0.000000000000000000 ) ) ;
#7 = DIRECTION ( 'NONE',  ( -4.082155997157840121E-17, 1.000000000000000000, -0.000000000000000000 ) ) ;
#8 = SURFACE_STYLE_USAGE ( .BOTH. , #252 ) ;
#9 = STYLED_ITEM ( 'NONE', ( #121 ), #99 ) ;
#10 = DIRECTION ( 'NONE',  ( -4.082155997157840121E-17, 1.000000000000000000, 0.000000000000000000 ) ) ;
#11 = EDGE_CURVE ( 'NONE', #105, #285, #84, .T. ) ;
#12 = DIRECTION ( 'NONE',  ( 0.000000000000000000, 0.000000000000000000, -1.000000000000000000 ) ) ;
#13 = FILL_AREA_STYLE_COLOUR ( '', #3 ) ;
#14 = SURFACE_STYLE_USAGE ( .BOTH. , #151 ) ;
#15 = PLANE ( 'NONE',  #265 ) ;
#16 = CARTESIAN_POINT ( 'NONE',  ( -3.061616997868379493E-15, 124.9999999999999858, 0.000000000000000000 ) ) ;
#17 = PRESENTATION_LAYER_ASSIGNMENT (  '', '', ( #9 ) ) ;
#18 = ORIENTED_EDGE ( 'NONE', *, *, #129, .F. ) ;
#19 = UNCERTAINTY_MEASURE_WITH_UNIT (LENGTH_MEASURE( 1.000000000000000082E-05 ), #91, 'distance_accuracy_value', 'NONE');
#20 = DIRECTION ( 'NONE',  ( -1.000000000000000000, 0.000000000000000000, 0.000000000000000000 ) ) ;
#21 = ADVANCED_FACE ( 'NONE', ( #159 ), #15, .T. ) ;
#22 = ORIENTED_EDGE ( 'NONE', *, *, #30, .F. ) ;
#23 = ORIENTED_EDGE ( 'NONE', *, *, #259, .T. ) ;
#24 = UNCERTAINTY_MEASURE_WITH_UNIT (LENGTH_MEASURE( 1.000000000000000082E-05 ), #217, 'distance_accuracy_value', 'NONE');
#25 = CIRCLE ( 'NONE', #72, 12.50000000000000000 ) ;
#26 = AXIS2_PLACEMENT_3D ( 'NONE', #126, #149, #36 ) ;
#27 = UNCERTAINTY_MEASURE_WITH_UNIT (LENGTH_MEASURE( 1.000000000000000082E-05 ), #262, 'distance_accuracy_value', 'NONE');
#28 =( LENGTH_UNIT ( ) NAMED_UNIT ( * ) SI_UNIT ( .MILLI., .METRE. ) );
#29 =( NAMED_UNIT ( * ) SI_UNIT ( $, .STERADIAN. ) SOLID_ANGLE_UNIT ( ) );
#30 = EDGE_CURVE ( 'NONE', #243, #246, #277, .T. ) ;
#31 = AXIS2_PLACEMENT_3D ( 'NONE', #257, #51, #94 ) ;
#32 = CARTESIAN_POINT ( 'NONE',  ( 0.000000000000000000, 0.000000000000000000, 0.000000000000000000 ) ) ;
#33 = DIRECTION ( 'NONE',  ( -0.000000000000000000, -1.000000000000000000, -0.000000000000000000 ) ) ;
#34 = FACE_OUTER_BOUND ( 'NONE', #267, .T. ) ;
#35 = CARTESIAN_POINT ( 'NONE',  ( -12.50000000000000000, 50.00000000000000000, 0.000000000000000000 ) ) ;
#36 = DIRECTION ( 'NONE',  ( 0.000000000000000000, 0.000000000000000000, -1.000000000000000000 ) ) ;
#37 = CARTESIAN_POINT ( 'NONE',  ( 0.000000000000000000, 50.00000000000000000, 0.000000000000000000 ) ) ;
#38 = CARTESIAN_POINT ( 'NONE',  ( 0.000000000000000000, 0.000000000000000000, -12.50000000000000000 ) ) ;
#39 = DIRECTION ( 'NONE',  ( -1.000000000000000000, 0.000000000000000000, 0.000000000000000000 ) ) ;
#40 = MECHANICAL_DESIGN_GEOMETRIC_PRESENTATION_REPRESENTATION (  '', ( #138 ), #157 ) ;
#41 = EDGE_LOOP ( 'NONE', ( #153, #136 ) ) ;
#42 = VERTEX_POINT ( 'NONE', #230 ) ;
#43 = VERTEX_POINT ( 'NONE', #119 ) ;
#44 = EDGE_LOOP ( 'NONE', ( #60, #101, #196, #178 ) ) ;
#45 = EDGE_CURVE ( 'NONE', #243, #107, #181, .T. ) ;
#46 = DIRECTION ( 'NONE',  ( -4.082155997157840121E-17, 1.000000000000000000, -0.000000000000000000 ) ) ;
#47 = APPLICATION_CONTEXT ( 'automotive_design' ) ;
#48 =( GEOMETRIC_REPRESENTATION_CONTEXT ( 3 ) GLOBAL_UNCERTAINTY_ASSIGNED_CONTEXT ( ( #202 ) ) GLOBAL_UNIT_ASSIGNED_CONTEXT ( ( #234, #52, #258 ) ) REPRESENTATION_CONTEXT ( 'NONE', 'WORKASPACE' ) );
#49 =( LENGTH_UNIT ( ) NAMED_UNIT ( * ) SI_UNIT ( .MILLI., .METRE. ) );
#50 =( NAMED_UNIT ( * ) PLANE_ANGLE_UNIT ( ) SI_UNIT ( $, .RADIAN. ) );
#51 = DIRECTION ( 'NONE',  ( -0.000000000000000000, -1.000000000000000000, -0.000000000000000000 ) ) ;
#52 =( NAMED_UNIT ( * ) PLANE_ANGLE_UNIT ( ) SI_UNIT ( $, .RADIAN. ) );
#53 =( GEOMETRIC_REPRESENTATION_CONTEXT ( 3 ) GLOBAL_UNCERTAINTY_ASSIGNED_CONTEXT ( ( #27 ) ) GLOBAL_UNIT_ASSIGNED_CONTEXT ( ( #262, #79, #260 ) ) REPRESENTATION_CONTEXT ( 'NONE', 'WORKASPACE' ) );
#54 =( NAMED_UNIT ( * ) SI_UNIT ( $, .STERADIAN. ) SOLID_ANGLE_UNIT ( ) );
#55 = DIRECTION ( 'NONE',  ( -4.082155997157840121E-17, 1.000000000000000000, -0.000000000000000000 ) ) ;
#56 = FILL_AREA_STYLE_COLOUR ( '', #142 ) ;
#57 = SURFACE_STYLE_FILL_AREA ( #58 ) ;
#58 = FILL_AREA_STYLE ('',( #77 ) ) ;
#59 = MECHANICAL_DESIGN_GEOMETRIC_PRESENTATION_REPRESENTATION (  '', ( #208 ), #177 ) ;
#60 = ORIENTED_EDGE ( 'NONE', *, *, #269, .T. ) ;
#61 = COLOUR_RGB ( '',1.000000000000000000, 0.000000000000000000, 0.000000000000000000 ) ;
#62 = VERTEX_POINT ( 'NONE', #261 ) ;
#63 = ORIENTED_EDGE ( 'NONE', *, *, #30, .T. ) ;
#64 = PRODUCT ( '59668', '59668', '', ( #81 ) ) ;
#65 = ORIENTED_EDGE ( 'NONE', *, *, #259, .F. ) ;
#66 = ORIENTED_EDGE ( 'NONE', *, *, #269, .F. ) ;
#67 = STYLED_ITEM ( 'NONE', ( #227 ), #5 ) ;
#68 = DIRECTION ( 'NONE',  ( -4.082155997157840121E-17, 1.000000000000000000, -0.000000000000000000 ) ) ;
#69 = PRESENTATION_LAYER_ASSIGNMENT (  '', '', ( #85 ) ) ;
#70 = DIRECTION ( 'NONE',  ( 0.000000000000000000, -1.000000000000000000, -0.000000000000000000 ) ) ;
#71 = DIRECTION ( 'NONE',  ( 4.082155997157840121E-17, -1.000000000000000000, 0.000000000000000000 ) ) ;
#72 = AXIS2_PLACEMENT_3D ( 'NONE', #141, #46, #228 ) ;
#73 = FACE_OUTER_BOUND ( 'NONE', #245, .T. ) ;
#74 = FILL_AREA_STYLE ('',( #13 ) ) ;
#75 = CARTESIAN_POINT ( 'NONE',  ( 1.041499849070732488E-32, 50.00000000000000000, 0.000000000000000000 ) ) ;
#76 = DIRECTION ( 'NONE',  ( -0.000000000000000000, -1.000000000000000000, -0.000000000000000000 ) ) ;
#77 = FILL_AREA_STYLE_COLOUR ( '', #203 ) ;
#78 =( LENGTH_UNIT ( ) NAMED_UNIT ( * ) SI_UNIT ( .MILLI., .METRE. ) );
#79 =( NAMED_UNIT ( * ) PLANE_ANGLE_UNIT ( ) SI_UNIT ( $, .RADIAN. ) );
#80 = VECTOR ( 'NONE', #167, 1000.000000000000000 ) ;
#81 = PRODUCT_CONTEXT ( 'NONE', #276, 'mechanical' ) ;
#82 = ORIENTED_EDGE ( 'NONE', *, *, #45, .F. ) ;
#83 =( GEOMETRIC_REPRESENTATION_CONTEXT ( 3 ) GLOBAL_UNCERTAINTY_ASSIGNED_CONTEXT ( ( #131 ) ) GLOBAL_UNIT_ASSIGNED_CONTEXT ( ( #28, #87, #29 ) ) REPRESENTATION_CONTEXT ( 'NONE', 'WORKASPACE' ) );
#84 = LINE ( 'NONE', #270, #120 ) ;
#85 = STYLED_ITEM ( 'NONE', ( #116 ), #135 ) ;
#86 = FILL_AREA_STYLE_COLOUR ( '', #134 ) ;
#87 =( NAMED_UNIT ( * ) PLANE_ANGLE_UNIT ( ) SI_UNIT ( $, .RADIAN. ) );
#88 = DIRECTION ( 'NONE',  ( 1.000000000000000000, 4.082155997157840121E-17, 0.000000000000000000 ) ) ;
#89 =( NAMED_UNIT ( * ) SI_UNIT ( $, .STERADIAN. ) SOLID_ANGLE_UNIT ( ) );
#90 = ADVANCED_FACE ( 'NONE', ( #189 ), #174, .F. ) ;
#91 =( LENGTH_UNIT ( ) NAMED_UNIT ( * ) SI_UNIT ( .MILLI., .METRE. ) );
#92 = COLOUR_RGB ( '',1.000000000000000000, 0.000000000000000000, 0.000000000000000000 ) ;
#93 = PRESENTATION_STYLE_ASSIGNMENT (( #164 ) ) ;
#94 = DIRECTION ( 'NONE',  ( 0.000000000000000000, 0.000000000000000000, -1.000000000000000000 ) ) ;
#95 = CARTESIAN_POINT ( 'NONE',  ( 1.530808498934191521E-15, 0.000000000000000000, 12.50000000000000000 ) ) ;
#96 = AXIS2_PLACEMENT_3D ( 'NONE', #32, #112, #210 ) ;
#97 = SURFACE_STYLE_FILL_AREA ( #74 ) ;
#98 = CLOSED_SHELL ( 'NONE', ( #248, #90, #166, #198 ) ) ;
#99 = MANIFOLD_SOLID_BREP ( 'Revolve - Tool Body (Straight Shanked)', #98 ) ;
#100 =( NAMED_UNIT ( * ) PLANE_ANGLE_UNIT ( ) SI_UNIT ( $, .RADIAN. ) );
#101 = ORIENTED_EDGE ( 'NONE', *, *, #223, .T. ) ;
#102 = CARTESIAN_POINT ( 'NONE',  ( 0.000000000000000000, 0.000000000000000000, 0.000000000000000000 ) ) ;
#103 = ORIENTED_EDGE ( 'NONE', *, *, #284, .T. ) ;
#104 = CIRCLE ( 'NONE', #253, 12.50000000000000000 ) ;
#105 = VERTEX_POINT ( 'NONE', #35 ) ;
#106 = SHAPE_DEFINITION_REPRESENTATION ( #236, #201 ) ;
#107 = VERTEX_POINT ( 'NONE', #145 ) ;
#108 = ORIENTED_EDGE ( 'NONE', *, *, #223, .F. ) ;
#109 = SURFACE_STYLE_FILL_AREA ( #140 ) ;
#110 = PRODUCT_DEFINITION_CONTEXT ( 'detailed design', #47, 'design' ) ;
#111 = EDGE_CURVE ( 'NONE', #107, #243, #288, .T. ) ;
#112 = DIRECTION ( 'NONE',  ( -0.000000000000000000, -1.000000000000000000, -0.000000000000000000 ) ) ;
#113 = CARTESIAN_POINT ( 'NONE',  ( 0.000000000000000000, 0.000000000000000000, 0.000000000000000000 ) ) ;
#114 = AXIS2_PLACEMENT_3D ( 'NONE', #216, #70, #12 ) ;
#115 = FILL_AREA_STYLE ('',( #240 ) ) ;
#116 = PRESENTATION_STYLE_ASSIGNMENT (( #255 ) ) ;
#117 = MECHANICAL_DESIGN_GEOMETRIC_PRESENTATION_REPRESENTATION (  '', ( #67 ), #83 ) ;
#118 = DIRECTION ( 'NONE',  ( 0.000000000000000000, 0.000000000000000000, -1.000000000000000000 ) ) ;
#119 = CARTESIAN_POINT ( 'NONE',  ( 1.530808498934191521E-15, 0.000000000000000000, 12.50000000000000000 ) ) ;
#120 = VECTOR ( 'NONE', #68, 1000.000000000000000 ) ;
#121 = PRESENTATION_STYLE_ASSIGNMENT (( #125 ) ) ;
#122 = CARTESIAN_POINT ( 'NONE',  ( -3.061616997868379493E-15, 124.9999999999999858, 0.000000000000000000 ) ) ;
#123 = SURFACE_STYLE_FILL_AREA ( #256 ) ;
#124 = CARTESIAN_POINT ( 'NONE',  ( 0.000000000000000000, 50.00000000000000000, 0.000000000000000000 ) ) ;
#125 = SURFACE_STYLE_USAGE ( .BOTH. , #168 ) ;
#126 = CARTESIAN_POINT ( 'NONE',  ( 0.000000000000000000, 0.000000000000000000, 0.000000000000000000 ) ) ;
#127 = AXIS2_PLACEMENT_3D ( 'NONE', #212, #7, #231 ) ;
#128 = CIRCLE ( 'NONE', #26, 12.50000000000000000 ) ;
#129 = EDGE_CURVE ( 'NONE', #42, #285, #220, .T. ) ;
#130 = ORIENTED_EDGE ( 'NONE', *, *, #185, .F. ) ;
#131 = UNCERTAINTY_MEASURE_WITH_UNIT (LENGTH_MEASURE( 1.000000000000000082E-05 ), #28, 'distance_accuracy_value', 'NONE');
#132 = APPLICATION_PROTOCOL_DEFINITION ( 'draft international standard', 'automotive_design', 1998, #276 ) ;
#133 = EDGE_LOOP ( 'NONE', ( #108, #155, #180, #18 ) ) ;
#134 = COLOUR_RGB ( '',1.000000000000000000, 0.000000000000000000, 0.000000000000000000 ) ;
#135 = ADVANCED_FACE ( 'NONE', ( #34 ), #188, .T. ) ;
#136 = ORIENTED_EDGE ( 'NONE', *, *, #129, .T. ) ;
#137 = ORIENTED_EDGE ( 'NONE', *, *, #185, .T. ) ;
#138 = STYLED_ITEM ( 'NONE', ( #143 ), #204 ) ;
#139 = AXIS2_PLACEMENT_3D ( 'NONE', #124, #154, #20 ) ;
#140 = FILL_AREA_STYLE ('',( #272 ) ) ;
#141 = CARTESIAN_POINT ( 'NONE',  ( 0.000000000000000000, 50.00000000000000000, 0.000000000000000000 ) ) ;
#142 = COLOUR_RGB ( '',0.7921568627450980005, 0.8196078431372548767, 0.9333333333333333481 ) ;
#143 = PRESENTATION_STYLE_ASSIGNMENT (( #8 ) ) ;
#144 = CARTESIAN_POINT ( 'NONE',  ( 0.000000000000000000, 50.00000000000000000, 0.000000000000000000 ) ) ;
#145 = CARTESIAN_POINT ( 'NONE',  ( 1.530808498934191521E-15, 50.00000000000000000, 12.50000000000000000 ) ) ;
#146 = SURFACE_STYLE_FILL_AREA ( #186 ) ;
#147 = PRODUCT_DEFINITION_FORMATION_WITH_SPECIFIED_SOURCE ( 'ANY', '', #64, .NOT_KNOWN. ) ;
#148 = DIRECTION ( 'NONE',  ( -1.000000000000000000, -4.082155997157840121E-17, 0.000000000000000000 ) ) ;
#149 = DIRECTION ( 'NONE',  ( -0.000000000000000000, -1.000000000000000000, -0.000000000000000000 ) ) ;
#150 = CARTESIAN_POINT ( 'NONE',  ( 12.49999999999999822, 124.9999999999999858, 1.530808498934191719E-15 ) ) ;
#151 = SURFACE_SIDE_STYLE ('',( #57 ) ) ;
#152 = PRESENTATION_LAYER_ASSIGNMENT (  '', '', ( #170 ) ) ;
#153 = ORIENTED_EDGE ( 'NONE', *, *, #226, .T. ) ;
#154 = DIRECTION ( 'NONE',  ( -4.082155997157840121E-17, 1.000000000000000000, -0.000000000000000000 ) ) ;
#155 = ORIENTED_EDGE ( 'NONE', *, *, #187, .T. ) ;
#156 = DIRECTION ( 'NONE',  ( -0.000000000000000000, -1.000000000000000000, -0.000000000000000000 ) ) ;
#157 =( GEOMETRIC_REPRESENTATION_CONTEXT ( 3 ) GLOBAL_UNCERTAINTY_ASSIGNED_CONTEXT ( ( #249 ) ) GLOBAL_UNIT_ASSIGNED_CONTEXT ( ( #49, #211, #89 ) ) REPRESENTATION_CONTEXT ( 'NONE', 'WORKASPACE' ) );
#158 = ORIENTED_EDGE ( 'NONE', *, *, #284, .F. ) ;
#159 = FACE_OUTER_BOUND ( 'NONE', #225, .T. ) ;
#160 = AXIS2_PLACEMENT_3D ( 'NONE', #75, #10, #148 ) ;
#161 = DIRECTION ( 'NONE',  ( -0.000000000000000000, -1.000000000000000000, -0.000000000000000000 ) ) ;
#162 = CARTESIAN_POINT ( 'NONE',  ( 12.50000000000000000, 124.9999999999999858, 0.000000000000000000 ) ) ;
#163 = AXIS2_PLACEMENT_3D ( 'NONE', #162, #71, #88 ) ;
#164 = SURFACE_STYLE_USAGE ( .BOTH. , #191 ) ;
#165 = CYLINDRICAL_SURFACE ( 'NONE', #31, 12.50000000000000000 ) ;
#166 = ADVANCED_FACE ( 'NONE', ( #190 ), #209, .T. ) ;
#167 = DIRECTION ( 'NONE',  ( -0.000000000000000000, -1.000000000000000000, -0.000000000000000000 ) ) ;
#168 = SURFACE_SIDE_STYLE ('',( #123 ) ) ;
#169 = CARTESIAN_POINT ( 'NONE',  ( -12.50000000000000711, 124.9999999999999858, 0.000000000000000000 ) ) ;
#170 = STYLED_ITEM ( 'NONE', ( #241 ), #205 ) ;
#171 = VECTOR ( 'NONE', #156, 1000.000000000000000 ) ;
#172 =( NAMED_UNIT ( * ) PLANE_ANGLE_UNIT ( ) SI_UNIT ( $, .RADIAN. ) );
#173 = CARTESIAN_POINT ( 'NONE',  ( 0.000000000000000000, 0.000000000000000000, -12.50000000000000000 ) ) ;
#174 = PLANE ( 'NONE',  #160 ) ;
#175 = PRESENTATION_LAYER_ASSIGNMENT (  '', '', ( #67 ) ) ;
#176 = ORIENTED_EDGE ( 'NONE', *, *, #45, .T. ) ;
#177 =( GEOMETRIC_REPRESENTATION_CONTEXT ( 3 ) GLOBAL_UNCERTAINTY_ASSIGNED_CONTEXT ( ( #19 ) ) GLOBAL_UNIT_ASSIGNED_CONTEXT ( ( #91, #172, #235 ) ) REPRESENTATION_CONTEXT ( 'NONE', 'WORKASPACE' ) );
#178 = ORIENTED_EDGE ( 'NONE', *, *, #11, .F. ) ;
#179 = CARTESIAN_POINT ( 'NONE',  ( 0.000000000000000000, 50.00000000000000000, -12.50000000000000000 ) ) ;
#180 = ORIENTED_EDGE ( 'NONE', *, *, #11, .T. ) ;
#181 = CIRCLE ( 'NONE', #247, 12.50000000000000000 ) ;
#182 = VECTOR ( 'NONE', #286, 1000.000000000000000 ) ;
#183 = CLOSED_SHELL ( 'NONE', ( #204, #21, #5, #135 ) ) ;
#184 = SURFACE_STYLE_USAGE ( .BOTH. , #274 ) ;
#185 = EDGE_CURVE ( 'NONE', #43, #246, #104, .T. ) ;
#186 = FILL_AREA_STYLE ('',( #86 ) ) ;
#187 = EDGE_CURVE ( 'NONE', #62, #105, #25, .T. ) ;
#188 = PLANE ( 'NONE',  #114 ) ;
#189 = FACE_OUTER_BOUND ( 'NONE', #242, .T. ) ;
#190 = FACE_OUTER_BOUND ( 'NONE', #133, .T. ) ;
#191 = SURFACE_SIDE_STYLE ('',( #97 ) ) ;
#192 = LINE ( 'NONE', #150, #182 ) ;
#193 = DIRECTION ( 'NONE',  ( -4.082155997157840121E-17, 1.000000000000000000, -0.000000000000000000 ) ) ;
#194 = MECHANICAL_DESIGN_GEOMETRIC_PRESENTATION_REPRESENTATION (  '', ( #170 ), #53 ) ;
#195 = DIRECTION ( 'NONE',  ( 0.000000000000000000, 0.000000000000000000, 1.000000000000000000 ) ) ;
#196 = ORIENTED_EDGE ( 'NONE', *, *, #226, .F. ) ;
#197 = DIRECTION ( 'NONE',  ( 1.000000000000000000, 0.000000000000000000, 0.000000000000000000 ) ) ;
#198 = ADVANCED_FACE ( 'NONE', ( #278 ), #4, .F. ) ;
#199 = AXIS2_PLACEMENT_3D ( 'NONE', #144, #33, #118 ) ;
#200 = ORIENTED_EDGE ( 'NONE', *, *, #187, .F. ) ;
#201 = ADVANCED_BREP_SHAPE_REPRESENTATION ( '59668', ( #205, #99, #254 ), #250 ) ;
#202 = UNCERTAINTY_MEASURE_WITH_UNIT (LENGTH_MEASURE( 1.000000000000000082E-05 ), #234, 'distance_accuracy_value', 'NONE');
#203 = COLOUR_RGB ( '',0.7921568627450980005, 0.8196078431372548767, 0.9333333333333333481 ) ;
#204 = ADVANCED_FACE ( 'NONE', ( #73 ), #165, .T. ) ;
#205 = MANIFOLD_SOLID_BREP ( 'Revolve - Cutting Edge', #183 ) ;
#206 = UNCERTAINTY_MEASURE_WITH_UNIT (LENGTH_MEASURE( 1.000000000000000082E-05 ), #78, 'distance_accuracy_value', 'NONE');
#207 = DIRECTION ( 'NONE',  ( 0.000000000000000000, 0.000000000000000000, -1.000000000000000000 ) ) ;
#208 = STYLED_ITEM ( 'NONE', ( #93 ), #21 ) ;
#209 = CYLINDRICAL_SURFACE ( 'NONE', #229, 12.50000000000000178 ) ;
#210 = DIRECTION ( 'NONE',  ( 0.000000000000000000, 0.000000000000000000, -1.000000000000000000 ) ) ;
#211 =( NAMED_UNIT ( * ) PLANE_ANGLE_UNIT ( ) SI_UNIT ( $, .RADIAN. ) );
#212 = CARTESIAN_POINT ( 'NONE',  ( -3.061616997868379493E-15, 124.9999999999999858, 0.000000000000000000 ) ) ;
#213 = CARTESIAN_POINT ( 'NONE',  ( 0.000000000000000000, 50.00000000000000000, 0.000000000000000000 ) ) ;
#214 = PRESENTATION_LAYER_ASSIGNMENT (  '', '', ( #208 ) ) ;
#215 = AXIS2_PLACEMENT_3D ( 'NONE', #16, #55, #39 ) ;
#216 = CARTESIAN_POINT ( 'NONE',  ( 0.000000000000000000, 0.000000000000000000, 0.000000000000000000 ) ) ;
#217 =( LENGTH_UNIT ( ) NAMED_UNIT ( * ) SI_UNIT ( .MILLI., .METRE. ) );
#218 = LINE ( 'NONE', #95, #171 ) ;
#219 = PRODUCT_RELATED_PRODUCT_CATEGORY ( 'part', '', ( #64 ) ) ;
#220 = CIRCLE ( 'NONE', #127, 12.50000000000000355 ) ;
#221 = CIRCLE ( 'NONE', #283, 12.50000000000000355 ) ;
#222 = CYLINDRICAL_SURFACE ( 'NONE', #215, 12.50000000000000178 ) ;
#223 = EDGE_CURVE ( 'NONE', #62, #42, #192, .T. ) ;
#224 = EDGE_LOOP ( 'NONE', ( #158, #268, #63, #130 ) ) ;
#225 = EDGE_LOOP ( 'NONE', ( #82, #264 ) ) ;
#226 = EDGE_CURVE ( 'NONE', #285, #42, #221, .T. ) ;
#227 = PRESENTATION_STYLE_ASSIGNMENT (( #184 ) ) ;
#228 = DIRECTION ( 'NONE',  ( -1.000000000000000000, 0.000000000000000000, 0.000000000000000000 ) ) ;
#229 = AXIS2_PLACEMENT_3D ( 'NONE', #275, #6, #251 ) ;
#230 = CARTESIAN_POINT ( 'NONE',  ( 12.50000000000000000, 124.9999999999999858, 1.530808498934191719E-15 ) ) ;
#231 = DIRECTION ( 'NONE',  ( -1.000000000000000000, 0.000000000000000000, 0.000000000000000000 ) ) ;
#232 = SURFACE_STYLE_FILL_AREA ( #115 ) ;
#233 = MECHANICAL_DESIGN_GEOMETRIC_PRESENTATION_REPRESENTATION (  '', ( #85 ), #48 ) ;
#234 =( LENGTH_UNIT ( ) NAMED_UNIT ( * ) SI_UNIT ( .MILLI., .METRE. ) );
#235 =( NAMED_UNIT ( * ) SI_UNIT ( $, .STERADIAN. ) SOLID_ANGLE_UNIT ( ) );
#236 = PRODUCT_DEFINITION_SHAPE ( 'NONE', 'NONE',  #271 ) ;
#237 = DIRECTION ( 'NONE',  ( -1.000000000000000000, 0.000000000000000000, 0.000000000000000000 ) ) ;
#238 = DIRECTION ( 'NONE',  ( 0.000000000000000000, -0.000000000000000000, 1.000000000000000000 ) ) ;
#239 = FACE_OUTER_BOUND ( 'NONE', #44, .T. ) ;
#240 = FILL_AREA_STYLE_COLOUR ( '', #92 ) ;
#241 = PRESENTATION_STYLE_ASSIGNMENT (( #14 ) ) ;
#242 = EDGE_LOOP ( 'NONE', ( #66, #200 ) ) ;
#243 = VERTEX_POINT ( 'NONE', #179 ) ;
#244 =( GEOMETRIC_REPRESENTATION_CONTEXT ( 3 ) GLOBAL_UNCERTAINTY_ASSIGNED_CONTEXT ( ( #24 ) ) GLOBAL_UNIT_ASSIGNED_CONTEXT ( ( #217, #50, #54 ) ) REPRESENTATION_CONTEXT ( 'NONE', 'WORKASPACE' ) );
#245 = EDGE_LOOP ( 'NONE', ( #176, #103, #65, #22 ) ) ;
#246 = VERTEX_POINT ( 'NONE', #173 ) ;
#247 = AXIS2_PLACEMENT_3D ( 'NONE', #213, #76, #279 ) ;
#248 = ADVANCED_FACE ( 'NONE', ( #239 ), #222, .T. ) ;
#249 = UNCERTAINTY_MEASURE_WITH_UNIT (LENGTH_MEASURE( 1.000000000000000082E-05 ), #49, 'distance_accuracy_value', 'NONE');
#250 =( GEOMETRIC_REPRESENTATION_CONTEXT ( 3 ) GLOBAL_UNCERTAINTY_ASSIGNED_CONTEXT ( ( #206 ) ) GLOBAL_UNIT_ASSIGNED_CONTEXT ( ( #78, #100, #263 ) ) REPRESENTATION_CONTEXT ( 'NONE', 'WORKASPACE' ) );
#251 = DIRECTION ( 'NONE',  ( -1.000000000000000000, 0.000000000000000000, 0.000000000000000000 ) ) ;
#252 = SURFACE_SIDE_STYLE ('',( #146 ) ) ;
#253 = AXIS2_PLACEMENT_3D ( 'NONE', #113, #161, #207 ) ;
#254 = AXIS2_PLACEMENT_3D ( 'NONE', #102, #195, #197 ) ;
#255 = SURFACE_STYLE_USAGE ( .BOTH. , #2 ) ;
#256 = FILL_AREA_STYLE ('',( #56 ) ) ;
#257 = CARTESIAN_POINT ( 'NONE',  ( 0.000000000000000000, 0.000000000000000000, 0.000000000000000000 ) ) ;
#258 =( NAMED_UNIT ( * ) SI_UNIT ( $, .STERADIAN. ) SOLID_ANGLE_UNIT ( ) );
#259 = EDGE_CURVE ( 'NONE', #246, #43, #128, .T. ) ;
#260 =( NAMED_UNIT ( * ) SI_UNIT ( $, .STERADIAN. ) SOLID_ANGLE_UNIT ( ) );
#261 = CARTESIAN_POINT ( 'NONE',  ( 12.50000000000000000, 50.00000000000000000, 1.530808498934191719E-15 ) ) ;
#262 =( LENGTH_UNIT ( ) NAMED_UNIT ( * ) SI_UNIT ( .MILLI., .METRE. ) );
#263 =( NAMED_UNIT ( * ) SI_UNIT ( $, .STERADIAN. ) SOLID_ANGLE_UNIT ( ) );
#264 = ORIENTED_EDGE ( 'NONE', *, *, #111, .F. ) ;
#265 = AXIS2_PLACEMENT_3D ( 'NONE', #37, #281, #238 ) ;
#266 = CIRCLE ( 'NONE', #139, 12.50000000000000000 ) ;
#267 = EDGE_LOOP ( 'NONE', ( #23, #137 ) ) ;
#268 = ORIENTED_EDGE ( 'NONE', *, *, #111, .T. ) ;
#269 = EDGE_CURVE ( 'NONE', #105, #62, #266, .T. ) ;
#270 = CARTESIAN_POINT ( 'NONE',  ( -12.50000000000000533, 124.9999999999999858, 0.000000000000000000 ) ) ;
#271 = PRODUCT_DEFINITION ( 'UNKNOWN', '', #147, #110 ) ;
#272 = FILL_AREA_STYLE_COLOUR ( '', #61 ) ;
#273 = PRESENTATION_LAYER_ASSIGNMENT (  '', '', ( #138 ) ) ;
#274 = SURFACE_SIDE_STYLE ('',( #109 ) ) ;
#275 = CARTESIAN_POINT ( 'NONE',  ( -3.061616997868379493E-15, 124.9999999999999858, 0.000000000000000000 ) ) ;
#276 = APPLICATION_CONTEXT ( 'automotive_design' ) ;
#277 = LINE ( 'NONE', #38, #80 ) ;
#278 = FACE_OUTER_BOUND ( 'NONE', #41, .T. ) ;
#279 = DIRECTION ( 'NONE',  ( 0.000000000000000000, 0.000000000000000000, -1.000000000000000000 ) ) ;
#280 = APPLICATION_PROTOCOL_DEFINITION ( 'draft international standard', 'automotive_design', 1998, #47 ) ;
#281 = DIRECTION ( 'NONE',  ( 0.000000000000000000, 1.000000000000000000, 0.000000000000000000 ) ) ;
#282 = MECHANICAL_DESIGN_GEOMETRIC_PRESENTATION_REPRESENTATION (  '', ( #9 ), #244 ) ;
#283 = AXIS2_PLACEMENT_3D ( 'NONE', #122, #193, #237 ) ;
#284 = EDGE_CURVE ( 'NONE', #107, #43, #218, .T. ) ;
#285 = VERTEX_POINT ( 'NONE', #169 ) ;
#286 = DIRECTION ( 'NONE',  ( -4.082155997157840121E-17, 1.000000000000000000, -0.000000000000000000 ) ) ;
#287 = FACE_OUTER_BOUND ( 'NONE', #224, .T. ) ;
#288 = CIRCLE ( 'NONE', #199, 12.50000000000000000 ) ;
ENDSEC;
END-ISO-10303-21;
