ISO-10303-21;
HEADER;
FILE_DESCRIPTION (( 'STEP AP214' ),
    '1' );
FILE_NAME ('84045.STEP',
    '2023-06-23T10:54:12',
    ( '' ),
    ( '' ),
    'SwSTEP 2.0',
    'SolidWorks 2023',
    '' );
FILE_SCHEMA (( 'AUTOMOTIVE_DESIGN' ));
ENDSEC;

DATA;
#1 =( GEOMETRIC_REPRESENTATION_CONTEXT ( 3 ) GLOBAL_UNCERTAINTY_ASSIGNED_CONTEXT ( ( #358 ) ) GLOBAL_UNIT_ASSIGNED_CONTEXT ( ( #331, #14, #69 ) ) REPRESENTATION_CONTEXT ( 'NONE', 'WORKASPACE' ) );
#2 = STYLED_ITEM ( 'NONE', ( #210 ), #314 ) ;
#3 = SHAPE_DEFINITION_REPRESENTATION ( #273, #37 ) ;
#4 = DIMENSIONAL_EXPONENTS ( 1.000000000000000000, 0.000000000000000000, 0.000000000000000000, 0.000000000000000000, 0.000000000000000000, 0.000000000000000000, 0.000000000000000000 ) ;
#5 = CARTESIAN_POINT ( 'NONE',  ( 0.03125000000000000000, 0.3125000000000000000, 3.827021247335478772E-18 ) ) ;
#6 =( LENGTH_UNIT ( ) NAMED_UNIT ( * ) SI_UNIT ( $, .METRE. ) );
#7 = CARTESIAN_POINT ( 'NONE',  ( 0.000000000000000000, 0.3125000000000000000, 0.000000000000000000 ) ) ;
#8 = SURFACE_SIDE_STYLE ('',( #280 ) ) ;
#9 = AXIS2_PLACEMENT_3D ( 'NONE', #125, #227, #11 ) ;
#10 = DIRECTION ( 'NONE',  ( -2.799192683765378812E-17, 1.000000000000000000, -0.000000000000000000 ) ) ;
#11 = DIRECTION ( 'NONE',  ( -1.000000000000000000, 0.000000000000000000, 0.000000000000000000 ) ) ;
#12 = FILL_AREA_STYLE_COLOUR ( '', #153 ) ;
#13 = DIRECTION ( 'NONE',  ( -1.000000000000000000, 0.000000000000000000, 0.000000000000000000 ) ) ;
#14 =( NAMED_UNIT ( * ) PLANE_ANGLE_UNIT ( ) SI_UNIT ( $, .RADIAN. ) );
#15 = FILL_AREA_STYLE_COLOUR ( '', #217 ) ;
#16 = VERTEX_POINT ( 'NONE', #205 ) ;
#17 = CARTESIAN_POINT ( 'NONE',  ( -0.03125000000000000000, 0.3125000000000000000, 0.000000000000000000 ) ) ;
#18 = AXIS2_PLACEMENT_3D ( 'NONE', #7, #223, #336 ) ;
#19 = VERTEX_POINT ( 'NONE', #290 ) ;
#20 = PRODUCT_RELATED_PRODUCT_CATEGORY ( 'part', '', ( #320 ) ) ;
#21 = VERTEX_POINT ( 'NONE', #266 ) ;
#22 =( GEOMETRIC_REPRESENTATION_CONTEXT ( 3 ) GLOBAL_UNCERTAINTY_ASSIGNED_CONTEXT ( ( #54 ) ) GLOBAL_UNIT_ASSIGNED_CONTEXT ( ( #344, #148, #100 ) ) REPRESENTATION_CONTEXT ( 'NONE', 'WORKASPACE' ) );
#23 = SURFACE_SIDE_STYLE ('',( #127 ) ) ;
#24 = UNCERTAINTY_MEASURE_WITH_UNIT (LENGTH_MEASURE( 1.000000000000000082E-05 ), #345, 'distance_accuracy_value', 'NONE');
#25 = DIRECTION ( 'NONE',  ( -0.000000000000000000, -1.000000000000000000, -0.000000000000000000 ) ) ;
#26 = AXIS2_PLACEMENT_3D ( 'NONE', #28, #246, #29 ) ;
#27 = FACE_OUTER_BOUND ( 'NONE', #316, .T. ) ;
#28 = CARTESIAN_POINT ( 'NONE',  ( -6.123233995736766036E-17, 2.500000000000000000, 0.000000000000000000 ) ) ;
#29 = DIRECTION ( 'NONE',  ( -1.000000000000000000, 0.000000000000000000, 0.000000000000000000 ) ) ;
#30 = CIRCLE ( 'NONE', #174, 0.03125000000000000000 ) ;
#31 = AXIS2_PLACEMENT_3D ( 'NONE', #219, #161, #82 ) ;
#32 = DIMENSIONAL_EXPONENTS ( 1.000000000000000000, 0.000000000000000000, 0.000000000000000000, 0.000000000000000000, 0.000000000000000000, 0.000000000000000000, 0.000000000000000000 ) ;
#33 = CARTESIAN_POINT ( 'NONE',  ( 0.000000000000000000, 0.000000000000000000, 0.000000000000000000 ) ) ;
#34 = DIRECTION ( 'NONE',  ( -0.2588190451025214611, 0.9659258262890679791, 0.000000000000000000 ) ) ;
#35 = DIRECTION ( 'NONE',  ( -2.799192683765378812E-17, 1.000000000000000000, -0.000000000000000000 ) ) ;
#36 = CIRCLE ( 'NONE', #284, 0.1250000000000000278 ) ;
#37 = ADVANCED_BREP_SHAPE_REPRESENTATION ( '84045', ( #62, #304, #216 ), #1 ) ;
#38 = SURFACE_SIDE_STYLE ('',( #143 ) ) ;
#39 = DIRECTION ( 'NONE',  ( -2.799192683765378812E-17, 1.000000000000000000, -0.000000000000000000 ) ) ;
#40 =( NAMED_UNIT ( * ) SI_UNIT ( $, .STERADIAN. ) SOLID_ANGLE_UNIT ( ) );
#41 = ORIENTED_EDGE ( 'NONE', *, *, #214, .T. ) ;
#42 = CARTESIAN_POINT ( 'NONE',  ( 0.1249999999999999584, 2.500000000000000000, 1.530808498934191817E-17 ) ) ;
#43 = AXIS2_PLACEMENT_3D ( 'NONE', #300, #25, #311 ) ;
#44 = ORIENTED_EDGE ( 'NONE', *, *, #310, .T. ) ;
#45 = EDGE_LOOP ( 'NONE', ( #226, #78, #295, #175 ) ) ;
#46 = APPLICATION_CONTEXT ( 'automotive_design' ) ;
#47 = ORIENTED_EDGE ( 'NONE', *, *, #335, .F. ) ;
#48 =( NAMED_UNIT ( * ) PLANE_ANGLE_UNIT ( ) SI_UNIT ( $, .RADIAN. ) );
#49 = EDGE_CURVE ( 'NONE', #154, #104, #129, .T. ) ;
#50 =( NAMED_UNIT ( * ) SI_UNIT ( $, .STERADIAN. ) SOLID_ANGLE_UNIT ( ) );
#51 = STYLED_ITEM ( 'NONE', ( #183 ), #265 ) ;
#52 = UNCERTAINTY_MEASURE_WITH_UNIT (LENGTH_MEASURE( 1.000000000000000082E-05 ), #245, 'distance_accuracy_value', 'NONE');
#53 = DIRECTION ( 'NONE',  ( -2.799192683765378812E-17, 1.000000000000000000, -0.000000000000000000 ) ) ;
#54 = UNCERTAINTY_MEASURE_WITH_UNIT (LENGTH_MEASURE( 1.000000000000000082E-05 ), #344, 'distance_accuracy_value', 'NONE');
#55 = FILL_AREA_STYLE_COLOUR ( '', #113 ) ;
#56 = CARTESIAN_POINT ( 'NONE',  ( 0.000000000000000000, 0.3125000000000000000, 0.000000000000000000 ) ) ;
#57 = SURFACE_STYLE_USAGE ( .BOTH. , #278 ) ;
#58 = FILL_AREA_STYLE_COLOUR ( '', #88 ) ;
#59 = APPLICATION_PROTOCOL_DEFINITION ( 'draft international standard', 'automotive_design', 1998, #81 ) ;
#60 = EDGE_CURVE ( 'NONE', #178, #157, #303, .T. ) ;
#61 =( GEOMETRIC_REPRESENTATION_CONTEXT ( 3 ) GLOBAL_UNCERTAINTY_ASSIGNED_CONTEXT ( ( #85 ) ) GLOBAL_UNIT_ASSIGNED_CONTEXT ( ( #108, #186, #40 ) ) REPRESENTATION_CONTEXT ( 'NONE', 'WORKASPACE' ) );
#62 = MANIFOLD_SOLID_BREP ( 'Revolve - Cutting Edge', #256 ) ;
#63 = SURFACE_STYLE_USAGE ( .BOTH. , #38 ) ;
#64 = DIRECTION ( 'NONE',  ( 0.2588190451025214611, 0.9659258262890679791, 3.169619151431773569E-17 ) ) ;
#65 = CYLINDRICAL_SURFACE ( 'NONE', #98, 0.1250000000000000278 ) ;
#66 = FILL_AREA_STYLE_COLOUR ( '', #103 ) ;
#67 = FACE_OUTER_BOUND ( 'NONE', #235, .T. ) ;
#68 = CARTESIAN_POINT ( 'NONE',  ( 0.000000000000000000, 0.000000000000000000, -0.03125000000000000000 ) ) ;
#69 =( NAMED_UNIT ( * ) SI_UNIT ( $, .STERADIAN. ) SOLID_ANGLE_UNIT ( ) );
#70 = EDGE_CURVE ( 'NONE', #16, #154, #329, .T. ) ;
#71 = LENGTH_MEASURE_WITH_UNIT ( LENGTH_MEASURE( 0.02539999999999999897 ), #6 );
#72 = PRESENTATION_LAYER_ASSIGNMENT (  '', '', ( #234 ) ) ;
#73 = PRESENTATION_LAYER_ASSIGNMENT (  '', '', ( #2 ) ) ;
#74 = FILL_AREA_STYLE ('',( #12 ) ) ;
#75 = DIMENSIONAL_EXPONENTS ( 1.000000000000000000, 0.000000000000000000, 0.000000000000000000, 0.000000000000000000, 0.000000000000000000, 0.000000000000000000, 0.000000000000000000 ) ;
#76 = ORIENTED_EDGE ( 'NONE', *, *, #70, .F. ) ;
#77 = EDGE_LOOP ( 'NONE', ( #318, #287 ) ) ;
#78 = ORIENTED_EDGE ( 'NONE', *, *, #170, .T. ) ;
#79 = VERTEX_POINT ( 'NONE', #97 ) ;
#80 = ADVANCED_FACE ( 'NONE', ( #261 ), #229, .T. ) ;
#81 = APPLICATION_CONTEXT ( 'automotive_design' ) ;
#82 = DIRECTION ( 'NONE',  ( 0.000000000000000000, 0.000000000000000000, -1.000000000000000000 ) ) ;
#83 = ADVANCED_FACE ( 'NONE', ( #67 ), #65, .T. ) ;
#84 = CARTESIAN_POINT ( 'NONE',  ( 7.582401355855259480E-33, 0.3125000000000000000, 0.000000000000000000 ) ) ;
#85 = UNCERTAINTY_MEASURE_WITH_UNIT (LENGTH_MEASURE( 1.000000000000000082E-05 ), #108, 'distance_accuracy_value', 'NONE');
#86 =( CONVERSION_BASED_UNIT ( 'INCH', #267 ) LENGTH_UNIT ( ) NAMED_UNIT ( #118 ) );
#87 = STYLED_ITEM ( 'NONE', ( #253 ), #62 ) ;
#88 = COLOUR_RGB ( '',1.000000000000000000, 0.000000000000000000, 0.000000000000000000 ) ;
#89 = CYLINDRICAL_SURFACE ( 'NONE', #31, 0.03125000000000000000 ) ;
#90 = EDGE_CURVE ( 'NONE', #294, #99, #30, .T. ) ;
#91 = CARTESIAN_POINT ( 'NONE',  ( 3.827021247335478772E-18, 0.3125000000000000000, 0.03125000000000000000 ) ) ;
#92 = DIMENSIONAL_EXPONENTS ( 1.000000000000000000, 0.000000000000000000, 0.000000000000000000, 0.000000000000000000, 0.000000000000000000, 0.000000000000000000, 0.000000000000000000 ) ;
#93 = DIRECTION ( 'NONE',  ( 1.000000000000000000, 2.799192683765378812E-17, 0.000000000000000000 ) ) ;
#94 = PRESENTATION_LAYER_ASSIGNMENT (  '', '', ( #269 ) ) ;
#95 = FACE_OUTER_BOUND ( 'NONE', #323, .T. ) ;
#96 = ADVANCED_FACE ( 'NONE', ( #185 ), #279, .T. ) ;
#97 = CARTESIAN_POINT ( 'NONE',  ( -0.1250000000000001388, 2.500000000000000000, 0.000000000000000000 ) ) ;
#98 = AXIS2_PLACEMENT_3D ( 'NONE', #282, #35, #347 ) ;
#99 = VERTEX_POINT ( 'NONE', #275 ) ;
#100 =( NAMED_UNIT ( * ) SI_UNIT ( $, .STERADIAN. ) SOLID_ANGLE_UNIT ( ) );
#101 = ORIENTED_EDGE ( 'NONE', *, *, #49, .T. ) ;
#102 =( LENGTH_UNIT ( ) NAMED_UNIT ( * ) SI_UNIT ( $, .METRE. ) );
#103 = COLOUR_RGB ( '',1.000000000000000000, 0.000000000000000000, 0.000000000000000000 ) ;
#104 = VERTEX_POINT ( 'NONE', #188 ) ;
#105 = ORIENTED_EDGE ( 'NONE', *, *, #310, .F. ) ;
#106 =( LENGTH_UNIT ( ) NAMED_UNIT ( * ) SI_UNIT ( $, .METRE. ) );
#107 = AXIS2_PLACEMENT_3D ( 'NONE', #199, #119, #309 ) ;
#108 =( CONVERSION_BASED_UNIT ( 'INCH', #159 ) LENGTH_UNIT ( ) NAMED_UNIT ( #137 ) );
#109 =( NAMED_UNIT ( * ) PLANE_ANGLE_UNIT ( ) SI_UNIT ( $, .RADIAN. ) );
#110 = FACE_OUTER_BOUND ( 'NONE', #348, .T. ) ;
#111 = EDGE_CURVE ( 'NONE', #79, #104, #319, .T. ) ;
#112 = MECHANICAL_DESIGN_GEOMETRIC_PRESENTATION_REPRESENTATION (  '', ( #269 ), #22 ) ;
#113 = COLOUR_RGB ( '',1.000000000000000000, 0.000000000000000000, 0.000000000000000000 ) ;
#114 = DIRECTION ( 'NONE',  ( 0.000000000000000000, 0.000000000000000000, 1.000000000000000000 ) ) ;
#115 = LINE ( 'NONE', #250, #218 ) ;
#116 = SURFACE_STYLE_USAGE ( .BOTH. , #191 ) ;
#117 = FACE_OUTER_BOUND ( 'NONE', #77, .T. ) ;
#118 = DIMENSIONAL_EXPONENTS ( 1.000000000000000000, 0.000000000000000000, 0.000000000000000000, 0.000000000000000000, 0.000000000000000000, 0.000000000000000000, 0.000000000000000000 ) ;
#119 = DIRECTION ( 'NONE',  ( 0.000000000000000000, -1.000000000000000000, -0.000000000000000000 ) ) ;
#120 = DIRECTION ( 'NONE',  ( -2.799192683765378812E-17, 1.000000000000000000, -0.000000000000000000 ) ) ;
#121 = AXIS2_PLACEMENT_3D ( 'NONE', #176, #147, #144 ) ;
#122 = ADVANCED_FACE ( 'NONE', ( #27 ), #328, .T. ) ;
#123 = ORIENTED_EDGE ( 'NONE', *, *, #335, .T. ) ;
#124 = PRODUCT_DEFINITION ( 'UNKNOWN', '', #325, #187 ) ;
#125 = CARTESIAN_POINT ( 'NONE',  ( -6.123233995736766036E-17, 2.500000000000000000, 0.000000000000000000 ) ) ;
#126 = ORIENTED_EDGE ( 'NONE', *, *, #90, .T. ) ;
#127 = SURFACE_STYLE_FILL_AREA ( #281 ) ;
#128 = DIRECTION ( 'NONE',  ( -0.000000000000000000, -1.000000000000000000, -0.000000000000000000 ) ) ;
#129 = LINE ( 'NONE', #42, #242 ) ;
#130 = ORIENTED_EDGE ( 'NONE', *, *, #90, .F. ) ;
#131 = DIRECTION ( 'NONE',  ( 0.000000000000000000, 0.000000000000000000, -1.000000000000000000 ) ) ;
#132 =( GEOMETRIC_REPRESENTATION_CONTEXT ( 3 ) GLOBAL_UNCERTAINTY_ASSIGNED_CONTEXT ( ( #24 ) ) GLOBAL_UNIT_ASSIGNED_CONTEXT ( ( #345, #48, #189 ) ) REPRESENTATION_CONTEXT ( 'NONE', 'WORKASPACE' ) );
#133 = ORIENTED_EDGE ( 'NONE', *, *, #158, .F. ) ;
#134 = ADVANCED_FACE ( 'NONE', ( #277 ), #166, .F. ) ;
#135 =( GEOMETRIC_REPRESENTATION_CONTEXT ( 3 ) GLOBAL_UNCERTAINTY_ASSIGNED_CONTEXT ( ( #52 ) ) GLOBAL_UNIT_ASSIGNED_CONTEXT ( ( #245, #109, #238 ) ) REPRESENTATION_CONTEXT ( 'NONE', 'WORKASPACE' ) );
#136 = AXIS2_PLACEMENT_3D ( 'NONE', #84, #215, #138 ) ;
#137 = DIMENSIONAL_EXPONENTS ( 1.000000000000000000, 0.000000000000000000, 0.000000000000000000, 0.000000000000000000, 0.000000000000000000, 0.000000000000000000, 0.000000000000000000 ) ;
#138 = DIRECTION ( 'NONE',  ( -1.000000000000000000, 0.000000000000000000, 0.000000000000000000 ) ) ;
#139 = ADVANCED_FACE ( 'NONE', ( #110 ), #163, .T. ) ;
#140 = CARTESIAN_POINT ( 'NONE',  ( 1.224293700132128738E-35, 0.3125000000000000000, 0.000000000000000000 ) ) ;
#141 = VECTOR ( 'NONE', #333, 39.37007874015748143 ) ;
#142 = PRODUCT_CONTEXT ( 'NONE', #46, 'mechanical' ) ;
#143 = SURFACE_STYLE_FILL_AREA ( #307 ) ;
#144 = DIRECTION ( 'NONE',  ( 0.000000000000000000, -0.000000000000000000, 1.000000000000000000 ) ) ;
#145 =( GEOMETRIC_REPRESENTATION_CONTEXT ( 3 ) GLOBAL_UNCERTAINTY_ASSIGNED_CONTEXT ( ( #241 ) ) GLOBAL_UNIT_ASSIGNED_CONTEXT ( ( #317, #155, #349 ) ) REPRESENTATION_CONTEXT ( 'NONE', 'WORKASPACE' ) );
#146 = DIRECTION ( 'NONE',  ( -1.000000000000000000, 0.000000000000000000, 0.000000000000000000 ) ) ;
#147 = DIRECTION ( 'NONE',  ( 0.000000000000000000, 1.000000000000000000, 0.000000000000000000 ) ) ;
#148 =( NAMED_UNIT ( * ) PLANE_ANGLE_UNIT ( ) SI_UNIT ( $, .RADIAN. ) );
#149 = ORIENTED_EDGE ( 'NONE', *, *, #244, .T. ) ;
#150 = DIRECTION ( 'NONE',  ( -1.000000000000000000, 0.000000000000000000, 0.000000000000000000 ) ) ;
#151 = ORIENTED_EDGE ( 'NONE', *, *, #244, .F. ) ;
#152 = CLOSED_SHELL ( 'NONE', ( #83, #96, #134, #184, #122, #225 ) ) ;
#153 = COLOUR_RGB ( '',0.7921568627450980005, 0.8196078431372548767, 0.9333333333333333481 ) ;
#154 = VERTEX_POINT ( 'NONE', #308 ) ;
#155 =( NAMED_UNIT ( * ) PLANE_ANGLE_UNIT ( ) SI_UNIT ( $, .RADIAN. ) );
#156 = CARTESIAN_POINT ( 'NONE',  ( 0.000000000000000000, 0.000000000000000000, 0.000000000000000000 ) ) ;
#157 = VERTEX_POINT ( 'NONE', #171 ) ;
#158 = EDGE_CURVE ( 'NONE', #19, #21, #292, .T. ) ;
#159 = LENGTH_MEASURE_WITH_UNIT ( LENGTH_MEASURE( 0.02539999999999999897 ), #356 );
#160 = LENGTH_MEASURE_WITH_UNIT ( LENGTH_MEASURE( 0.02539999999999999897 ), #293 );
#161 = DIRECTION ( 'NONE',  ( -0.000000000000000000, -1.000000000000000000, -0.000000000000000000 ) ) ;
#162 = MECHANICAL_DESIGN_GEOMETRIC_PRESENTATION_REPRESENTATION (  '', ( #234 ), #61 ) ;
#163 = PLANE ( 'NONE',  #121 ) ;
#164 = UNCERTAINTY_MEASURE_WITH_UNIT (LENGTH_MEASURE( 1.000000000000000082E-05 ), #86, 'distance_accuracy_value', 'NONE');
#165 =( NAMED_UNIT ( * ) PLANE_ANGLE_UNIT ( ) SI_UNIT ( $, .RADIAN. ) );
#166 = PLANE ( 'NONE',  #299 ) ;
#167 = FILL_AREA_STYLE ('',( #58 ) ) ;
#168 = AXIS2_PLACEMENT_3D ( 'NONE', #260, #202, #13 ) ;
#169 = DIRECTION ( 'NONE',  ( -0.000000000000000000, -1.000000000000000000, -0.000000000000000000 ) ) ;
#170 = EDGE_CURVE ( 'NONE', #21, #19, #180, .T. ) ;
#171 = CARTESIAN_POINT ( 'NONE',  ( 0.000000000000000000, 0.3125000000000000000, -0.03125000000000000000 ) ) ;
#172 = AXIS2_PLACEMENT_3D ( 'NONE', #236, #177, #255 ) ;
#173 = DIRECTION ( 'NONE',  ( -1.000000000000000000, 0.000000000000000000, 0.000000000000000000 ) ) ;
#174 = AXIS2_PLACEMENT_3D ( 'NONE', #156, #233, #322 ) ;
#175 = ORIENTED_EDGE ( 'NONE', *, *, #297, .F. ) ;
#176 = CARTESIAN_POINT ( 'NONE',  ( 0.000000000000000000, 0.3125000000000000000, 0.000000000000000000 ) ) ;
#177 = DIRECTION ( 'NONE',  ( -2.799192683765378812E-17, 1.000000000000000000, -0.000000000000000000 ) ) ;
#178 = VERTEX_POINT ( 'NONE', #91 ) ;
#179 = ORIENTED_EDGE ( 'NONE', *, *, #274, .T. ) ;
#180 = CIRCLE ( 'NONE', #276, 0.03125000000000000000 ) ;
#181 = ORIENTED_EDGE ( 'NONE', *, *, #170, .F. ) ;
#182 = ORIENTED_EDGE ( 'NONE', *, *, #60, .T. ) ;
#183 = PRESENTATION_STYLE_ASSIGNMENT (( #346 ) ) ;
#184 = ADVANCED_FACE ( 'NONE', ( #254 ), #326, .T. ) ;
#185 = FACE_OUTER_BOUND ( 'NONE', #315, .T. ) ;
#186 =( NAMED_UNIT ( * ) PLANE_ANGLE_UNIT ( ) SI_UNIT ( $, .RADIAN. ) );
#187 = PRODUCT_DEFINITION_CONTEXT ( 'detailed design', #81, 'design' ) ;
#188 = CARTESIAN_POINT ( 'NONE',  ( 0.1250000000000000278, 2.500000000000000000, 1.530808498934192125E-17 ) ) ;
#189 =( NAMED_UNIT ( * ) SI_UNIT ( $, .STERADIAN. ) SOLID_ANGLE_UNIT ( ) );
#190 = AXIS2_PLACEMENT_3D ( 'NONE', #272, #239, #192 ) ;
#191 = SURFACE_SIDE_STYLE ('',( #237 ) ) ;
#192 = DIRECTION ( 'NONE',  ( -1.000000000000000000, 0.000000000000000000, 0.000000000000000000 ) ) ;
#193 = DIRECTION ( 'NONE',  ( -1.000000000000000000, -2.799192683765378812E-17, 0.000000000000000000 ) ) ;
#194 = DIRECTION ( 'NONE',  ( 1.000000000000000000, 0.000000000000000000, 0.000000000000000000 ) ) ;
#195 = SURFACE_STYLE_USAGE ( .BOTH. , #220 ) ;
#196 = LINE ( 'NONE', #306, #213 ) ;
#197 = EDGE_CURVE ( 'NONE', #19, #16, #263, .T. ) ;
#198 = VECTOR ( 'NONE', #34, 39.37007874015748143 ) ;
#199 = CARTESIAN_POINT ( 'NONE',  ( 0.000000000000000000, 0.000000000000000000, 0.000000000000000000 ) ) ;
#200 = CYLINDRICAL_SURFACE ( 'NONE', #43, 0.03125000000000000000 ) ;
#201 =( LENGTH_UNIT ( ) NAMED_UNIT ( * ) SI_UNIT ( $, .METRE. ) );
#202 = DIRECTION ( 'NONE',  ( -2.799192683765378812E-17, 1.000000000000000000, -0.000000000000000000 ) ) ;
#203 = AXIS2_PLACEMENT_3D ( 'NONE', #339, #120, #173 ) ;
#204 = ORIENTED_EDGE ( 'NONE', *, *, #274, .F. ) ;
#205 = CARTESIAN_POINT ( 'NONE',  ( -0.1250000000000000278, 0.6623797632095812515, 0.000000000000000000 ) ) ;
#206 = EDGE_CURVE ( 'NONE', #104, #79, #285, .T. ) ;
#207 = ORIENTED_EDGE ( 'NONE', *, *, #60, .F. ) ;
#208 = VECTOR ( 'NONE', #64, 39.37007874015748143 ) ;
#209 = ORIENTED_EDGE ( 'NONE', *, *, #214, .F. ) ;
#210 = PRESENTATION_STYLE_ASSIGNMENT (( #116 ) ) ;
#211 = ORIENTED_EDGE ( 'NONE', *, *, #158, .T. ) ;
#212 = LINE ( 'NONE', #324, #141 ) ;
#213 = VECTOR ( 'NONE', #169, 39.37007874015748143 ) ;
#214 = EDGE_CURVE ( 'NONE', #157, #294, #196, .T. ) ;
#215 = DIRECTION ( 'NONE',  ( -2.799192683765378812E-17, 1.000000000000000000, -0.000000000000000000 ) ) ;
#216 = AXIS2_PLACEMENT_3D ( 'NONE', #302, #114, #194 ) ;
#217 = COLOUR_RGB ( '',1.000000000000000000, 0.000000000000000000, 0.000000000000000000 ) ;
#218 = VECTOR ( 'NONE', #10, 39.37007874015748143 ) ;
#219 = CARTESIAN_POINT ( 'NONE',  ( 0.000000000000000000, 0.000000000000000000, 0.000000000000000000 ) ) ;
#220 = SURFACE_SIDE_STYLE ('',( #286 ) ) ;
#221 = EDGE_CURVE ( 'NONE', #21, #154, #252, .T. ) ;
#222 = PLANE ( 'NONE',  #257 ) ;
#223 = DIRECTION ( 'NONE',  ( -0.000000000000000000, -1.000000000000000000, -0.000000000000000000 ) ) ;
#224 = PRESENTATION_STYLE_ASSIGNMENT (( #340 ) ) ;
#225 = ADVANCED_FACE ( 'NONE', ( #117 ), #222, .F. ) ;
#226 = ORIENTED_EDGE ( 'NONE', *, *, #221, .F. ) ;
#227 = DIRECTION ( 'NONE',  ( -2.799192683765378812E-17, 1.000000000000000000, -0.000000000000000000 ) ) ;
#228 = CIRCLE ( 'NONE', #18, 0.03125000000000000000 ) ;
#229 = PLANE ( 'NONE',  #107 ) ;
#230 = ORIENTED_EDGE ( 'NONE', *, *, #206, .F. ) ;
#231 = EDGE_LOOP ( 'NONE', ( #105, #182, #41, #47 ) ) ;
#232 = AXIS2_PLACEMENT_3D ( 'NONE', #56, #247, #359 ) ;
#233 = DIRECTION ( 'NONE',  ( -0.000000000000000000, -1.000000000000000000, -0.000000000000000000 ) ) ;
#234 = STYLED_ITEM ( 'NONE', ( #251 ), #139 ) ;
#235 = EDGE_LOOP ( 'NONE', ( #268, #101, #343, #204 ) ) ;
#236 = CARTESIAN_POINT ( 'NONE',  ( -9.793808733738228127E-18, 0.6623797632095812515, 0.000000000000000000 ) ) ;
#237 = SURFACE_STYLE_FILL_AREA ( #288 ) ;
#238 =( NAMED_UNIT ( * ) SI_UNIT ( $, .STERADIAN. ) SOLID_ANGLE_UNIT ( ) );
#239 = DIRECTION ( 'NONE',  ( -2.799192683765378812E-17, 1.000000000000000000, -0.000000000000000000 ) ) ;
#240 = AXIS2_PLACEMENT_3D ( 'NONE', #33, #128, #131 ) ;
#241 = UNCERTAINTY_MEASURE_WITH_UNIT (LENGTH_MEASURE( 1.000000000000000082E-05 ), #317, 'distance_accuracy_value', 'NONE');
#242 = VECTOR ( 'NONE', #53, 39.37007874015748143 ) ;
#243 = PRESENTATION_LAYER_ASSIGNMENT (  '', '', ( #342 ) ) ;
#244 = EDGE_CURVE ( 'NONE', #157, #178, #228, .T. ) ;
#245 =( CONVERSION_BASED_UNIT ( 'INCH', #160 ) LENGTH_UNIT ( ) NAMED_UNIT ( #312 ) );
#246 = DIRECTION ( 'NONE',  ( -2.799192683765378812E-17, 1.000000000000000000, -0.000000000000000000 ) ) ;
#247 = DIRECTION ( 'NONE',  ( -0.000000000000000000, -1.000000000000000000, -0.000000000000000000 ) ) ;
#248 = CIRCLE ( 'NONE', #240, 0.03125000000000000000 ) ;
#249 = MECHANICAL_DESIGN_GEOMETRIC_PRESENTATION_REPRESENTATION (  '', ( #342 ), #330 ) ;
#250 = CARTESIAN_POINT ( 'NONE',  ( -0.1250000000000001110, 2.500000000000000000, 0.000000000000000000 ) ) ;
#251 = PRESENTATION_STYLE_ASSIGNMENT (( #57 ) ) ;
#252 = LINE ( 'NONE', #5, #208 ) ;
#253 = PRESENTATION_STYLE_ASSIGNMENT (( #63 ) ) ;
#254 = FACE_OUTER_BOUND ( 'NONE', #45, .T. ) ;
#255 = DIRECTION ( 'NONE',  ( -1.000000000000000000, 0.000000000000000000, 0.000000000000000000 ) ) ;
#256 = CLOSED_SHELL ( 'NONE', ( #265, #139, #314, #80 ) ) ;
#257 = AXIS2_PLACEMENT_3D ( 'NONE', #334, #338, #93 ) ;
#258 = CARTESIAN_POINT ( 'NONE',  ( 7.582401355855259480E-33, 0.3125000000000000000, 0.000000000000000000 ) ) ;
#259 = FACE_OUTER_BOUND ( 'NONE', #231, .T. ) ;
#260 = CARTESIAN_POINT ( 'NONE',  ( 7.582401355855259480E-33, 0.3125000000000000000, 0.000000000000000000 ) ) ;
#261 = FACE_OUTER_BOUND ( 'NONE', #262, .T. ) ;
#262 = EDGE_LOOP ( 'NONE', ( #126, #123 ) ) ;
#263 = LINE ( 'NONE', #17, #198 ) ;
#264 = ORIENTED_EDGE ( 'NONE', *, *, #197, .F. ) ;
#265 = ADVANCED_FACE ( 'NONE', ( #95 ), #200, .T. ) ;
#266 = CARTESIAN_POINT ( 'NONE',  ( 0.03125000000000000000, 0.3125000000000000000, 9.567553118338697316E-18 ) ) ;
#267 = LENGTH_MEASURE_WITH_UNIT ( LENGTH_MEASURE( 0.02539999999999999897 ), #350 );
#268 = ORIENTED_EDGE ( 'NONE', *, *, #70, .T. ) ;
#269 = STYLED_ITEM ( 'NONE', ( #224 ), #80 ) ;
#270 = PRESENTATION_LAYER_ASSIGNMENT (  '', '', ( #51 ) ) ;
#271 = MECHANICAL_DESIGN_GEOMETRIC_PRESENTATION_REPRESENTATION (  '', ( #2 ), #135 ) ;
#272 = CARTESIAN_POINT ( 'NONE',  ( -6.123233995736766036E-17, 2.500000000000000000, 0.000000000000000000 ) ) ;
#273 = PRODUCT_DEFINITION_SHAPE ( 'NONE', 'NONE',  #124 ) ;
#274 = EDGE_CURVE ( 'NONE', #16, #79, #115, .T. ) ;
#275 = CARTESIAN_POINT ( 'NONE',  ( 3.827021247335478772E-18, 0.000000000000000000, 0.03125000000000000000 ) ) ;
#276 = AXIS2_PLACEMENT_3D ( 'NONE', #258, #313, #150 ) ;
#277 = FACE_OUTER_BOUND ( 'NONE', #351, .T. ) ;
#278 = SURFACE_SIDE_STYLE ('',( #327 ) ) ;
#279 = CONICAL_SURFACE ( 'NONE', #136, 0.03125000000000000000, 0.2617993877991501850 ) ;
#280 = SURFACE_STYLE_FILL_AREA ( #337 ) ;
#281 = FILL_AREA_STYLE ('',( #66 ) ) ;
#282 = CARTESIAN_POINT ( 'NONE',  ( -6.123233995736766036E-17, 2.500000000000000000, 0.000000000000000000 ) ) ;
#283 = CARTESIAN_POINT ( 'NONE',  ( -9.793808733738228127E-18, 0.6623797632095812515, 0.000000000000000000 ) ) ;
#284 = AXIS2_PLACEMENT_3D ( 'NONE', #283, #39, #146 ) ;
#285 = CIRCLE ( 'NONE', #9, 0.1250000000000000555 ) ;
#286 = SURFACE_STYLE_FILL_AREA ( #74 ) ;
#287 = ORIENTED_EDGE ( 'NONE', *, *, #206, .T. ) ;
#288 = FILL_AREA_STYLE ('',( #55 ) ) ;
#289 = ORIENTED_EDGE ( 'NONE', *, *, #297, .T. ) ;
#290 = CARTESIAN_POINT ( 'NONE',  ( -0.03125000000000000000, 0.3125000000000000000, 0.000000000000000000 ) ) ;
#291 = LENGTH_MEASURE_WITH_UNIT ( LENGTH_MEASURE( 0.02539999999999999897 ), #102 );
#292 = CIRCLE ( 'NONE', #203, 0.03125000000000000000 ) ;
#293 =( LENGTH_UNIT ( ) NAMED_UNIT ( * ) SI_UNIT ( $, .METRE. ) );
#294 = VERTEX_POINT ( 'NONE', #68 ) ;
#295 = ORIENTED_EDGE ( 'NONE', *, *, #197, .T. ) ;
#296 = LENGTH_MEASURE_WITH_UNIT ( LENGTH_MEASURE( 0.02539999999999999897 ), #106 );
#297 = EDGE_CURVE ( 'NONE', #154, #16, #36, .T. ) ;
#298 = MECHANICAL_DESIGN_GEOMETRIC_PRESENTATION_REPRESENTATION (  '', ( #87 ), #132 ) ;
#299 = AXIS2_PLACEMENT_3D ( 'NONE', #140, #301, #193 ) ;
#300 = CARTESIAN_POINT ( 'NONE',  ( 0.000000000000000000, 0.000000000000000000, 0.000000000000000000 ) ) ;
#301 = DIRECTION ( 'NONE',  ( -2.799192683765378812E-17, 1.000000000000000000, 0.000000000000000000 ) ) ;
#302 = CARTESIAN_POINT ( 'NONE',  ( 0.000000000000000000, 0.000000000000000000, 0.000000000000000000 ) ) ;
#303 = CIRCLE ( 'NONE', #232, 0.03125000000000000000 ) ;
#304 = MANIFOLD_SOLID_BREP ( 'Revolve - Tool Body (Reduced Cut Diameter)', #152 ) ;
#305 = PRESENTATION_STYLE_ASSIGNMENT (( #195 ) ) ;
#306 = CARTESIAN_POINT ( 'NONE',  ( 0.000000000000000000, 0.000000000000000000, -0.03125000000000000000 ) ) ;
#307 = FILL_AREA_STYLE ('',( #354 ) ) ;
#308 = CARTESIAN_POINT ( 'NONE',  ( 0.1250000000000000000, 0.6623797632095812515, 1.530808498934191817E-17 ) ) ;
#309 = DIRECTION ( 'NONE',  ( 0.000000000000000000, 0.000000000000000000, -1.000000000000000000 ) ) ;
#310 = EDGE_CURVE ( 'NONE', #178, #99, #212, .T. ) ;
#311 = DIRECTION ( 'NONE',  ( 0.000000000000000000, 0.000000000000000000, -1.000000000000000000 ) ) ;
#312 = DIMENSIONAL_EXPONENTS ( 1.000000000000000000, 0.000000000000000000, 0.000000000000000000, 0.000000000000000000, 0.000000000000000000, 0.000000000000000000, 0.000000000000000000 ) ;
#313 = DIRECTION ( 'NONE',  ( -2.799192683765378812E-17, 1.000000000000000000, -0.000000000000000000 ) ) ;
#314 = ADVANCED_FACE ( 'NONE', ( #259 ), #89, .T. ) ;
#315 = EDGE_LOOP ( 'NONE', ( #211, #321, #76, #264 ) ) ;
#316 = EDGE_LOOP ( 'NONE', ( #353, #289, #179, #230 ) ) ;
#317 =( CONVERSION_BASED_UNIT ( 'INCH', #291 ) LENGTH_UNIT ( ) NAMED_UNIT ( #92 ) );
#318 = ORIENTED_EDGE ( 'NONE', *, *, #111, .T. ) ;
#319 = CIRCLE ( 'NONE', #26, 0.1250000000000000555 ) ;
#320 = PRODUCT ( '84045', '84045', '', ( #142 ) ) ;
#321 = ORIENTED_EDGE ( 'NONE', *, *, #221, .T. ) ;
#322 = DIRECTION ( 'NONE',  ( 0.000000000000000000, 0.000000000000000000, -1.000000000000000000 ) ) ;
#323 = EDGE_LOOP ( 'NONE', ( #149, #44, #130, #209 ) ) ;
#324 = CARTESIAN_POINT ( 'NONE',  ( 3.827021247335478772E-18, 0.000000000000000000, 0.03125000000000000000 ) ) ;
#325 = PRODUCT_DEFINITION_FORMATION_WITH_SPECIFIED_SOURCE ( 'ANY', '', #320, .NOT_KNOWN. ) ;
#326 = CONICAL_SURFACE ( 'NONE', #168, 0.03125000000000000000, 0.2617993877991501850 ) ;
#327 = SURFACE_STYLE_FILL_AREA ( #167 ) ;
#328 = CYLINDRICAL_SURFACE ( 'NONE', #190, 0.1250000000000000278 ) ;
#329 = CIRCLE ( 'NONE', #172, 0.1250000000000000278 ) ;
#330 =( GEOMETRIC_REPRESENTATION_CONTEXT ( 3 ) GLOBAL_UNCERTAINTY_ASSIGNED_CONTEXT ( ( #164 ) ) GLOBAL_UNIT_ASSIGNED_CONTEXT ( ( #86, #165, #50 ) ) REPRESENTATION_CONTEXT ( 'NONE', 'WORKASPACE' ) );
#331 =( CONVERSION_BASED_UNIT ( 'INCH', #296 ) LENGTH_UNIT ( ) NAMED_UNIT ( #75 ) );
#332 = APPLICATION_PROTOCOL_DEFINITION ( 'draft international standard', 'automotive_design', 1998, #46 ) ;
#333 = DIRECTION ( 'NONE',  ( -0.000000000000000000, -1.000000000000000000, -0.000000000000000000 ) ) ;
#334 = CARTESIAN_POINT ( 'NONE',  ( 0.1250000000000000000, 2.500000000000000000, 0.000000000000000000 ) ) ;
#335 = EDGE_CURVE ( 'NONE', #99, #294, #248, .T. ) ;
#336 = DIRECTION ( 'NONE',  ( 0.000000000000000000, 0.000000000000000000, -1.000000000000000000 ) ) ;
#337 = FILL_AREA_STYLE ('',( #15 ) ) ;
#338 = DIRECTION ( 'NONE',  ( 2.799192683765378812E-17, -1.000000000000000000, 0.000000000000000000 ) ) ;
#339 = CARTESIAN_POINT ( 'NONE',  ( 7.582401355855259480E-33, 0.3125000000000000000, 0.000000000000000000 ) ) ;
#340 = SURFACE_STYLE_USAGE ( .BOTH. , #8 ) ;
#341 = LENGTH_MEASURE_WITH_UNIT ( LENGTH_MEASURE( 0.02539999999999999897 ), #201 );
#342 = STYLED_ITEM ( 'NONE', ( #305 ), #304 ) ;
#343 = ORIENTED_EDGE ( 'NONE', *, *, #111, .F. ) ;
#344 =( CONVERSION_BASED_UNIT ( 'INCH', #71 ) LENGTH_UNIT ( ) NAMED_UNIT ( #32 ) );
#345 =( CONVERSION_BASED_UNIT ( 'INCH', #341 ) LENGTH_UNIT ( ) NAMED_UNIT ( #4 ) );
#346 = SURFACE_STYLE_USAGE ( .BOTH. , #23 ) ;
#347 = DIRECTION ( 'NONE',  ( -1.000000000000000000, 0.000000000000000000, 0.000000000000000000 ) ) ;
#348 = EDGE_LOOP ( 'NONE', ( #151, #207 ) ) ;
#349 =( NAMED_UNIT ( * ) SI_UNIT ( $, .STERADIAN. ) SOLID_ANGLE_UNIT ( ) );
#350 =( LENGTH_UNIT ( ) NAMED_UNIT ( * ) SI_UNIT ( $, .METRE. ) );
#351 = EDGE_LOOP ( 'NONE', ( #133, #181 ) ) ;
#352 = COLOUR_RGB ( '',0.7921568627450980005, 0.8196078431372548767, 0.9333333333333333481 ) ;
#353 = ORIENTED_EDGE ( 'NONE', *, *, #49, .F. ) ;
#354 = FILL_AREA_STYLE_COLOUR ( '', #352 ) ;
#355 = PRESENTATION_LAYER_ASSIGNMENT (  '', '', ( #87 ) ) ;
#356 =( LENGTH_UNIT ( ) NAMED_UNIT ( * ) SI_UNIT ( $, .METRE. ) );
#357 = MECHANICAL_DESIGN_GEOMETRIC_PRESENTATION_REPRESENTATION (  '', ( #51 ), #145 ) ;
#358 = UNCERTAINTY_MEASURE_WITH_UNIT (LENGTH_MEASURE( 1.000000000000000082E-05 ), #331, 'distance_accuracy_value', 'NONE');
#359 = DIRECTION ( 'NONE',  ( 0.000000000000000000, 0.000000000000000000, -1.000000000000000000 ) ) ;
ENDSEC;
END-ISO-10303-21;
