ISO-10303-21;
HEADER;
FILE_DESCRIPTION (( 'STEP AP214' ),
    '1' );
FILE_NAME ('Micro_BMSM-003-2X.STEP',
    '2021-09-03T15:24:36',
    ( '' ),
    ( '' ),
    'SwSTEP 2.0',
    'SolidWorks 2020',
    '' );
FILE_SCHEMA (( 'AUTOMOTIVE_DESIGN' ));
ENDSEC;

DATA;
#1 = LINE ( 'NONE', #54, #132 ) ;
#2 = EDGE_CURVE ( 'NONE', #25, #172, #47, .T. ) ;
#3 = DIRECTION ( 'NONE',  ( 0.0000000000000000000, 0.0000000000000000000, -1.000000000000000000 ) ) ;
#4 = CARTESIAN_POINT ( 'NONE',  ( -0.04405499999999973326, 0.0000000000000000000, 1.496062999999999921 ) ) ;
#5 = SPHERICAL_SURFACE ( 'NONE', #101, 0.005899594499999999929 ) ;
#6 = APPLICATION_PROTOCOL_DEFINITION ( 'draft international standard', 'automotive_design', 1998, #148 ) ;
#7 = AXIS2_PLACEMENT_3D ( 'NONE', #240, #273, #310 ) ;
#8 = EDGE_CURVE ( 'NONE', #45, #82, #143, .T. ) ;
#9 = EDGE_LOOP ( 'NONE', ( #87, #249, #277 ) ) ;
#10 = AXIS2_PLACEMENT_3D ( 'NONE', #298, #278, #142 ) ;
#11 = DIRECTION ( 'NONE',  ( -1.000000000000000000, 0.0000000000000000000, 0.0000000000000000000 ) ) ;
#12 = DIRECTION ( 'NONE',  ( 1.000000000000000000, 0.0000000000000000000, -0.0000000000000000000 ) ) ;
#13 = CARTESIAN_POINT ( 'NONE',  ( 2.410717224121564242E-18, 0.0000000000000000000, 0.01968499999999999764 ) ) ;
#14 = CONICAL_SURFACE ( 'NONE', #261, 0.005899594500000001664, 0.1745329251994338637 ) ;
#15 = DIRECTION ( 'NONE',  ( 1.224646799147353207E-16, 0.0000000000000000000, 1.000000000000000000 ) ) ;
#16 = ADVANCED_FACE ( 'NONE', ( #76 ), #5, .T. ) ;
#17 = VERTEX_POINT ( 'NONE', #4 ) ;
#18 = LINE ( 'NONE', #219, #212 ) ;
#19 = ORIENTED_EDGE ( 'NONE', *, *, #210, .T. ) ;
#20 = DIRECTION ( 'NONE',  ( 1.224646799147353207E-16, 0.0000000000000000000, 1.000000000000000000 ) ) ;
#21 = ORIENTED_EDGE ( 'NONE', *, *, #211, .T. ) ;
#22 = LENGTH_MEASURE_WITH_UNIT ( LENGTH_MEASURE( 0.02539999999999999897 ), #124 );
#23 = ORIENTED_EDGE ( 'NONE', *, *, #135, .F. ) ;
#24 = FACE_OUTER_BOUND ( 'NONE', #189, .T. ) ;
#25 = VERTEX_POINT ( 'NONE', #158 ) ;
#26 = CYLINDRICAL_SURFACE ( 'NONE', #292, 0.05905500000000000332 ) ;
#27 = DIRECTION ( 'NONE',  ( -1.224646799147353207E-16, -0.0000000000000000000, -1.000000000000000000 ) ) ;
#28 = CYLINDRICAL_SURFACE ( 'NONE', #170, 0.005899594500000003398 ) ;
#29 = AXIS2_PLACEMENT_3D ( 'NONE', #233, #95, #3 ) ;
#30 = FILL_AREA_STYLE ('',( #228 ) ) ;
#31 = DIRECTION ( 'NONE',  ( 1.000000000000000000, 0.0000000000000000000, 0.0000000000000000000 ) ) ;
#32 = EDGE_CURVE ( 'NONE', #172, #175, #251, .T. ) ;
#33 = DIRECTION ( 'NONE',  ( -1.224646799147353207E-16, -0.0000000000000000000, -1.000000000000000000 ) ) ;
#34 = EDGE_CURVE ( 'NONE', #17, #92, #237, .T. ) ;
#35 = CARTESIAN_POINT ( 'NONE',  ( 0.04405499999999973326, 6.313666573004162521E-18, 1.496062999999999921 ) ) ;
#36 =( NAMED_UNIT ( * ) PLANE_ANGLE_UNIT ( ) SI_UNIT ( $, .RADIAN. ) );
#37 = CARTESIAN_POINT ( 'NONE',  ( 0.0000000000000000000, 0.0000000000000000000, 1.481062999999999574 ) ) ;
#38 = DIRECTION ( 'NONE',  ( -1.000000000000000000, 0.0000000000000000000, 0.0000000000000000000 ) ) ;
#39 = CLOSED_SHELL ( 'NONE', ( #16, #291, #236, #110, #286, #178, #120, #238, #188, #51, #53 ) ) ;
#40 = FACE_OUTER_BOUND ( 'NONE', #232, .T. ) ;
#41 = ORIENTED_EDGE ( 'NONE', *, *, #231, .F. ) ;
#42 = CARTESIAN_POINT ( 'NONE',  ( 0.005899594500000003398, 0.0000000000000000000, 0.01968499999999999764 ) ) ;
#43 = CIRCLE ( 'NONE', #100, 0.005899594499999999929 ) ;
#44 =( CONVERSION_BASED_UNIT ( 'INCH', #69 ) LENGTH_UNIT ( ) NAMED_UNIT ( #247 ) );
#45 = VERTEX_POINT ( 'NONE', #131 ) ;
#46 = DIRECTION ( 'NONE',  ( -1.224646799147353207E-16, -0.0000000000000000000, -1.000000000000000000 ) ) ;
#47 = LINE ( 'NONE', #289, #125 ) ;
#48 = DIRECTION ( 'NONE',  ( 1.000000000000000000, 0.0000000000000000000, 0.0000000000000000000 ) ) ;
#49 = CARTESIAN_POINT ( 'NONE',  ( 2.410717224121564242E-18, 0.0000000000000000000, 0.01968499999999999764 ) ) ;
#50 = CARTESIAN_POINT ( 'NONE',  ( 0.0000000000000000000, 0.0000000000000000000, 0.0000000000000000000 ) ) ;
#51 = ADVANCED_FACE ( 'NONE', ( #185 ), #213, .T. ) ;
#52 = CIRCLE ( 'NONE', #103, 0.005899594500000003398 ) ;
#53 = ADVANCED_FACE ( 'NONE', ( #206 ), #285, .T. ) ;
#54 = CARTESIAN_POINT ( 'NONE',  ( 0.005899594500000003398, 7.224919520692334311E-19, -7.224919520692334311E-19 ) ) ;
#55 = UNCERTAINTY_MEASURE_WITH_UNIT (LENGTH_MEASURE( 1.000000000000000082E-05 ), #272, 'distance_accuracy_value', 'NONE');
#56 = AXIS2_PLACEMENT_3D ( 'NONE', #37, #140, #141 ) ;
#57 = AXIS2_PLACEMENT_3D ( 'NONE', #113, #46, #90 ) ;
#58 = CARTESIAN_POINT ( 'NONE',  ( 7.224919520692330459E-19, 0.0000000000000000000, 0.005899594499999999929 ) ) ;
#59 = EDGE_CURVE ( 'NONE', #82, #279, #1, .T. ) ;
#60 = CARTESIAN_POINT ( 'NONE',  ( 0.0000000000000000000, 0.0000000000000000000, 1.496062999999999921 ) ) ;
#61 = DIRECTION ( 'NONE',  ( 0.0000000000000000000, 0.0000000000000000000, -1.000000000000000000 ) ) ;
#62 = ORIENTED_EDGE ( 'NONE', *, *, #2, .F. ) ;
#63 = EDGE_LOOP ( 'NONE', ( #198, #283, #299, #112 ) ) ;
#64 = FILL_AREA_STYLE_COLOUR ( '', #116 ) ;
#65 = DIRECTION ( 'NONE',  ( -0.0000000000000000000, -0.0000000000000000000, -1.000000000000000000 ) ) ;
#66 = ORIENTED_EDGE ( 'NONE', *, *, #257, .F. ) ;
#67 = CIRCLE ( 'NONE', #7, 0.005899594500000001664 ) ;
#68 = AXIS2_PLACEMENT_3D ( 'NONE', #13, #107, #216 ) ;
#69 = LENGTH_MEASURE_WITH_UNIT ( LENGTH_MEASURE( 0.02539999999999999897 ), #91 );
#70 = ORIENTED_EDGE ( 'NONE', *, *, #245, .F. ) ;
#71 = DIRECTION ( 'NONE',  ( -1.000000000000000000, 0.0000000000000000000, 1.224646799147353207E-16 ) ) ;
#72 = CARTESIAN_POINT ( 'NONE',  ( 7.224919520692330459E-19, 0.0000000000000000000, 0.005899594499999999929 ) ) ;
#73 = DIRECTION ( 'NONE',  ( -1.224646799147353207E-16, -0.0000000000000000000, -1.000000000000000000 ) ) ;
#74 = DIRECTION ( 'NONE',  ( -0.0000000000000000000, -0.0000000000000000000, -1.000000000000000000 ) ) ;
#75 = VECTOR ( 'NONE', #323, 39.37007874015748143 ) ;
#76 = FACE_OUTER_BOUND ( 'NONE', #9, .T. ) ;
#77 = EDGE_CURVE ( 'NONE', #274, #175, #96, .T. ) ;
#78 = AXIS2_PLACEMENT_3D ( 'NONE', #50, #33, #259 ) ;
#79 = VERTEX_POINT ( 'NONE', #182 ) ;
#80 = CARTESIAN_POINT ( 'NONE',  ( 0.0000000000000000000, 0.0000000000000000000, 1.496062999999999921 ) ) ;
#81 = DIRECTION ( 'NONE',  ( 1.224646799147353207E-16, 0.0000000000000000000, 1.000000000000000000 ) ) ;
#82 = VERTEX_POINT ( 'NONE', #304 ) ;
#83 = FACE_OUTER_BOUND ( 'NONE', #301, .T. ) ;
#84 = ORIENTED_EDGE ( 'NONE', *, *, #32, .T. ) ;
#85 = EDGE_CURVE ( 'NONE', #92, #17, #191, .T. ) ;
#86 = DIRECTION ( 'NONE',  ( -0.7071067811865482389, 0.0000000000000000000, -0.7071067811865469066 ) ) ;
#87 = ORIENTED_EDGE ( 'NONE', *, *, #320, .F. ) ;
#88 = PRODUCT_DEFINITION_CONTEXT ( 'detailed design', #148, 'design' ) ;
#89 = AXIS2_PLACEMENT_3D ( 'NONE', #255, #149, #321 ) ;
#90 = DIRECTION ( 'NONE',  ( 1.000000000000000000, 0.0000000000000000000, 0.0000000000000000000 ) ) ;
#91 =( LENGTH_UNIT ( ) NAMED_UNIT ( * ) SI_UNIT ( $, .METRE. ) );
#92 = VERTEX_POINT ( 'NONE', #35 ) ;
#93 = DIRECTION ( 'NONE',  ( -1.224646799147353207E-16, -0.0000000000000000000, -1.000000000000000000 ) ) ;
#94 = CIRCLE ( 'NONE', #203, 0.005899594500000003398 ) ;
#95 = DIRECTION ( 'NONE',  ( 0.0000000000000000000, -1.000000000000000000, 0.0000000000000000000 ) ) ;
#96 = LINE ( 'NONE', #180, #99 ) ;
#97 = SURFACE_STYLE_USAGE ( .BOTH. , #235 ) ;
#98 = DIRECTION ( 'NONE',  ( -1.224646799147353207E-16, -0.0000000000000000000, -1.000000000000000000 ) ) ;
#99 = VECTOR ( 'NONE', #74, 39.37007874015748143 ) ;
#100 = AXIS2_PLACEMENT_3D ( 'NONE', #58, #194, #241 ) ;
#101 = AXIS2_PLACEMENT_3D ( 'NONE', #287, #155, #31 ) ;
#102 = DIRECTION ( 'NONE',  ( 1.000000000000000000, 0.0000000000000000000, 0.0000000000000000000 ) ) ;
#103 = AXIS2_PLACEMENT_3D ( 'NONE', #156, #20, #258 ) ;
#104 = CARTESIAN_POINT ( 'NONE',  ( 2.410717224121564242E-18, 0.0000000000000000000, 0.01968499999999999764 ) ) ;
#105 = MANIFOLD_SOLID_BREP ( 'Fillet1', #39 ) ;
#106 = CARTESIAN_POINT ( 'NONE',  ( 0.05905500000000004496, 7.232151672364700045E-18, 0.3211442848265556038 ) ) ;
#107 = DIRECTION ( 'NONE',  ( 1.224646799147353207E-16, 0.0000000000000000000, 1.000000000000000000 ) ) ;
#108 = VECTOR ( 'NONE', #165, 39.37007874015747433 ) ;
#109 = CARTESIAN_POINT ( 'NONE',  ( -0.005899594500000003398, 0.0000000000000000000, 7.224919520692334311E-19 ) ) ;
#110 = ADVANCED_FACE ( 'NONE', ( #196 ), #275, .T. ) ;
#111 = ORIENTED_EDGE ( 'NONE', *, *, #135, .T. ) ;
#112 = ORIENTED_EDGE ( 'NONE', *, *, #271, .T. ) ;
#113 = CARTESIAN_POINT ( 'NONE',  ( 3.932883204773071895E-17, 0.0000000000000000000, 0.3211442848265556038 ) ) ;
#114 = MECHANICAL_DESIGN_GEOMETRIC_PRESENTATION_REPRESENTATION (  '', ( #137 ), #306 ) ;
#115 = ORIENTED_EDGE ( 'NONE', *, *, #34, .T. ) ;
#116 = COLOUR_RGB ( '',0.7921568627450980005, 0.8196078431372548767, 0.9333333333333333481 ) ;
#117 = SURFACE_STYLE_FILL_AREA ( #284 ) ;
#118 = ORIENTED_EDGE ( 'NONE', *, *, #271, .F. ) ;
#119 = DIMENSIONAL_EXPONENTS ( 1.000000000000000000, 0.0000000000000000000, 0.0000000000000000000, 0.0000000000000000000, 0.0000000000000000000, 0.0000000000000000000, 0.0000000000000000000 ) ;
#120 = ADVANCED_FACE ( 'NONE', ( #270 ), #168, .T. ) ;
#121 = DIRECTION ( 'NONE',  ( 0.7071067811865482389, 8.659560562354941486E-17, -0.7071067811865469066 ) ) ;
#122 = EDGE_LOOP ( 'NONE', ( #115, #204 ) ) ;
#123 = APPLICATION_CONTEXT ( 'automotive_design' ) ;
#124 =( LENGTH_UNIT ( ) NAMED_UNIT ( * ) SI_UNIT ( $, .METRE. ) );
#125 = VECTOR ( 'NONE', #309, 39.37007874015748143 ) ;
#126 = DIRECTION ( 'NONE',  ( 0.0000000000000000000, 1.000000000000000000, 0.0000000000000000000 ) ) ;
#127 = PRESENTATION_LAYER_ASSIGNMENT (  '', '', ( #312 ) ) ;
#128 = CARTESIAN_POINT ( 'NONE',  ( 0.0000000000000000000, 0.0000000000000000000, 0.0000000000000000000 ) ) ;
#129 = CARTESIAN_POINT ( 'NONE',  ( 0.0000000000000000000, 0.0000000000000000000, 1.496062999999999921 ) ) ;
#130 = PRODUCT_RELATED_PRODUCT_CATEGORY ( 'part', '', ( #290 ) ) ;
#131 = CARTESIAN_POINT ( 'NONE',  ( -0.005899594499999999062, 3.977321812216963656E-18, 0.01968499999999999764 ) ) ;
#132 = VECTOR ( 'NONE', #27, 39.37007874015748143 ) ;
#133 =( NAMED_UNIT ( * ) PLANE_ANGLE_UNIT ( ) SI_UNIT ( $, .RADIAN. ) );
#134 = AXIS2_PLACEMENT_3D ( 'NONE', #60, #166, #38 ) ;
#135 = EDGE_CURVE ( 'NONE', #274, #25, #230, .T. ) ;
#136 = CARTESIAN_POINT ( 'NONE',  ( 0.0000000000000000000, 0.0000000000000000000, 1.496062999999999921 ) ) ;
#137 = STYLED_ITEM ( 'NONE', ( #305 ), #105 ) ;
#138 =( LENGTH_UNIT ( ) NAMED_UNIT ( * ) SI_UNIT ( $, .METRE. ) );
#139 = CIRCLE ( 'NONE', #57, 0.05905500000000000332 ) ;
#140 = DIRECTION ( 'NONE',  ( 0.0000000000000000000, 0.0000000000000000000, -1.000000000000000000 ) ) ;
#141 = DIRECTION ( 'NONE',  ( 1.000000000000000000, 0.0000000000000000000, 0.0000000000000000000 ) ) ;
#142 = DIRECTION ( 'NONE',  ( 1.000000000000000000, 0.0000000000000000000, 0.0000000000000000000 ) ) ;
#143 = CIRCLE ( 'NONE', #187, 0.005899594500000001664 ) ;
#144 = DIMENSIONAL_EXPONENTS ( 1.000000000000000000, 0.0000000000000000000, 0.0000000000000000000, 0.0000000000000000000, 0.0000000000000000000, 0.0000000000000000000, 0.0000000000000000000 ) ;
#145 = CARTESIAN_POINT ( 'NONE',  ( -0.05905499999999996169, 0.0000000000000000000, 0.3211442848265556038 ) ) ;
#146 = ORIENTED_EDGE ( 'NONE', *, *, #34, .F. ) ;
#147 = ORIENTED_EDGE ( 'NONE', *, *, #231, .T. ) ;
#148 = APPLICATION_CONTEXT ( 'automotive_design' ) ;
#149 = DIRECTION ( 'NONE',  ( 0.0000000000000000000, 0.0000000000000000000, 1.000000000000000000 ) ) ;
#150 = CIRCLE ( 'NONE', #29, 0.005899594499999999929 ) ;
#151 = EDGE_CURVE ( 'NONE', #82, #45, #67, .T. ) ;
#152 = FACE_OUTER_BOUND ( 'NONE', #295, .T. ) ;
#153 = EDGE_LOOP ( 'NONE', ( #282, #111, #200, #243 ) ) ;
#154 = LINE ( 'NONE', #179, #193 ) ;
#155 = DIRECTION ( 'NONE',  ( 0.0000000000000000000, 1.000000000000000000, 0.0000000000000000000 ) ) ;
#156 = CARTESIAN_POINT ( 'NONE',  ( 7.224919520692330459E-19, 0.0000000000000000000, 0.005899594499999999929 ) ) ;
#157 = EDGE_CURVE ( 'NONE', #79, #281, #43, .T. ) ;
#158 = CARTESIAN_POINT ( 'NONE',  ( -0.05905500000000000332, 0.0000000000000000000, 1.481062999999999574 ) ) ;
#159 = CIRCLE ( 'NONE', #10, 0.05905500000000000332 ) ;
#160 = DIRECTION ( 'NONE',  ( 0.0000000000000000000, 0.0000000000000000000, 1.000000000000000000 ) ) ;
#161 = CONICAL_SURFACE ( 'NONE', #134, 0.04405499999999973326, 0.7853981633974491672 ) ;
#162 = DIRECTION ( 'NONE',  ( -1.000000000000000000, 0.0000000000000000000, 0.0000000000000000000 ) ) ;
#163 = DIRECTION ( 'NONE',  ( -1.000000000000000000, 0.0000000000000000000, 0.0000000000000000000 ) ) ;
#164 = ADVANCED_BREP_SHAPE_REPRESENTATION ( 'Micro_BMSM-003-2X', ( #105, #89 ), #209 ) ;
#165 = DIRECTION ( 'NONE',  ( -0.1736481776669311639, 2.126576849575783008E-17, 0.9848077530122080203 ) ) ;
#166 = DIRECTION ( 'NONE',  ( 0.0000000000000000000, 0.0000000000000000000, -1.000000000000000000 ) ) ;
#167 = ORIENTED_EDGE ( 'NONE', *, *, #308, .T. ) ;
#168 = PLANE ( 'NONE',  #215 ) ;
#169 = AXIS2_PLACEMENT_3D ( 'NONE', #129, #61, #163 ) ;
#170 = AXIS2_PLACEMENT_3D ( 'NONE', #128, #73, #71 ) ;
#171 = DIRECTION ( 'NONE',  ( -1.000000000000000000, 0.0000000000000000000, 1.808816050874517144E-16 ) ) ;
#172 = VERTEX_POINT ( 'NONE', #145 ) ;
#173 = SURFACE_SIDE_STYLE ('',( #117 ) ) ;
#174 = ORIENTED_EDGE ( 'NONE', *, *, #8, .T. ) ;
#175 = VERTEX_POINT ( 'NONE', #106 ) ;
#176 = CONICAL_SURFACE ( 'NONE', #68, 0.005899594500000001664, 0.1745329251994338637 ) ;
#177 = ORIENTED_EDGE ( 'NONE', *, *, #211, .F. ) ;
#178 = ADVANCED_FACE ( 'NONE', ( #214 ), #276, .T. ) ;
#179 = CARTESIAN_POINT ( 'NONE',  ( 0.04405499999999973326, 5.395181473643630390E-18, 1.496062999999999921 ) ) ;
#180 = CARTESIAN_POINT ( 'NONE',  ( 0.05905500000000000332, 7.232151672364695422E-18, 1.496062999999999921 ) ) ;
#181 =( CONVERSION_BASED_UNIT ( 'INCH', #22 ) LENGTH_UNIT ( ) NAMED_UNIT ( #144 ) );
#182 = CARTESIAN_POINT ( 'NONE',  ( 1.083737928103849761E-18, 0.0000000000000000000, 0.0000000000000000000 ) ) ;
#183 = PRODUCT_DEFINITION_FORMATION_WITH_SPECIFIED_SOURCE ( 'ANY', '', #290, .NOT_KNOWN. ) ;
#184 = APPLICATION_PROTOCOL_DEFINITION ( 'draft international standard', 'automotive_design', 1998, #123 ) ;
#185 = FACE_OUTER_BOUND ( 'NONE', #63, .T. ) ;
#186 = SHAPE_DEFINITION_REPRESENTATION ( #197, #164 ) ;
#187 = AXIS2_PLACEMENT_3D ( 'NONE', #49, #98, #162 ) ;
#188 = ADVANCED_FACE ( 'NONE', ( #296 ), #14, .T. ) ;
#189 = EDGE_LOOP ( 'NONE', ( #174, #267, #226, #70 ) ) ;
#190 = UNCERTAINTY_MEASURE_WITH_UNIT (LENGTH_MEASURE( 1.000000000000000082E-05 ), #181, 'distance_accuracy_value', 'NONE');
#191 = CIRCLE ( 'NONE', #199, 0.04405499999999973326 ) ;
#192 = LINE ( 'NONE', #293, #108 ) ;
#193 = VECTOR ( 'NONE', #121, 39.37007874015748143 ) ;
#194 = DIRECTION ( 'NONE',  ( 1.224646799147353207E-16, 1.000000000000000000, -0.0000000000000000000 ) ) ;
#195 = ORIENTED_EDGE ( 'NONE', *, *, #8, .F. ) ;
#196 = FACE_OUTER_BOUND ( 'NONE', #246, .T. ) ;
#197 = PRODUCT_DEFINITION_SHAPE ( 'NONE', 'NONE',  #288 ) ;
#198 = ORIENTED_EDGE ( 'NONE', *, *, #59, .F. ) ;
#199 = AXIS2_PLACEMENT_3D ( 'NONE', #136, #268, #48 ) ;
#200 = ORIENTED_EDGE ( 'NONE', *, *, #2, .T. ) ;
#201 = ORIENTED_EDGE ( 'NONE', *, *, #151, .F. ) ;
#202 =( NAMED_UNIT ( * ) PLANE_ANGLE_UNIT ( ) SI_UNIT ( $, .RADIAN. ) );
#203 = AXIS2_PLACEMENT_3D ( 'NONE', #294, #15, #171 ) ;
#204 = ORIENTED_EDGE ( 'NONE', *, *, #85, .T. ) ;
#205 = EDGE_CURVE ( 'NONE', #279, #281, #94, .T. ) ;
#206 = FACE_OUTER_BOUND ( 'NONE', #322, .T. ) ;
#207 = CARTESIAN_POINT ( 'NONE',  ( 3.932883204773071895E-17, 0.0000000000000000000, 0.3211442848265556038 ) ) ;
#208 = AXIS2_PLACEMENT_3D ( 'NONE', #207, #93, #262 ) ;
#209 =( GEOMETRIC_REPRESENTATION_CONTEXT ( 3 ) GLOBAL_UNCERTAINTY_ASSIGNED_CONTEXT ( ( #190 ) ) GLOBAL_UNIT_ASSIGNED_CONTEXT ( ( #181, #202, #325 ) ) REPRESENTATION_CONTEXT ( 'NONE', 'WORKASPACE' ) );
#210 = EDGE_CURVE ( 'NONE', #25, #274, #159, .T. ) ;
#211 = EDGE_CURVE ( 'NONE', #45, #172, #192, .T. ) ;
#212 = VECTOR ( 'NONE', #86, 39.37007874015748143 ) ;
#213 = CYLINDRICAL_SURFACE ( 'NONE', #78, 0.005899594500000003398 ) ;
#214 = FACE_OUTER_BOUND ( 'NONE', #153, .T. ) ;
#215 = AXIS2_PLACEMENT_3D ( 'NONE', #80, #244, #12 ) ;
#216 = DIRECTION ( 'NONE',  ( 1.000000000000000000, 0.0000000000000000000, 0.0000000000000000000 ) ) ;
#217 =( NAMED_UNIT ( * ) SI_UNIT ( $, .STERADIAN. ) SOLID_ANGLE_UNIT ( ) );
#218 = ORIENTED_EDGE ( 'NONE', *, *, #77, .T. ) ;
#219 = CARTESIAN_POINT ( 'NONE',  ( -0.04405499999999973326, 0.0000000000000000000, 1.496062999999999921 ) ) ;
#220 =( NAMED_UNIT ( * ) SI_UNIT ( $, .STERADIAN. ) SOLID_ANGLE_UNIT ( ) );
#221 = ORIENTED_EDGE ( 'NONE', *, *, #85, .F. ) ;
#222 = UNCERTAINTY_MEASURE_WITH_UNIT (LENGTH_MEASURE( 1.000000000000000082E-05 ), #44, 'distance_accuracy_value', 'NONE');
#223 = AXIS2_PLACEMENT_3D ( 'NONE', #72, #126, #263 ) ;
#224 = VECTOR ( 'NONE', #229, 39.37007874015748143 ) ;
#225 = ORIENTED_EDGE ( 'NONE', *, *, #32, .F. ) ;
#226 = ORIENTED_EDGE ( 'NONE', *, *, #205, .T. ) ;
#227 = CARTESIAN_POINT ( 'NONE',  ( -0.005899594500000002531, 0.0000000000000000000, 0.005899594500000001664 ) ) ;
#228 = FILL_AREA_STYLE_COLOUR ( '', #269 ) ;
#229 = DIRECTION ( 'NONE',  ( -1.224646799147353207E-16, -0.0000000000000000000, -1.000000000000000000 ) ) ;
#230 = CIRCLE ( 'NONE', #56, 0.05905500000000000332 ) ;
#231 = EDGE_CURVE ( 'NONE', #17, #25, #18, .T. ) ;
#232 = EDGE_LOOP ( 'NONE', ( #66, #146, #147, #23 ) ) ;
#233 = CARTESIAN_POINT ( 'NONE',  ( 7.224919520692330459E-19, 0.0000000000000000000, 0.005899594499999999929 ) ) ;
#234 = SURFACE_STYLE_FILL_AREA ( #30 ) ;
#235 = SURFACE_SIDE_STYLE ('',( #234 ) ) ;
#236 = ADVANCED_FACE ( 'NONE', ( #83 ), #176, .T. ) ;
#237 = CIRCLE ( 'NONE', #265, 0.04405499999999973326 ) ;
#238 = ADVANCED_FACE ( 'NONE', ( #40 ), #161, .T. ) ;
#239 = LENGTH_MEASURE_WITH_UNIT ( LENGTH_MEASURE( 0.02539999999999999897 ), #138 );
#240 = CARTESIAN_POINT ( 'NONE',  ( 2.410717224121564242E-18, 0.0000000000000000000, 0.01968499999999999764 ) ) ;
#241 = DIRECTION ( 'NONE',  ( -1.000000000000000000, 1.224646799147353454E-16, 0.0000000000000000000 ) ) ;
#242 = LINE ( 'NONE', #109, #224 ) ;
#243 = ORIENTED_EDGE ( 'NONE', *, *, #308, .F. ) ;
#244 = DIRECTION ( 'NONE',  ( 0.0000000000000000000, 0.0000000000000000000, 1.000000000000000000 ) ) ;
#245 = EDGE_CURVE ( 'NONE', #45, #281, #242, .T. ) ;
#246 = EDGE_LOOP ( 'NONE', ( #221, #307, #315, #41 ) ) ;
#247 = DIMENSIONAL_EXPONENTS ( 1.000000000000000000, 0.0000000000000000000, 0.0000000000000000000, 0.0000000000000000000, 0.0000000000000000000, 0.0000000000000000000, 0.0000000000000000000 ) ;
#248 = CARTESIAN_POINT ( 'NONE',  ( 0.0000000000000000000, 0.0000000000000000000, 1.496062999999999921 ) ) ;
#249 = ORIENTED_EDGE ( 'NONE', *, *, #157, .T. ) ;
#250 = CARTESIAN_POINT ( 'NONE',  ( 0.005899594500000004266, 7.224919520692334311E-19, 0.005899594499999999062 ) ) ;
#251 = CIRCLE ( 'NONE', #208, 0.05905500000000000332 ) ;
#252 = MECHANICAL_DESIGN_GEOMETRIC_PRESENTATION_REPRESENTATION (  '', ( #312 ), #297 ) ;
#253 = ORIENTED_EDGE ( 'NONE', *, *, #157, .F. ) ;
#254 = DIRECTION ( 'NONE',  ( -1.000000000000000000, 0.0000000000000000000, 0.0000000000000000000 ) ) ;
#255 = CARTESIAN_POINT ( 'NONE',  ( 0.0000000000000000000, 0.0000000000000000000, 0.0000000000000000000 ) ) ;
#256 = EDGE_LOOP ( 'NONE', ( #177, #201, #317, #167 ) ) ;
#257 = EDGE_CURVE ( 'NONE', #92, #274, #154, .T. ) ;
#258 = DIRECTION ( 'NONE',  ( -1.000000000000000000, 0.0000000000000000000, 1.808816050874517144E-16 ) ) ;
#259 = DIRECTION ( 'NONE',  ( -1.000000000000000000, 0.0000000000000000000, 1.224646799147353207E-16 ) ) ;
#260 = CARTESIAN_POINT ( 'NONE',  ( 0.05905500000000000332, 7.232151672364695422E-18, 1.481062999999999574 ) ) ;
#261 = AXIS2_PLACEMENT_3D ( 'NONE', #104, #81, #314 ) ;
#262 = DIRECTION ( 'NONE',  ( 1.000000000000000000, 0.0000000000000000000, 0.0000000000000000000 ) ) ;
#263 = DIRECTION ( 'NONE',  ( 1.000000000000000000, 0.0000000000000000000, 0.0000000000000000000 ) ) ;
#264 = PRODUCT_CONTEXT ( 'NONE', #123, 'mechanical' ) ;
#265 = AXIS2_PLACEMENT_3D ( 'NONE', #303, #160, #102 ) ;
#266 = AXIS2_PLACEMENT_3D ( 'NONE', #311, #316, #11 ) ;
#267 = ORIENTED_EDGE ( 'NONE', *, *, #59, .T. ) ;
#268 = DIRECTION ( 'NONE',  ( 0.0000000000000000000, 0.0000000000000000000, 1.000000000000000000 ) ) ;
#269 = COLOUR_RGB ( '',0.7921568627450980005, 0.8196078431372548767, 0.9333333333333333481 ) ;
#270 = FACE_OUTER_BOUND ( 'NONE', #122, .T. ) ;
#271 = EDGE_CURVE ( 'NONE', #281, #279, #52, .T. ) ;
#272 =( CONVERSION_BASED_UNIT ( 'INCH', #239 ) LENGTH_UNIT ( ) NAMED_UNIT ( #119 ) );
#273 = DIRECTION ( 'NONE',  ( -1.224646799147353207E-16, -0.0000000000000000000, -1.000000000000000000 ) ) ;
#274 = VERTEX_POINT ( 'NONE', #260 ) ;
#275 = CONICAL_SURFACE ( 'NONE', #169, 0.04405499999999973326, 0.7853981633974491672 ) ;
#276 = CYLINDRICAL_SURFACE ( 'NONE', #266, 0.05905500000000000332 ) ;
#277 = ORIENTED_EDGE ( 'NONE', *, *, #205, .F. ) ;
#278 = DIRECTION ( 'NONE',  ( 0.0000000000000000000, 0.0000000000000000000, -1.000000000000000000 ) ) ;
#279 = VERTEX_POINT ( 'NONE', #250 ) ;
#280 = PRESENTATION_STYLE_ASSIGNMENT (( #302 ) ) ;
#281 = VERTEX_POINT ( 'NONE', #227 ) ;
#282 = ORIENTED_EDGE ( 'NONE', *, *, #77, .F. ) ;
#283 = ORIENTED_EDGE ( 'NONE', *, *, #151, .T. ) ;
#284 = FILL_AREA_STYLE ('',( #64 ) ) ;
#285 = SPHERICAL_SURFACE ( 'NONE', #223, 0.005899594499999999929 ) ;
#286 = ADVANCED_FACE ( 'NONE', ( #152 ), #26, .T. ) ;
#287 = CARTESIAN_POINT ( 'NONE',  ( 7.224919520692330459E-19, 0.0000000000000000000, 0.005899594499999999929 ) ) ;
#288 = PRODUCT_DEFINITION ( 'UNKNOWN', '', #183, #88 ) ;
#289 = CARTESIAN_POINT ( 'NONE',  ( -0.05905500000000000332, 0.0000000000000000000, 1.496062999999999921 ) ) ;
#290 = PRODUCT ( 'Micro_BMSM-003-2X', 'Micro_BMSM-003-2X', '', ( #264 ) ) ;
#291 = ADVANCED_FACE ( 'NONE', ( #24 ), #28, .T. ) ;
#292 = AXIS2_PLACEMENT_3D ( 'NONE', #248, #65, #254 ) ;
#293 = CARTESIAN_POINT ( 'NONE',  ( -0.005899594499999999062, 7.224919520692331422E-19, 0.01968499999999999764 ) ) ;
#294 = CARTESIAN_POINT ( 'NONE',  ( 7.224919520692330459E-19, 0.0000000000000000000, 0.005899594499999999929 ) ) ;
#295 = EDGE_LOOP ( 'NONE', ( #19, #218, #225, #62 ) ) ;
#296 = FACE_OUTER_BOUND ( 'NONE', #256, .T. ) ;
#297 =( GEOMETRIC_REPRESENTATION_CONTEXT ( 3 ) GLOBAL_UNCERTAINTY_ASSIGNED_CONTEXT ( ( #222 ) ) GLOBAL_UNIT_ASSIGNED_CONTEXT ( ( #44, #133, #220 ) ) REPRESENTATION_CONTEXT ( 'NONE', 'WORKASPACE' ) );
#298 = CARTESIAN_POINT ( 'NONE',  ( 0.0000000000000000000, 0.0000000000000000000, 1.481062999999999574 ) ) ;
#299 = ORIENTED_EDGE ( 'NONE', *, *, #245, .T. ) ;
#300 = EDGE_CURVE ( 'NONE', #82, #175, #319, .T. ) ;
#301 = EDGE_LOOP ( 'NONE', ( #195, #21, #84, #313 ) ) ;
#302 = SURFACE_STYLE_USAGE ( .BOTH. , #173 ) ;
#303 = CARTESIAN_POINT ( 'NONE',  ( 0.0000000000000000000, 0.0000000000000000000, 1.496062999999999921 ) ) ;
#304 = CARTESIAN_POINT ( 'NONE',  ( 0.005899594500000003398, 0.0000000000000000000, 0.01968499999999999764 ) ) ;
#305 = PRESENTATION_STYLE_ASSIGNMENT (( #97 ) ) ;
#306 =( GEOMETRIC_REPRESENTATION_CONTEXT ( 3 ) GLOBAL_UNCERTAINTY_ASSIGNED_CONTEXT ( ( #55 ) ) GLOBAL_UNIT_ASSIGNED_CONTEXT ( ( #272, #36, #217 ) ) REPRESENTATION_CONTEXT ( 'NONE', 'WORKASPACE' ) );
#307 = ORIENTED_EDGE ( 'NONE', *, *, #257, .T. ) ;
#308 = EDGE_CURVE ( 'NONE', #175, #172, #139, .T. ) ;
#309 = DIRECTION ( 'NONE',  ( -0.0000000000000000000, -0.0000000000000000000, -1.000000000000000000 ) ) ;
#310 = DIRECTION ( 'NONE',  ( -1.000000000000000000, 0.0000000000000000000, 0.0000000000000000000 ) ) ;
#311 = CARTESIAN_POINT ( 'NONE',  ( 0.0000000000000000000, 0.0000000000000000000, 1.496062999999999921 ) ) ;
#312 = STYLED_ITEM ( 'NONE', ( #280 ), #164 ) ;
#313 = ORIENTED_EDGE ( 'NONE', *, *, #300, .F. ) ;
#314 = DIRECTION ( 'NONE',  ( 1.000000000000000000, 0.0000000000000000000, 0.0000000000000000000 ) ) ;
#315 = ORIENTED_EDGE ( 'NONE', *, *, #210, .F. ) ;
#316 = DIRECTION ( 'NONE',  ( -0.0000000000000000000, -0.0000000000000000000, -1.000000000000000000 ) ) ;
#317 = ORIENTED_EDGE ( 'NONE', *, *, #300, .T. ) ;
#318 = PRESENTATION_LAYER_ASSIGNMENT (  '', '', ( #137 ) ) ;
#319 = LINE ( 'NONE', #42, #75 ) ;
#320 = EDGE_CURVE ( 'NONE', #79, #279, #150, .T. ) ;
#321 = DIRECTION ( 'NONE',  ( 1.000000000000000000, 0.0000000000000000000, 0.0000000000000000000 ) ) ;
#322 = EDGE_LOOP ( 'NONE', ( #253, #324, #118 ) ) ;
#323 = DIRECTION ( 'NONE',  ( 0.1736481776669313581, 0.0000000000000000000, 0.9848077530122077983 ) ) ;
#324 = ORIENTED_EDGE ( 'NONE', *, *, #320, .T. ) ;
#325 =( NAMED_UNIT ( * ) SI_UNIT ( $, .STERADIAN. ) SOLID_ANGLE_UNIT ( ) );
ENDSEC;
END-ISO-10303-21;
