ISO-10303-21;
HEADER;
FILE_DESCRIPTION (( 'STEP AP214' ),
    '1' );
FILE_NAME ('Micro_EMS-250-3X.STEP',
    '2021-09-01T17:50:04',
    ( '' ),
    ( '' ),
    'SwSTEP 2.0',
    'SolidWorks 2020',
    '' );
FILE_SCHEMA (( 'AUTOMOTIVE_DESIGN' ));
ENDSEC;

DATA;
#1 = EDGE_CURVE ( 'NONE', #104, #102, #157, .T. ) ;
#2 = DIRECTION ( 'NONE',  ( 0.0000000000000000000, 0.0000000000000000000, 1.000000000000000000 ) ) ;
#3 = COLOUR_RGB ( '',0.7921568627450980005, 0.8196078431372548767, 0.9333333333333333481 ) ;
#4 = ORIENTED_EDGE ( 'NONE', *, *, #26, .F. ) ;
#5 = CARTESIAN_POINT ( 'NONE',  ( -0.1248749999999999166, 1.529277690435257475E-17, 0.7500000000000001110 ) ) ;
#6 = ORIENTED_EDGE ( 'NONE', *, *, #204, .T. ) ;
#7 = CONICAL_SURFACE ( 'NONE', #153, 0.1248749999999999999, 0.1745329251994339192 ) ;
#8 = VERTEX_POINT ( 'NONE', #89 ) ;
#9 = CARTESIAN_POINT ( 'NONE',  ( 9.184850993605150903E-17, 0.0000000000000000000, 0.7500000000000001110 ) ) ;
#10 = ORIENTED_EDGE ( 'NONE', *, *, #248, .F. ) ;
#11 = CARTESIAN_POINT ( 'NONE',  ( 0.0000000000000000000, 0.0000000000000000000, 2.485000000000000320 ) ) ;
#12 = ORIENTED_EDGE ( 'NONE', *, *, #248, .T. ) ;
#13 = ADVANCED_FACE ( 'NONE', ( #43 ), #234, .T. ) ;
#14 = PRESENTATION_STYLE_ASSIGNMENT (( #200 ) ) ;
#15 = EDGE_LOOP ( 'NONE', ( #201, #124 ) ) ;
#16 = AXIS2_PLACEMENT_3D ( 'NONE', #269, #32, #62 ) ;
#17 = FACE_OUTER_BOUND ( 'NONE', #152, .T. ) ;
#18 = EDGE_CURVE ( 'NONE', #78, #150, #226, .T. ) ;
#19 = CARTESIAN_POINT ( 'NONE',  ( 9.193532640014472135E-17, 0.0000000000000000000, 0.7507089102274522308 ) ) ;
#20 = DIRECTION ( 'NONE',  ( -1.224646799147353207E-16, -0.0000000000000000000, -1.000000000000000000 ) ) ;
#21 = AXIS2_PLACEMENT_3D ( 'NONE', #74, #211, #299 ) ;
#22 = DIRECTION ( 'NONE',  ( 0.0000000000000000000, 0.0000000000000000000, -1.000000000000000000 ) ) ;
#23 = FACE_OUTER_BOUND ( 'NONE', #30, .T. ) ;
#24 = LENGTH_MEASURE_WITH_UNIT ( LENGTH_MEASURE( 0.02539999999999999897 ), #235 );
#25 = APPLICATION_CONTEXT ( 'automotive_design' ) ;
#26 = EDGE_CURVE ( 'NONE', #104, #177, #134, .T. ) ;
#27 = AXIS2_PLACEMENT_3D ( 'NONE', #240, #193, #127 ) ;
#28 = CARTESIAN_POINT ( 'NONE',  ( 0.0000000000000000000, 0.0000000000000000000, 0.0000000000000000000 ) ) ;
#29 = DIRECTION ( 'NONE',  ( -1.000000000000000000, 0.0000000000000000000, 1.224646799147353454E-16 ) ) ;
#30 = EDGE_LOOP ( 'NONE', ( #4, #247, #122, #155 ) ) ;
#31 = ORIENTED_EDGE ( 'NONE', *, *, #48, .T. ) ;
#32 = DIRECTION ( 'NONE',  ( 0.0000000000000000000, 0.0000000000000000000, -1.000000000000000000 ) ) ;
#33 = ORIENTED_EDGE ( 'NONE', *, *, #68, .F. ) ;
#34 = VECTOR ( 'NONE', #53, 39.37007874015748143 ) ;
#35 =( CONVERSION_BASED_UNIT ( 'INCH', #243 ) LENGTH_UNIT ( ) NAMED_UNIT ( #139 ) );
#36 = ORIENTED_EDGE ( 'NONE', *, *, #172, .T. ) ;
#37 = CARTESIAN_POINT ( 'NONE',  ( 0.0000000000000000000, 0.0000000000000000000, 2.500000000000000000 ) ) ;
#38 = ORIENTED_EDGE ( 'NONE', *, *, #148, .T. ) ;
#39 = LINE ( 'NONE', #5, #109 ) ;
#40 = VECTOR ( 'NONE', #135, 39.37007874015748143 ) ;
#41 = LINE ( 'NONE', #268, #225 ) ;
#42 = DIRECTION ( 'NONE',  ( 1.224646799147353207E-16, 0.0000000000000000000, 1.000000000000000000 ) ) ;
#43 = FACE_OUTER_BOUND ( 'NONE', #218, .T. ) ;
#44 = CARTESIAN_POINT ( 'NONE',  ( 0.1100000000000001948, 1.438959988998141146E-17, 2.500000000000000000 ) ) ;
#45 = AXIS2_PLACEMENT_3D ( 'NONE', #95, #156, #61 ) ;
#46 = FACE_OUTER_BOUND ( 'NONE', #198, .T. ) ;
#47 = SHAPE_DEFINITION_REPRESENTATION ( #259, #189 ) ;
#48 = EDGE_CURVE ( 'NONE', #241, #221, #254, .T. ) ;
#49 = AXIS2_PLACEMENT_3D ( 'NONE', #176, #266, #106 ) ;
#50 = DIMENSIONAL_EXPONENTS ( 1.000000000000000000, 0.0000000000000000000, 0.0000000000000000000, 0.0000000000000000000, 0.0000000000000000000, 0.0000000000000000000, 0.0000000000000000000 ) ;
#51 = EDGE_CURVE ( 'NONE', #290, #221, #108, .T. ) ;
#52 = CIRCLE ( 'NONE', #273, 0.1100000000000001948 ) ;
#53 = DIRECTION ( 'NONE',  ( -0.7071067811865499042, 0.0000000000000000000, -0.7071067811865451302 ) ) ;
#54 = ORIENTED_EDGE ( 'NONE', *, *, #228, .F. ) ;
#55 = EDGE_CURVE ( 'NONE', #8, #76, #295, .T. ) ;
#56 = CARTESIAN_POINT ( 'NONE',  ( 1.872825028598994811E-33, 0.0000000000000000000, 1.529277690435257475E-17 ) ) ;
#57 = ORIENTED_EDGE ( 'NONE', *, *, #68, .T. ) ;
#58 = AXIS2_PLACEMENT_3D ( 'NONE', #85, #2, #71 ) ;
#59 = CARTESIAN_POINT ( 'NONE',  ( 0.1250000000000000000, 1.530808498934191509E-17, 2.485000000000000320 ) ) ;
#60 = ORIENTED_EDGE ( 'NONE', *, *, #252, .F. ) ;
#61 = DIRECTION ( 'NONE',  ( -1.000000000000000000, 0.0000000000000000000, 1.224646799147353454E-16 ) ) ;
#62 = DIRECTION ( 'NONE',  ( 1.000000000000000000, 0.0000000000000000000, 0.0000000000000000000 ) ) ;
#63 = CYLINDRICAL_SURFACE ( 'NONE', #195, 0.1250000000000000000 ) ;
#64 = AXIS2_PLACEMENT_3D ( 'NONE', #274, #255, #292 ) ;
#65 =( CONVERSION_BASED_UNIT ( 'INCH', #92 ) LENGTH_UNIT ( ) NAMED_UNIT ( #114 ) );
#66 = DIRECTION ( 'NONE',  ( -1.000000000000000000, 0.0000000000000000000, 0.0000000000000000000 ) ) ;
#67 = CARTESIAN_POINT ( 'NONE',  ( 0.1248750000000000970, 0.0000000000000000000, 0.7500000000000001110 ) ) ;
#68 = EDGE_CURVE ( 'NONE', #76, #150, #70, .T. ) ;
#69 = DIRECTION ( 'NONE',  ( 1.000000000000000000, 0.0000000000000000000, 0.0000000000000000000 ) ) ;
#70 = CIRCLE ( 'NONE', #113, 0.1248749999999999999 ) ;
#71 = DIRECTION ( 'NONE',  ( 1.000000000000000000, 0.0000000000000000000, -0.0000000000000000000 ) ) ;
#72 = ADVANCED_FACE ( 'NONE', ( #23 ), #147, .T. ) ;
#73 = UNCERTAINTY_MEASURE_WITH_UNIT (LENGTH_MEASURE( 1.000000000000000082E-05 ), #65, 'distance_accuracy_value', 'NONE');
#74 = CARTESIAN_POINT ( 'NONE',  ( 0.0000000000000000000, 0.0000000000000000000, 0.0000000000000000000 ) ) ;
#75 =( GEOMETRIC_REPRESENTATION_CONTEXT ( 3 ) GLOBAL_UNCERTAINTY_ASSIGNED_CONTEXT ( ( #115 ) ) GLOBAL_UNIT_ASSIGNED_CONTEXT ( ( #35, #215, #149 ) ) REPRESENTATION_CONTEXT ( 'NONE', 'WORKASPACE' ) );
#76 = VERTEX_POINT ( 'NONE', #160 ) ;
#77 = MECHANICAL_DESIGN_GEOMETRIC_PRESENTATION_REPRESENTATION (  '', ( #131 ), #239 ) ;
#78 = VERTEX_POINT ( 'NONE', #275 ) ;
#79 = ORIENTED_EDGE ( 'NONE', *, *, #1, .F. ) ;
#80 = ORIENTED_EDGE ( 'NONE', *, *, #18, .F. ) ;
#81 = DIRECTION ( 'NONE',  ( 0.0000000000000000000, 0.0000000000000000000, -1.000000000000000000 ) ) ;
#82 = ORIENTED_EDGE ( 'NONE', *, *, #105, .T. ) ;
#83 = FACE_OUTER_BOUND ( 'NONE', #174, .T. ) ;
#84 = FACE_OUTER_BOUND ( 'NONE', #116, .T. ) ;
#85 = CARTESIAN_POINT ( 'NONE',  ( 0.0000000000000000000, 0.0000000000000000000, 2.500000000000000000 ) ) ;
#86 = CARTESIAN_POINT ( 'NONE',  ( -0.1248749999999999999, 0.0000000000000000000, 1.529277690435257475E-17 ) ) ;
#87 = DIRECTION ( 'NONE',  ( -1.224646799147353207E-16, -0.0000000000000000000, -1.000000000000000000 ) ) ;
#88 = CARTESIAN_POINT ( 'NONE',  ( 0.0000000000000000000, 0.0000000000000000000, 0.0000000000000000000 ) ) ;
#89 = CARTESIAN_POINT ( 'NONE',  ( -0.1248749999999999166, 1.530043094684724646E-17, 0.7500000000000001110 ) ) ;
#90 = SURFACE_SIDE_STYLE ('',( #181 ) ) ;
#91 = CIRCLE ( 'NONE', #175, 0.1248749999999999999 ) ;
#92 = LENGTH_MEASURE_WITH_UNIT ( LENGTH_MEASURE( 0.02539999999999999897 ), #262 );
#93 = FILL_AREA_STYLE_COLOUR ( '', #121 ) ;
#94 = APPLICATION_CONTEXT ( 'automotive_design' ) ;
#95 = CARTESIAN_POINT ( 'NONE',  ( 0.0000000000000000000, 0.0000000000000000000, 0.0000000000000000000 ) ) ;
#96 = ORIENTED_EDGE ( 'NONE', *, *, #51, .F. ) ;
#97 = ADVANCED_FACE ( 'NONE', ( #84 ), #98, .T. ) ;
#98 = CONICAL_SURFACE ( 'NONE', #298, 0.1100000000000001948, 0.7853981633974517207 ) ;
#99 =( LENGTH_UNIT ( ) NAMED_UNIT ( * ) SI_UNIT ( $, .METRE. ) );
#100 = ORIENTED_EDGE ( 'NONE', *, *, #26, .T. ) ;
#101 = DIRECTION ( 'NONE',  ( -1.000000000000000000, 0.0000000000000000000, 0.0000000000000000000 ) ) ;
#102 = VERTEX_POINT ( 'NONE', #251 ) ;
#103 = FILL_AREA_STYLE ('',( #151 ) ) ;
#104 = VERTEX_POINT ( 'NONE', #44 ) ;
#105 = EDGE_CURVE ( 'NONE', #78, #241, #110, .T. ) ;
#106 = DIRECTION ( 'NONE',  ( -1.000000000000000000, 0.0000000000000000000, 0.0000000000000000000 ) ) ;
#107 = DIRECTION ( 'NONE',  ( 1.000000000000000000, 0.0000000000000000000, 0.0000000000000000000 ) ) ;
#108 = LINE ( 'NONE', #231, #229 ) ;
#109 = VECTOR ( 'NONE', #123, 39.37007874015747433 ) ;
#110 = LINE ( 'NONE', #67, #238 ) ;
#111 = DIRECTION ( 'NONE',  ( -1.000000000000000000, 0.0000000000000000000, 1.224646799147353454E-16 ) ) ;
#112 = ADVANCED_FACE ( 'NONE', ( #186 ), #161, .T. ) ;
#113 = AXIS2_PLACEMENT_3D ( 'NONE', #183, #205, #207 ) ;
#114 = DIMENSIONAL_EXPONENTS ( 1.000000000000000000, 0.0000000000000000000, 0.0000000000000000000, 0.0000000000000000000, 0.0000000000000000000, 0.0000000000000000000, 0.0000000000000000000 ) ;
#115 = UNCERTAINTY_MEASURE_WITH_UNIT (LENGTH_MEASURE( 1.000000000000000082E-05 ), #35, 'distance_accuracy_value', 'NONE');
#116 = EDGE_LOOP ( 'NONE', ( #79, #100, #284, #60 ) ) ;
#117 = PLANE ( 'NONE',  #58 ) ;
#118 = PLANE ( 'NONE',  #21 ) ;
#119 = EDGE_CURVE ( 'NONE', #102, #104, #52, .T. ) ;
#120 = AXIS2_PLACEMENT_3D ( 'NONE', #129, #217, #101 ) ;
#121 = COLOUR_RGB ( '',0.7921568627450980005, 0.8196078431372548767, 0.9333333333333333481 ) ;
#122 = ORIENTED_EDGE ( 'NONE', *, *, #252, .T. ) ;
#123 = DIRECTION ( 'NONE',  ( -0.1736481776669312194, 2.126576849575783625E-17, 0.9848077530122080203 ) ) ;
#124 = ORIENTED_EDGE ( 'NONE', *, *, #1, .T. ) ;
#125 = MECHANICAL_DESIGN_GEOMETRIC_PRESENTATION_REPRESENTATION (  '', ( #216 ), #75 ) ;
#126 = CARTESIAN_POINT ( 'NONE',  ( 0.1250000000000000833, 1.530808498934192433E-17, 0.7507089102274522308 ) ) ;
#127 = DIRECTION ( 'NONE',  ( 1.000000000000000000, 0.0000000000000000000, 0.0000000000000000000 ) ) ;
#128 = EDGE_LOOP ( 'NONE', ( #270, #282, #33, #196 ) ) ;
#129 = CARTESIAN_POINT ( 'NONE',  ( 9.184850993605150903E-17, 0.0000000000000000000, 0.7500000000000001110 ) ) ;
#130 = AXIS2_PLACEMENT_3D ( 'NONE', #19, #20, #184 ) ;
#131 = STYLED_ITEM ( 'NONE', ( #165 ), #189 ) ;
#132 = CARTESIAN_POINT ( 'NONE',  ( 0.0000000000000000000, 0.0000000000000000000, 2.500000000000000000 ) ) ;
#133 = ADVANCED_FACE ( 'NONE', ( #46 ), #138, .T. ) ;
#134 = LINE ( 'NONE', #159, #249 ) ;
#135 = DIRECTION ( 'NONE',  ( -1.224646799147353207E-16, -0.0000000000000000000, -1.000000000000000000 ) ) ;
#136 = CIRCLE ( 'NONE', #16, 0.1250000000000000000 ) ;
#137 = PRESENTATION_LAYER_ASSIGNMENT (  '', '', ( #131 ) ) ;
#138 = CYLINDRICAL_SURFACE ( 'NONE', #260, 0.1250000000000000000 ) ;
#139 = DIMENSIONAL_EXPONENTS ( 1.000000000000000000, 0.0000000000000000000, 0.0000000000000000000, 0.0000000000000000000, 0.0000000000000000000, 0.0000000000000000000, 0.0000000000000000000 ) ;
#140 = ADVANCED_FACE ( 'NONE', ( #272 ), #63, .T. ) ;
#141 = PRODUCT_CONTEXT ( 'NONE', #94, 'mechanical' ) ;
#142 = PRESENTATION_LAYER_ASSIGNMENT (  '', '', ( #216 ) ) ;
#143 = ORIENTED_EDGE ( 'NONE', *, *, #264, .T. ) ;
#144 = APPLICATION_PROTOCOL_DEFINITION ( 'draft international standard', 'automotive_design', 1998, #25 ) ;
#145 = ORIENTED_EDGE ( 'NONE', *, *, #264, .F. ) ;
#146 = AXIS2_PLACEMENT_3D ( 'NONE', #233, #162, #107 ) ;
#147 = CONICAL_SURFACE ( 'NONE', #64, 0.1100000000000001948, 0.7853981633974517207 ) ;
#148 = EDGE_CURVE ( 'NONE', #290, #177, #136, .T. ) ;
#149 =( NAMED_UNIT ( * ) SI_UNIT ( $, .STERADIAN. ) SOLID_ANGLE_UNIT ( ) );
#150 = VERTEX_POINT ( 'NONE', #202 ) ;
#151 = FILL_AREA_STYLE_COLOUR ( '', #3 ) ;
#152 = EDGE_LOOP ( 'NONE', ( #285, #36, #6, #171 ) ) ;
#153 = AXIS2_PLACEMENT_3D ( 'NONE', #9, #291, #286 ) ;
#154 = DIRECTION ( 'NONE',  ( -1.000000000000000000, 0.0000000000000000000, 0.0000000000000000000 ) ) ;
#155 = ORIENTED_EDGE ( 'NONE', *, *, #168, .F. ) ;
#156 = DIRECTION ( 'NONE',  ( -1.224646799147353207E-16, -0.0000000000000000000, -1.000000000000000000 ) ) ;
#157 = CIRCLE ( 'NONE', #146, 0.1100000000000001948 ) ;
#158 = CIRCLE ( 'NONE', #120, 0.1248749999999999999 ) ;
#159 = CARTESIAN_POINT ( 'NONE',  ( 0.1100000000000001948, 1.347111479062090784E-17, 2.500000000000000000 ) ) ;
#160 = CARTESIAN_POINT ( 'NONE',  ( -0.1248749999999999999, 0.0000000000000000000, 3.058555380870514950E-17 ) ) ;
#161 = CYLINDRICAL_SURFACE ( 'NONE', #167, 0.1248749999999999999 ) ;
#162 = DIRECTION ( 'NONE',  ( 0.0000000000000000000, 0.0000000000000000000, 1.000000000000000000 ) ) ;
#163 = DIRECTION ( 'NONE',  ( 1.000000000000000000, 0.0000000000000000000, 0.0000000000000000000 ) ) ;
#164 =( GEOMETRIC_REPRESENTATION_CONTEXT ( 3 ) GLOBAL_UNCERTAINTY_ASSIGNED_CONTEXT ( ( #73 ) ) GLOBAL_UNIT_ASSIGNED_CONTEXT ( ( #65, #279, #203 ) ) REPRESENTATION_CONTEXT ( 'NONE', 'WORKASPACE' ) );
#165 = PRESENTATION_STYLE_ASSIGNMENT (( #280 ) ) ;
#166 = CLOSED_SHELL ( 'NONE', ( #112, #199, #97, #140, #133, #288, #72, #13, #219, #281 ) ) ;
#167 = AXIS2_PLACEMENT_3D ( 'NONE', #88, #253, #111 ) ;
#168 = EDGE_CURVE ( 'NONE', #177, #290, #182, .T. ) ;
#169 = CYLINDRICAL_SURFACE ( 'NONE', #45, 0.1248749999999999999 ) ;
#170 = EDGE_LOOP ( 'NONE', ( #57, #143 ) ) ;
#171 = ORIENTED_EDGE ( 'NONE', *, *, #105, .F. ) ;
#172 = EDGE_CURVE ( 'NONE', #8, #221, #39, .T. ) ;
#173 = DIRECTION ( 'NONE',  ( -0.0000000000000000000, -0.0000000000000000000, -1.000000000000000000 ) ) ;
#174 = EDGE_LOOP ( 'NONE', ( #80, #12, #223, #145 ) ) ;
#175 = AXIS2_PLACEMENT_3D ( 'NONE', #56, #220, #29 ) ;
#176 = CARTESIAN_POINT ( 'NONE',  ( 9.184850993605150903E-17, 0.0000000000000000000, 0.7500000000000001110 ) ) ;
#177 = VERTEX_POINT ( 'NONE', #59 ) ;
#178 = SURFACE_STYLE_FILL_AREA ( #103 ) ;
#179 = DIRECTION ( 'NONE',  ( -1.000000000000000000, 0.0000000000000000000, 0.0000000000000000000 ) ) ;
#180 = ORIENTED_EDGE ( 'NONE', *, *, #204, .F. ) ;
#181 = SURFACE_STYLE_FILL_AREA ( #293 ) ;
#182 = CIRCLE ( 'NONE', #289, 0.1250000000000000000 ) ;
#183 = CARTESIAN_POINT ( 'NONE',  ( 1.872825028598994811E-33, 0.0000000000000000000, 1.529277690435257475E-17 ) ) ;
#184 = DIRECTION ( 'NONE',  ( 1.000000000000000000, 0.0000000000000000000, 0.0000000000000000000 ) ) ;
#185 = CARTESIAN_POINT ( 'NONE',  ( 0.0000000000000000000, 0.0000000000000000000, 2.500000000000000000 ) ) ;
#186 = FACE_OUTER_BOUND ( 'NONE', #128, .T. ) ;
#187 = FACE_OUTER_BOUND ( 'NONE', #170, .T. ) ;
#188 = CIRCLE ( 'NONE', #27, 0.1250000000000000000 ) ;
#189 = ADVANCED_BREP_SHAPE_REPRESENTATION ( 'Micro_EMS-250-3X', ( #257, #230 ), #164 ) ;
#190 =( NAMED_UNIT ( * ) PLANE_ANGLE_UNIT ( ) SI_UNIT ( $, .RADIAN. ) );
#191 = UNCERTAINTY_MEASURE_WITH_UNIT (LENGTH_MEASURE( 1.000000000000000082E-05 ), #256, 'distance_accuracy_value', 'NONE');
#192 = EDGE_CURVE ( 'NONE', #8, #78, #158, .T. ) ;
#193 = DIRECTION ( 'NONE',  ( -1.224646799147353207E-16, -0.0000000000000000000, -1.000000000000000000 ) ) ;
#194 = ORIENTED_EDGE ( 'NONE', *, *, #228, .T. ) ;
#195 = AXIS2_PLACEMENT_3D ( 'NONE', #37, #173, #154 ) ;
#196 = ORIENTED_EDGE ( 'NONE', *, *, #55, .F. ) ;
#197 = DIRECTION ( 'NONE',  ( -0.0000000000000000000, -0.0000000000000000000, -1.000000000000000000 ) ) ;
#198 = EDGE_LOOP ( 'NONE', ( #54, #287, #244, #246 ) ) ;
#199 = ADVANCED_FACE ( 'NONE', ( #17 ), #7, .T. ) ;
#200 = SURFACE_STYLE_USAGE ( .BOTH. , #271 ) ;
#201 = ORIENTED_EDGE ( 'NONE', *, *, #119, .T. ) ;
#202 = CARTESIAN_POINT ( 'NONE',  ( 0.1248749999999999999, 1.529277690435257475E-17, 0.0000000000000000000 ) ) ;
#203 =( NAMED_UNIT ( * ) SI_UNIT ( $, .STERADIAN. ) SOLID_ANGLE_UNIT ( ) );
#204 = EDGE_CURVE ( 'NONE', #221, #241, #188, .T. ) ;
#205 = DIRECTION ( 'NONE',  ( -1.224646799147353207E-16, -0.0000000000000000000, -1.000000000000000000 ) ) ;
#206 = PRODUCT_DEFINITION_FORMATION_WITH_SPECIFIED_SOURCE ( 'ANY', '', #232, .NOT_KNOWN. ) ;
#207 = DIRECTION ( 'NONE',  ( -1.000000000000000000, 0.0000000000000000000, 1.224646799147353454E-16 ) ) ;
#208 = DIRECTION ( 'NONE',  ( 0.1736481776669314137, 0.0000000000000000000, 0.9848077530122077983 ) ) ;
#209 = CARTESIAN_POINT ( 'NONE',  ( 0.0000000000000000000, 0.0000000000000000000, 2.500000000000000000 ) ) ;
#210 =( NAMED_UNIT ( * ) SI_UNIT ( $, .STERADIAN. ) SOLID_ANGLE_UNIT ( ) );
#211 = DIRECTION ( 'NONE',  ( 0.0000000000000000000, 0.0000000000000000000, 1.000000000000000000 ) ) ;
#212 = PRODUCT_RELATED_PRODUCT_CATEGORY ( 'part', '', ( #232 ) ) ;
#213 = PRODUCT_DEFINITION_CONTEXT ( 'detailed design', #25, 'design' ) ;
#214 = FACE_OUTER_BOUND ( 'NONE', #15, .T. ) ;
#215 =( NAMED_UNIT ( * ) PLANE_ANGLE_UNIT ( ) SI_UNIT ( $, .RADIAN. ) );
#216 = STYLED_ITEM ( 'NONE', ( #14 ), #257 ) ;
#217 = DIRECTION ( 'NONE',  ( -1.224646799147353207E-16, -0.0000000000000000000, -1.000000000000000000 ) ) ;
#218 = EDGE_LOOP ( 'NONE', ( #263, #10, #82, #31 ) ) ;
#219 = ADVANCED_FACE ( 'NONE', ( #83 ), #169, .T. ) ;
#220 = DIRECTION ( 'NONE',  ( -1.224646799147353207E-16, -0.0000000000000000000, -1.000000000000000000 ) ) ;
#221 = VERTEX_POINT ( 'NONE', #245 ) ;
#222 = LINE ( 'NONE', #224, #34 ) ;
#223 = ORIENTED_EDGE ( 'NONE', *, *, #55, .T. ) ;
#224 = CARTESIAN_POINT ( 'NONE',  ( -0.1100000000000001948, 0.0000000000000000000, 2.500000000000000000 ) ) ;
#225 = VECTOR ( 'NONE', #197, 39.37007874015748143 ) ;
#226 = LINE ( 'NONE', #294, #242 ) ;
#227 = DIRECTION ( 'NONE',  ( 0.7071067811865499042, 8.659560562354961208E-17, -0.7071067811865451302 ) ) ;
#228 = EDGE_CURVE ( 'NONE', #177, #241, #41, .T. ) ;
#229 = VECTOR ( 'NONE', #250, 39.37007874015748143 ) ;
#230 = AXIS2_PLACEMENT_3D ( 'NONE', #28, #261, #163 ) ;
#231 = CARTESIAN_POINT ( 'NONE',  ( -0.1250000000000000000, 0.0000000000000000000, 2.500000000000000000 ) ) ;
#232 = PRODUCT ( 'Micro_EMS-250-3X', 'Micro_EMS-250-3X', '', ( #141 ) ) ;
#233 = CARTESIAN_POINT ( 'NONE',  ( 0.0000000000000000000, 0.0000000000000000000, 2.500000000000000000 ) ) ;
#234 = CONICAL_SURFACE ( 'NONE', #277, 0.1248749999999999999, 0.1745329251994339192 ) ;
#235 =( LENGTH_UNIT ( ) NAMED_UNIT ( * ) SI_UNIT ( $, .METRE. ) );
#236 = CIRCLE ( 'NONE', #49, 0.1248749999999999999 ) ;
#237 = CARTESIAN_POINT ( 'NONE',  ( -0.1250000000000000000, 0.0000000000000000000, 2.485000000000000320 ) ) ;
#238 = VECTOR ( 'NONE', #208, 39.37007874015748143 ) ;
#239 =( GEOMETRIC_REPRESENTATION_CONTEXT ( 3 ) GLOBAL_UNCERTAINTY_ASSIGNED_CONTEXT ( ( #191 ) ) GLOBAL_UNIT_ASSIGNED_CONTEXT ( ( #256, #190, #210 ) ) REPRESENTATION_CONTEXT ( 'NONE', 'WORKASPACE' ) );
#240 = CARTESIAN_POINT ( 'NONE',  ( 9.193532640014472135E-17, 0.0000000000000000000, 0.7507089102274522308 ) ) ;
#241 = VERTEX_POINT ( 'NONE', #126 ) ;
#242 = VECTOR ( 'NONE', #87, 39.37007874015748143 ) ;
#243 = LENGTH_MEASURE_WITH_UNIT ( LENGTH_MEASURE( 0.02539999999999999897 ), #99 );
#244 = ORIENTED_EDGE ( 'NONE', *, *, #51, .T. ) ;
#245 = CARTESIAN_POINT ( 'NONE',  ( -0.1249999999999999167, 0.0000000000000000000, 0.7507089102274522308 ) ) ;
#246 = ORIENTED_EDGE ( 'NONE', *, *, #48, .F. ) ;
#247 = ORIENTED_EDGE ( 'NONE', *, *, #119, .F. ) ;
#248 = EDGE_CURVE ( 'NONE', #78, #8, #236, .T. ) ;
#249 = VECTOR ( 'NONE', #227, 39.37007874015748143 ) ;
#250 = DIRECTION ( 'NONE',  ( -0.0000000000000000000, -0.0000000000000000000, -1.000000000000000000 ) ) ;
#251 = CARTESIAN_POINT ( 'NONE',  ( -0.1100000000000001948, 0.0000000000000000000, 2.500000000000000000 ) ) ;
#252 = EDGE_CURVE ( 'NONE', #102, #290, #222, .T. ) ;
#253 = DIRECTION ( 'NONE',  ( -1.224646799147353207E-16, -0.0000000000000000000, -1.000000000000000000 ) ) ;
#254 = CIRCLE ( 'NONE', #130, 0.1250000000000000000 ) ;
#255 = DIRECTION ( 'NONE',  ( 0.0000000000000000000, 0.0000000000000000000, -1.000000000000000000 ) ) ;
#256 =( CONVERSION_BASED_UNIT ( 'INCH', #24 ) LENGTH_UNIT ( ) NAMED_UNIT ( #50 ) );
#257 = MANIFOLD_SOLID_BREP ( 'Cut-Revolve1', #166 ) ;
#258 = APPLICATION_PROTOCOL_DEFINITION ( 'draft international standard', 'automotive_design', 1998, #94 ) ;
#259 = PRODUCT_DEFINITION_SHAPE ( 'NONE', 'NONE',  #265 ) ;
#260 = AXIS2_PLACEMENT_3D ( 'NONE', #132, #297, #179 ) ;
#261 = DIRECTION ( 'NONE',  ( 0.0000000000000000000, 0.0000000000000000000, 1.000000000000000000 ) ) ;
#262 =( LENGTH_UNIT ( ) NAMED_UNIT ( * ) SI_UNIT ( $, .METRE. ) );
#263 = ORIENTED_EDGE ( 'NONE', *, *, #172, .F. ) ;
#264 = EDGE_CURVE ( 'NONE', #150, #76, #91, .T. ) ;
#265 = PRODUCT_DEFINITION ( 'UNKNOWN', '', #206, #213 ) ;
#266 = DIRECTION ( 'NONE',  ( -1.224646799147353207E-16, -0.0000000000000000000, -1.000000000000000000 ) ) ;
#267 = EDGE_LOOP ( 'NONE', ( #38, #194, #180, #96 ) ) ;
#268 = CARTESIAN_POINT ( 'NONE',  ( 0.1250000000000000000, 1.530808498934191509E-17, 2.500000000000000000 ) ) ;
#269 = CARTESIAN_POINT ( 'NONE',  ( 0.0000000000000000000, 0.0000000000000000000, 2.485000000000000320 ) ) ;
#270 = ORIENTED_EDGE ( 'NONE', *, *, #192, .T. ) ;
#271 = SURFACE_SIDE_STYLE ('',( #178 ) ) ;
#272 = FACE_OUTER_BOUND ( 'NONE', #267, .T. ) ;
#273 = AXIS2_PLACEMENT_3D ( 'NONE', #185, #276, #69 ) ;
#274 = CARTESIAN_POINT ( 'NONE',  ( 0.0000000000000000000, 0.0000000000000000000, 2.500000000000000000 ) ) ;
#275 = CARTESIAN_POINT ( 'NONE',  ( 0.1248750000000000970, 0.0000000000000000000, 0.7500000000000001110 ) ) ;
#276 = DIRECTION ( 'NONE',  ( 0.0000000000000000000, 0.0000000000000000000, 1.000000000000000000 ) ) ;
#277 = AXIS2_PLACEMENT_3D ( 'NONE', #278, #42, #296 ) ;
#278 = CARTESIAN_POINT ( 'NONE',  ( 9.184850993605150903E-17, 0.0000000000000000000, 0.7500000000000001110 ) ) ;
#279 =( NAMED_UNIT ( * ) PLANE_ANGLE_UNIT ( ) SI_UNIT ( $, .RADIAN. ) );
#280 = SURFACE_STYLE_USAGE ( .BOTH. , #90 ) ;
#281 = ADVANCED_FACE ( 'NONE', ( #187 ), #118, .F. ) ;
#282 = ORIENTED_EDGE ( 'NONE', *, *, #18, .T. ) ;
#283 = DIRECTION ( 'NONE',  ( 1.000000000000000000, 0.0000000000000000000, 0.0000000000000000000 ) ) ;
#284 = ORIENTED_EDGE ( 'NONE', *, *, #148, .F. ) ;
#285 = ORIENTED_EDGE ( 'NONE', *, *, #192, .F. ) ;
#286 = DIRECTION ( 'NONE',  ( 1.000000000000000000, 0.0000000000000000000, 0.0000000000000000000 ) ) ;
#287 = ORIENTED_EDGE ( 'NONE', *, *, #168, .T. ) ;
#288 = ADVANCED_FACE ( 'NONE', ( #214 ), #117, .T. ) ;
#289 = AXIS2_PLACEMENT_3D ( 'NONE', #11, #81, #283 ) ;
#290 = VERTEX_POINT ( 'NONE', #237 ) ;
#291 = DIRECTION ( 'NONE',  ( 1.224646799147353207E-16, 0.0000000000000000000, 1.000000000000000000 ) ) ;
#292 = DIRECTION ( 'NONE',  ( -1.000000000000000000, 0.0000000000000000000, 0.0000000000000000000 ) ) ;
#293 = FILL_AREA_STYLE ('',( #93 ) ) ;
#294 = CARTESIAN_POINT ( 'NONE',  ( 0.1248749999999999999, 1.529277690435257475E-17, -1.529277690435257475E-17 ) ) ;
#295 = LINE ( 'NONE', #86, #40 ) ;
#296 = DIRECTION ( 'NONE',  ( 1.000000000000000000, 0.0000000000000000000, 0.0000000000000000000 ) ) ;
#297 = DIRECTION ( 'NONE',  ( -0.0000000000000000000, -0.0000000000000000000, -1.000000000000000000 ) ) ;
#298 = AXIS2_PLACEMENT_3D ( 'NONE', #209, #22, #66 ) ;
#299 = DIRECTION ( 'NONE',  ( 1.000000000000000000, 0.0000000000000000000, -0.0000000000000000000 ) ) ;
ENDSEC;
END-ISO-10303-21;
