ISO-10303-21;
HEADER;
FILE_DESCRIPTION (( 'STEP AP214' ),
    '1' );
FILE_NAME ('30662W.STEP',
    '2023-06-22T18:57:13',
    ( '' ),
    ( '' ),
    'SwSTEP 2.0',
    'SolidWorks 2023',
    '' );
FILE_SCHEMA (( 'AUTOMOTIVE_DESIGN' ));
ENDSEC;

DATA;
#1 = CARTESIAN_POINT ( 'NONE',  ( 0.3750000000000000555, 4.000000000000000000, 0.000000000000000000 ) ) ;
#2 = PLANE ( 'NONE',  #3 ) ;
#3 = AXIS2_PLACEMENT_3D ( 'NONE', #107, #84, #204 ) ;
#4 = PRODUCT_DEFINITION_FORMATION_WITH_SPECIFIED_SOURCE ( 'ANY', '', #206, .NOT_KNOWN. ) ;
#5 =( CONVERSION_BASED_UNIT ( 'INCH', #53 ) LENGTH_UNIT ( ) NAMED_UNIT ( #203 ) );
#6 =( NAMED_UNIT ( * ) SI_UNIT ( $, .STERADIAN. ) SOLID_ANGLE_UNIT ( ) );
#7 = AXIS2_PLACEMENT_3D ( 'NONE', #261, #124, #146 ) ;
#8 = CARTESIAN_POINT ( 'NONE',  ( -1.224646799147352714E-16, 4.000000000000000000, 0.000000000000000000 ) ) ;
#9 = EDGE_LOOP ( 'NONE', ( #91, #253 ) ) ;
#10 = AXIS2_PLACEMENT_3D ( 'NONE', #147, #268, #200 ) ;
#11 = SURFACE_STYLE_USAGE ( .BOTH. , #184 ) ;
#12 = ORIENTED_EDGE ( 'NONE', *, *, #205, .T. ) ;
#13 = ADVANCED_FACE ( 'NONE', ( #187 ), #279, .T. ) ;
#14 = FACE_OUTER_BOUND ( 'NONE', #135, .T. ) ;
#15 = ORIENTED_EDGE ( 'NONE', *, *, #88, .T. ) ;
#16 = ORIENTED_EDGE ( 'NONE', *, *, #205, .F. ) ;
#17 =( GEOMETRIC_REPRESENTATION_CONTEXT ( 3 ) GLOBAL_UNCERTAINTY_ASSIGNED_CONTEXT ( ( #46 ) ) GLOBAL_UNIT_ASSIGNED_CONTEXT ( ( #43, #45, #52 ) ) REPRESENTATION_CONTEXT ( 'NONE', 'WORKASPACE' ) );
#18 = VECTOR ( 'NONE', #285, 39.37007874015748143 ) ;
#19 = SURFACE_SIDE_STYLE ('',( #75 ) ) ;
#20 =( GEOMETRIC_REPRESENTATION_CONTEXT ( 3 ) GLOBAL_UNCERTAINTY_ASSIGNED_CONTEXT ( ( #190 ) ) GLOBAL_UNIT_ASSIGNED_CONTEXT ( ( #237, #99, #168 ) ) REPRESENTATION_CONTEXT ( 'NONE', 'WORKASPACE' ) );
#21 = MANIFOLD_SOLID_BREP ( 'Revolve - Cutting Edge', #89 ) ;
#22 = SURFACE_STYLE_USAGE ( .BOTH. , #144 ) ;
#23 = EDGE_CURVE ( 'NONE', #94, #118, #105, .T. ) ;
#24 = DIRECTION ( 'NONE',  ( 5.156407575357275916E-17, -1.000000000000000000, 0.000000000000000000 ) ) ;
#25 =( CONVERSION_BASED_UNIT ( 'INCH', #175 ) LENGTH_UNIT ( ) NAMED_UNIT ( #130 ) );
#26 = AXIS2_PLACEMENT_3D ( 'NONE', #1, #24, #286 ) ;
#27 =( LENGTH_UNIT ( ) NAMED_UNIT ( * ) SI_UNIT ( $, .METRE. ) );
#28 = MANIFOLD_SOLID_BREP ( 'Revolve - Tool Body (Straight Shanked)', #62 ) ;
#29 = LINE ( 'NONE', #85, #90 ) ;
#30 = CARTESIAN_POINT ( 'NONE',  ( -0.3750000000000002776, 4.000000000000000000, 0.000000000000000000 ) ) ;
#31 = DIMENSIONAL_EXPONENTS ( 1.000000000000000000, 0.000000000000000000, 0.000000000000000000, 0.000000000000000000, 0.000000000000000000, 0.000000000000000000, 0.000000000000000000 ) ;
#32 = MECHANICAL_DESIGN_GEOMETRIC_PRESENTATION_REPRESENTATION (  '', ( #263 ), #70 ) ;
#33 = PRODUCT_RELATED_PRODUCT_CATEGORY ( 'part', '', ( #206 ) ) ;
#34 = DIRECTION ( 'NONE',  ( -0.000000000000000000, -1.000000000000000000, -0.000000000000000000 ) ) ;
#35 = ORIENTED_EDGE ( 'NONE', *, *, #37, .F. ) ;
#36 = FACE_OUTER_BOUND ( 'NONE', #41, .T. ) ;
#37 = EDGE_CURVE ( 'NONE', #138, #118, #74, .T. ) ;
#38 = VERTEX_POINT ( 'NONE', #228 ) ;
#39 = COLOUR_RGB ( '',1.000000000000000000, 0.000000000000000000, 0.000000000000000000 ) ;
#40 = DIRECTION ( 'NONE',  ( -5.156407575357275299E-17, 1.000000000000000000, -0.000000000000000000 ) ) ;
#41 = EDGE_LOOP ( 'NONE', ( #12, #274, #183, #166 ) ) ;
#42 = DIRECTION ( 'NONE',  ( -1.000000000000000000, 0.000000000000000000, 0.000000000000000000 ) ) ;
#43 =( CONVERSION_BASED_UNIT ( 'INCH', #122 ) LENGTH_UNIT ( ) NAMED_UNIT ( #115 ) );
#44 = AXIS2_PLACEMENT_3D ( 'NONE', #256, #180, #269 ) ;
#45 =( NAMED_UNIT ( * ) PLANE_ANGLE_UNIT ( ) SI_UNIT ( $, .RADIAN. ) );
#46 = UNCERTAINTY_MEASURE_WITH_UNIT (LENGTH_MEASURE( 1.000000000000000082E-05 ), #43, 'distance_accuracy_value', 'NONE');
#47 = CARTESIAN_POINT ( 'NONE',  ( -0.3750000000000002220, 4.000000000000000000, 0.000000000000000000 ) ) ;
#48 = CARTESIAN_POINT ( 'NONE',  ( 4.592425496802575451E-17, 1.625000000000000000, 0.3750000000000000555 ) ) ;
#49 = LENGTH_MEASURE_WITH_UNIT ( LENGTH_MEASURE( 0.02539999999999999897 ), #215 );
#50 = EDGE_CURVE ( 'NONE', #118, #138, #102, .T. ) ;
#51 = STYLED_ITEM ( 'NONE', ( #167 ), #28 ) ;
#52 =( NAMED_UNIT ( * ) SI_UNIT ( $, .STERADIAN. ) SOLID_ANGLE_UNIT ( ) );
#53 = LENGTH_MEASURE_WITH_UNIT ( LENGTH_MEASURE( 0.02539999999999999897 ), #179 );
#54 = DIRECTION ( 'NONE',  ( -0.000000000000000000, -1.000000000000000000, -0.000000000000000000 ) ) ;
#55 =( NAMED_UNIT ( * ) SI_UNIT ( $, .STERADIAN. ) SOLID_ANGLE_UNIT ( ) );
#56 = PRESENTATION_LAYER_ASSIGNMENT (  '', '', ( #188 ) ) ;
#57 = CARTESIAN_POINT ( 'NONE',  ( -0.3750000000000000555, 1.625000000000000000, 0.000000000000000000 ) ) ;
#58 = AXIS2_PLACEMENT_3D ( 'NONE', #152, #202, #128 ) ;
#59 = FACE_OUTER_BOUND ( 'NONE', #233, .T. ) ;
#60 = DIRECTION ( 'NONE',  ( -1.000000000000000000, 0.000000000000000000, 0.000000000000000000 ) ) ;
#61 = CARTESIAN_POINT ( 'NONE',  ( 0.000000000000000000, 1.625000000000000000, 0.000000000000000000 ) ) ;
#62 = CLOSED_SHELL ( 'NONE', ( #227, #141, #150, #308 ) ) ;
#63 = CIRCLE ( 'NONE', #275, 0.3750000000000000555 ) ;
#64 = VERTEX_POINT ( 'NONE', #156 ) ;
#65 =( NAMED_UNIT ( * ) SI_UNIT ( $, .STERADIAN. ) SOLID_ANGLE_UNIT ( ) );
#66 = ORIENTED_EDGE ( 'NONE', *, *, #50, .T. ) ;
#67 =( LENGTH_UNIT ( ) NAMED_UNIT ( * ) SI_UNIT ( $, .METRE. ) );
#68 = ORIENTED_EDGE ( 'NONE', *, *, #23, .T. ) ;
#69 = DIRECTION ( 'NONE',  ( -5.156407575357275299E-17, 1.000000000000000000, -0.000000000000000000 ) ) ;
#70 =( GEOMETRIC_REPRESENTATION_CONTEXT ( 3 ) GLOBAL_UNCERTAINTY_ASSIGNED_CONTEXT ( ( #307 ) ) GLOBAL_UNIT_ASSIGNED_CONTEXT ( ( #232, #230, #65 ) ) REPRESENTATION_CONTEXT ( 'NONE', 'WORKASPACE' ) );
#71 = ORIENTED_EDGE ( 'NONE', *, *, #193, .T. ) ;
#72 = EDGE_CURVE ( 'NONE', #257, #160, #109, .T. ) ;
#73 = ORIENTED_EDGE ( 'NONE', *, *, #88, .F. ) ;
#74 = CIRCLE ( 'NONE', #10, 0.3750000000000001665 ) ;
#75 = SURFACE_STYLE_FILL_AREA ( #103 ) ;
#76 = UNCERTAINTY_MEASURE_WITH_UNIT (LENGTH_MEASURE( 1.000000000000000082E-05 ), #195, 'distance_accuracy_value', 'NONE');
#77 = DIRECTION ( 'NONE',  ( -0.000000000000000000, -1.000000000000000000, -0.000000000000000000 ) ) ;
#78 =( GEOMETRIC_REPRESENTATION_CONTEXT ( 3 ) GLOBAL_UNCERTAINTY_ASSIGNED_CONTEXT ( ( #170 ) ) GLOBAL_UNIT_ASSIGNED_CONTEXT ( ( #262, #100, #121 ) ) REPRESENTATION_CONTEXT ( 'NONE', 'WORKASPACE' ) );
#79 = STYLED_ITEM ( 'NONE', ( #244 ), #120 ) ;
#80 =( NAMED_UNIT ( * ) PLANE_ANGLE_UNIT ( ) SI_UNIT ( $, .RADIAN. ) );
#81 = AXIS2_PLACEMENT_3D ( 'NONE', #217, #104, #287 ) ;
#82 =( NAMED_UNIT ( * ) SI_UNIT ( $, .STERADIAN. ) SOLID_ANGLE_UNIT ( ) );
#83 = PRODUCT_CONTEXT ( 'NONE', #214, 'mechanical' ) ;
#84 = DIRECTION ( 'NONE',  ( -5.156407575357275916E-17, 1.000000000000000000, 0.000000000000000000 ) ) ;
#85 = CARTESIAN_POINT ( 'NONE',  ( 0.000000000000000000, 0.000000000000000000, -0.3750000000000000555 ) ) ;
#86 = PRESENTATION_LAYER_ASSIGNMENT (  '', '', ( #153 ) ) ;
#87 = FACE_OUTER_BOUND ( 'NONE', #164, .T. ) ;
#88 = EDGE_CURVE ( 'NONE', #38, #257, #148, .T. ) ;
#89 = CLOSED_SHELL ( 'NONE', ( #163, #13, #241, #120 ) ) ;
#90 = VECTOR ( 'NONE', #54, 39.37007874015748143 ) ;
#91 = ORIENTED_EDGE ( 'NONE', *, *, #173, .T. ) ;
#92 = ADVANCED_BREP_SHAPE_REPRESENTATION ( '30662W', ( #21, #28, #304 ), #158 ) ;
#93 = DIRECTION ( 'NONE',  ( -1.000000000000000000, 0.000000000000000000, 0.000000000000000000 ) ) ;
#94 = VERTEX_POINT ( 'NONE', #57 ) ;
#95 = ORIENTED_EDGE ( 'NONE', *, *, #111, .F. ) ;
#96 = COLOUR_RGB ( '',0.7921568627450980005, 0.8196078431372548767, 0.9333333333333333481 ) ;
#97 = PRODUCT_DEFINITION ( 'UNKNOWN', '', #4, #260 ) ;
#98 =( LENGTH_UNIT ( ) NAMED_UNIT ( * ) SI_UNIT ( $, .METRE. ) );
#99 =( NAMED_UNIT ( * ) PLANE_ANGLE_UNIT ( ) SI_UNIT ( $, .RADIAN. ) );
#100 =( NAMED_UNIT ( * ) PLANE_ANGLE_UNIT ( ) SI_UNIT ( $, .RADIAN. ) );
#101 = MECHANICAL_DESIGN_GEOMETRIC_PRESENTATION_REPRESENTATION (  '', ( #188 ), #17 ) ;
#102 = CIRCLE ( 'NONE', #189, 0.3750000000000001665 ) ;
#103 = FILL_AREA_STYLE ('',( #243 ) ) ;
#104 = DIRECTION ( 'NONE',  ( -5.156407575357275299E-17, 1.000000000000000000, -0.000000000000000000 ) ) ;
#105 = LINE ( 'NONE', #47, #251 ) ;
#106 = CIRCLE ( 'NONE', #81, 0.3750000000000000555 ) ;
#107 = CARTESIAN_POINT ( 'NONE',  ( 4.985351078100356093E-34, 1.625000000000000000, 0.000000000000000000 ) ) ;
#108 = APPLICATION_PROTOCOL_DEFINITION ( 'draft international standard', 'automotive_design', 1998, #214 ) ;
#109 = LINE ( 'NONE', #283, #18 ) ;
#110 = PRODUCT_DEFINITION_SHAPE ( 'NONE', 'NONE',  #97 ) ;
#111 = EDGE_CURVE ( 'NONE', #160, #64, #247, .T. ) ;
#112 = SHAPE_DEFINITION_REPRESENTATION ( #110, #92 ) ;
#113 = CARTESIAN_POINT ( 'NONE',  ( -1.224646799147352714E-16, 4.000000000000000000, 0.000000000000000000 ) ) ;
#114 = COLOUR_RGB ( '',1.000000000000000000, 0.000000000000000000, 0.000000000000000000 ) ;
#115 = DIMENSIONAL_EXPONENTS ( 1.000000000000000000, 0.000000000000000000, 0.000000000000000000, 0.000000000000000000, 0.000000000000000000, 0.000000000000000000, 0.000000000000000000 ) ;
#116 = PRESENTATION_LAYER_ASSIGNMENT (  '', '', ( #263 ) ) ;
#117 = ORIENTED_EDGE ( 'NONE', *, *, #297, .F. ) ;
#118 = VERTEX_POINT ( 'NONE', #30 ) ;
#119 = CYLINDRICAL_SURFACE ( 'NONE', #284, 0.3750000000000000555 ) ;
#120 = ADVANCED_FACE ( 'NONE', ( #222 ), #176, .T. ) ;
#121 =( NAMED_UNIT ( * ) SI_UNIT ( $, .STERADIAN. ) SOLID_ANGLE_UNIT ( ) );
#122 = LENGTH_MEASURE_WITH_UNIT ( LENGTH_MEASURE( 0.02539999999999999897 ), #98 );
#123 = MECHANICAL_DESIGN_GEOMETRIC_PRESENTATION_REPRESENTATION (  '', ( #153 ), #20 ) ;
#124 = DIRECTION ( 'NONE',  ( 0.000000000000000000, 1.000000000000000000, 0.000000000000000000 ) ) ;
#125 = FILL_AREA_STYLE_COLOUR ( '', #236 ) ;
#126 = DIRECTION ( 'NONE',  ( 0.000000000000000000, -1.000000000000000000, -0.000000000000000000 ) ) ;
#127 = AXIS2_PLACEMENT_3D ( 'NONE', #8, #69, #42 ) ;
#128 = DIRECTION ( 'NONE',  ( 0.000000000000000000, 0.000000000000000000, -1.000000000000000000 ) ) ;
#129 = FILL_AREA_STYLE ('',( #154 ) ) ;
#130 = DIMENSIONAL_EXPONENTS ( 1.000000000000000000, 0.000000000000000000, 0.000000000000000000, 0.000000000000000000, 0.000000000000000000, 0.000000000000000000, 0.000000000000000000 ) ;
#131 = MECHANICAL_DESIGN_GEOMETRIC_PRESENTATION_REPRESENTATION (  '', ( #174 ), #78 ) ;
#132 = LENGTH_MEASURE_WITH_UNIT ( LENGTH_MEASURE( 0.02539999999999999897 ), #27 );
#133 = FACE_OUTER_BOUND ( 'NONE', #294, .T. ) ;
#134 = CARTESIAN_POINT ( 'NONE',  ( 3.032960542342103792E-32, 1.625000000000000000, 0.000000000000000000 ) ) ;
#135 = EDGE_LOOP ( 'NONE', ( #272, #71, #212, #95 ) ) ;
#136 = CARTESIAN_POINT ( 'NONE',  ( -1.224646799147352714E-16, 4.000000000000000000, 0.000000000000000000 ) ) ;
#137 = COLOUR_RGB ( '',1.000000000000000000, 0.000000000000000000, 0.000000000000000000 ) ;
#138 = VERTEX_POINT ( 'NONE', #221 ) ;
#139 = CYLINDRICAL_SURFACE ( 'NONE', #145, 0.3750000000000000555 ) ;
#140 = APPLICATION_CONTEXT ( 'automotive_design' ) ;
#141 = ADVANCED_FACE ( 'NONE', ( #87 ), #2, .F. ) ;
#142 = PRESENTATION_STYLE_ASSIGNMENT (( #11 ) ) ;
#143 = EDGE_LOOP ( 'NONE', ( #15, #299, #208, #186 ) ) ;
#144 = SURFACE_SIDE_STYLE ('',( #149 ) ) ;
#145 = AXIS2_PLACEMENT_3D ( 'NONE', #295, #298, #254 ) ;
#146 = DIRECTION ( 'NONE',  ( 0.000000000000000000, -0.000000000000000000, 1.000000000000000000 ) ) ;
#147 = CARTESIAN_POINT ( 'NONE',  ( -1.224646799147352714E-16, 4.000000000000000000, 0.000000000000000000 ) ) ;
#148 = CIRCLE ( 'NONE', #58, 0.3750000000000000555 ) ;
#149 = SURFACE_STYLE_FILL_AREA ( #305 ) ;
#150 = ADVANCED_FACE ( 'NONE', ( #133 ), #276, .T. ) ;
#151 = SURFACE_STYLE_USAGE ( .BOTH. , #157 ) ;
#152 = CARTESIAN_POINT ( 'NONE',  ( 0.000000000000000000, 1.625000000000000000, 0.000000000000000000 ) ) ;
#153 = STYLED_ITEM ( 'NONE', ( #213 ), #241 ) ;
#154 = FILL_AREA_STYLE_COLOUR ( '', #242 ) ;
#155 = DIRECTION ( 'NONE',  ( 0.000000000000000000, 0.000000000000000000, 1.000000000000000000 ) ) ;
#156 = CARTESIAN_POINT ( 'NONE',  ( 0.000000000000000000, 0.000000000000000000, -0.3750000000000000555 ) ) ;
#157 = SURFACE_SIDE_STYLE ('',( #248 ) ) ;
#158 =( GEOMETRIC_REPRESENTATION_CONTEXT ( 3 ) GLOBAL_UNCERTAINTY_ASSIGNED_CONTEXT ( ( #302 ) ) GLOBAL_UNIT_ASSIGNED_CONTEXT ( ( #25, #80, #6 ) ) REPRESENTATION_CONTEXT ( 'NONE', 'WORKASPACE' ) );
#159 = ORIENTED_EDGE ( 'NONE', *, *, #37, .T. ) ;
#160 = VERTEX_POINT ( 'NONE', #207 ) ;
#161 = DIRECTION ( 'NONE',  ( 0.000000000000000000, 0.000000000000000000, -1.000000000000000000 ) ) ;
#162 = AXIS2_PLACEMENT_3D ( 'NONE', #197, #126, #225 ) ;
#163 = ADVANCED_FACE ( 'NONE', ( #271 ), #139, .T. ) ;
#164 = EDGE_LOOP ( 'NONE', ( #16, #210 ) ) ;
#165 = FILL_AREA_STYLE_COLOUR ( '', #114 ) ;
#166 = ORIENTED_EDGE ( 'NONE', *, *, #23, .F. ) ;
#167 = PRESENTATION_STYLE_ASSIGNMENT (( #309 ) ) ;
#168 =( NAMED_UNIT ( * ) SI_UNIT ( $, .STERADIAN. ) SOLID_ANGLE_UNIT ( ) );
#169 = DIRECTION ( 'NONE',  ( 0.000000000000000000, 0.000000000000000000, -1.000000000000000000 ) ) ;
#170 = UNCERTAINTY_MEASURE_WITH_UNIT (LENGTH_MEASURE( 1.000000000000000082E-05 ), #262, 'distance_accuracy_value', 'NONE');
#171 = FILL_AREA_STYLE ('',( #235 ) ) ;
#172 = SURFACE_STYLE_USAGE ( .BOTH. , #19 ) ;
#173 = EDGE_CURVE ( 'NONE', #64, #160, #231, .T. ) ;
#174 = STYLED_ITEM ( 'NONE', ( #191 ), #21 ) ;
#175 = LENGTH_MEASURE_WITH_UNIT ( LENGTH_MEASURE( 0.02539999999999999897 ), #264 );
#176 = PLANE ( 'NONE',  #162 ) ;
#177 = PRESENTATION_LAYER_ASSIGNMENT (  '', '', ( #174 ) ) ;
#178 =( NAMED_UNIT ( * ) PLANE_ANGLE_UNIT ( ) SI_UNIT ( $, .RADIAN. ) );
#179 =( LENGTH_UNIT ( ) NAMED_UNIT ( * ) SI_UNIT ( $, .METRE. ) );
#180 = DIRECTION ( 'NONE',  ( -0.000000000000000000, -1.000000000000000000, -0.000000000000000000 ) ) ;
#181 = CIRCLE ( 'NONE', #292, 0.3750000000000000555 ) ;
#182 = SURFACE_STYLE_FILL_AREA ( #209 ) ;
#183 = ORIENTED_EDGE ( 'NONE', *, *, #50, .F. ) ;
#184 = SURFACE_SIDE_STYLE ('',( #182 ) ) ;
#185 = EDGE_LOOP ( 'NONE', ( #73, #255 ) ) ;
#186 = ORIENTED_EDGE ( 'NONE', *, *, #277, .F. ) ;
#187 = FACE_OUTER_BOUND ( 'NONE', #185, .T. ) ;
#188 = STYLED_ITEM ( 'NONE', ( #282 ), #13 ) ;
#189 = AXIS2_PLACEMENT_3D ( 'NONE', #113, #223, #60 ) ;
#190 = UNCERTAINTY_MEASURE_WITH_UNIT (LENGTH_MEASURE( 1.000000000000000082E-05 ), #237, 'distance_accuracy_value', 'NONE');
#191 = PRESENTATION_STYLE_ASSIGNMENT (( #172 ) ) ;
#192 =( LENGTH_UNIT ( ) NAMED_UNIT ( * ) SI_UNIT ( $, .METRE. ) );
#193 = EDGE_CURVE ( 'NONE', #257, #38, #181, .T. ) ;
#194 = DIRECTION ( 'NONE',  ( -5.156407575357275916E-17, 1.000000000000000000, -0.000000000000000000 ) ) ;
#195 =( CONVERSION_BASED_UNIT ( 'INCH', #132 ) LENGTH_UNIT ( ) NAMED_UNIT ( #198 ) );
#196 = CARTESIAN_POINT ( 'NONE',  ( 0.3749999999999999445, 4.000000000000000000, 4.592425496802576068E-17 ) ) ;
#197 = CARTESIAN_POINT ( 'NONE',  ( 0.000000000000000000, 0.000000000000000000, 0.000000000000000000 ) ) ;
#198 = DIMENSIONAL_EXPONENTS ( 1.000000000000000000, 0.000000000000000000, 0.000000000000000000, 0.000000000000000000, 0.000000000000000000, 0.000000000000000000, 0.000000000000000000 ) ;
#199 = LINE ( 'NONE', #196, #270 ) ;
#200 = DIRECTION ( 'NONE',  ( -1.000000000000000000, 0.000000000000000000, 0.000000000000000000 ) ) ;
#201 = MECHANICAL_DESIGN_GEOMETRIC_PRESENTATION_REPRESENTATION (  '', ( #51 ), #289 ) ;
#202 = DIRECTION ( 'NONE',  ( -0.000000000000000000, -1.000000000000000000, -0.000000000000000000 ) ) ;
#203 = DIMENSIONAL_EXPONENTS ( 1.000000000000000000, 0.000000000000000000, 0.000000000000000000, 0.000000000000000000, 0.000000000000000000, 0.000000000000000000, 0.000000000000000000 ) ;
#204 = DIRECTION ( 'NONE',  ( -1.000000000000000000, -5.156407575357275916E-17, 0.000000000000000000 ) ) ;
#205 = EDGE_CURVE ( 'NONE', #94, #296, #63, .T. ) ;
#206 = PRODUCT ( '30662W', '30662W', '', ( #83 ) ) ;
#207 = CARTESIAN_POINT ( 'NONE',  ( 4.592425496802575451E-17, 0.000000000000000000, 0.3750000000000000555 ) ) ;
#208 = ORIENTED_EDGE ( 'NONE', *, *, #173, .F. ) ;
#209 = FILL_AREA_STYLE ('',( #165 ) ) ;
#210 = ORIENTED_EDGE ( 'NONE', *, *, #266, .F. ) ;
#211 =( GEOMETRIC_REPRESENTATION_CONTEXT ( 3 ) GLOBAL_UNCERTAINTY_ASSIGNED_CONTEXT ( ( #76 ) ) GLOBAL_UNIT_ASSIGNED_CONTEXT ( ( #195, #178, #82 ) ) REPRESENTATION_CONTEXT ( 'NONE', 'WORKASPACE' ) );
#212 = ORIENTED_EDGE ( 'NONE', *, *, #277, .T. ) ;
#213 = PRESENTATION_STYLE_ASSIGNMENT (( #258 ) ) ;
#214 = APPLICATION_CONTEXT ( 'automotive_design' ) ;
#215 =( LENGTH_UNIT ( ) NAMED_UNIT ( * ) SI_UNIT ( $, .METRE. ) );
#216 = AXIS2_PLACEMENT_3D ( 'NONE', #136, #40, #234 ) ;
#217 = CARTESIAN_POINT ( 'NONE',  ( 3.032960542342103792E-32, 1.625000000000000000, 0.000000000000000000 ) ) ;
#218 = CARTESIAN_POINT ( 'NONE',  ( 0.3750000000000000555, 1.625000000000000000, 4.592425496802576684E-17 ) ) ;
#219 = FILL_AREA_STYLE ('',( #125 ) ) ;
#220 = DIRECTION ( 'NONE',  ( 1.000000000000000000, 0.000000000000000000, 0.000000000000000000 ) ) ;
#221 = CARTESIAN_POINT ( 'NONE',  ( 0.3750000000000000555, 4.000000000000000000, 4.592425496802576684E-17 ) ) ;
#222 = FACE_OUTER_BOUND ( 'NONE', #9, .T. ) ;
#223 = DIRECTION ( 'NONE',  ( -5.156407575357275299E-17, 1.000000000000000000, -0.000000000000000000 ) ) ;
#224 = APPLICATION_PROTOCOL_DEFINITION ( 'draft international standard', 'automotive_design', 1998, #140 ) ;
#225 = DIRECTION ( 'NONE',  ( 0.000000000000000000, 0.000000000000000000, -1.000000000000000000 ) ) ;
#226 = PRESENTATION_LAYER_ASSIGNMENT (  '', '', ( #79 ) ) ;
#227 = ADVANCED_FACE ( 'NONE', ( #36 ), #273, .T. ) ;
#228 = CARTESIAN_POINT ( 'NONE',  ( 0.000000000000000000, 1.625000000000000000, -0.3750000000000000555 ) ) ;
#229 = LENGTH_MEASURE_WITH_UNIT ( LENGTH_MEASURE( 0.02539999999999999897 ), #67 );
#230 =( NAMED_UNIT ( * ) PLANE_ANGLE_UNIT ( ) SI_UNIT ( $, .RADIAN. ) );
#231 = CIRCLE ( 'NONE', #44, 0.3750000000000000555 ) ;
#232 =( CONVERSION_BASED_UNIT ( 'INCH', #229 ) LENGTH_UNIT ( ) NAMED_UNIT ( #265 ) );
#233 = EDGE_LOOP ( 'NONE', ( #66, #159 ) ) ;
#234 = DIRECTION ( 'NONE',  ( -1.000000000000000000, 0.000000000000000000, 0.000000000000000000 ) ) ;
#235 = FILL_AREA_STYLE_COLOUR ( '', #137 ) ;
#236 = COLOUR_RGB ( '',0.7921568627450980005, 0.8196078431372548767, 0.9333333333333333481 ) ;
#237 =( CONVERSION_BASED_UNIT ( 'INCH', #306 ) LENGTH_UNIT ( ) NAMED_UNIT ( #31 ) );
#238 = UNCERTAINTY_MEASURE_WITH_UNIT (LENGTH_MEASURE( 1.000000000000000082E-05 ), #5, 'distance_accuracy_value', 'NONE');
#239 = SURFACE_STYLE_FILL_AREA ( #171 ) ;
#240 = SURFACE_STYLE_FILL_AREA ( #219 ) ;
#241 = ADVANCED_FACE ( 'NONE', ( #14 ), #119, .T. ) ;
#242 = COLOUR_RGB ( '',1.000000000000000000, 0.000000000000000000, 0.000000000000000000 ) ;
#243 = FILL_AREA_STYLE_COLOUR ( '', #96 ) ;
#244 = PRESENTATION_STYLE_ASSIGNMENT (( #151 ) ) ;
#245 = CARTESIAN_POINT ( 'NONE',  ( 0.000000000000000000, 0.000000000000000000, 0.000000000000000000 ) ) ;
#246 = DIRECTION ( 'NONE',  ( 0.000000000000000000, 0.000000000000000000, -1.000000000000000000 ) ) ;
#247 = CIRCLE ( 'NONE', #252, 0.3750000000000000555 ) ;
#248 = SURFACE_STYLE_FILL_AREA ( #129 ) ;
#249 = PLANE ( 'NONE',  #26 ) ;
#250 =( NAMED_UNIT ( * ) PLANE_ANGLE_UNIT ( ) SI_UNIT ( $, .RADIAN. ) );
#251 = VECTOR ( 'NONE', #194, 39.37007874015748143 ) ;
#252 = AXIS2_PLACEMENT_3D ( 'NONE', #288, #291, #246 ) ;
#253 = ORIENTED_EDGE ( 'NONE', *, *, #111, .T. ) ;
#254 = DIRECTION ( 'NONE',  ( 0.000000000000000000, 0.000000000000000000, -1.000000000000000000 ) ) ;
#255 = ORIENTED_EDGE ( 'NONE', *, *, #193, .F. ) ;
#256 = CARTESIAN_POINT ( 'NONE',  ( 0.000000000000000000, 0.000000000000000000, 0.000000000000000000 ) ) ;
#257 = VERTEX_POINT ( 'NONE', #48 ) ;
#258 = SURFACE_STYLE_USAGE ( .BOTH. , #301 ) ;
#259 = ORIENTED_EDGE ( 'NONE', *, *, #266, .T. ) ;
#260 = PRODUCT_DEFINITION_CONTEXT ( 'detailed design', #140, 'design' ) ;
#261 = CARTESIAN_POINT ( 'NONE',  ( 0.000000000000000000, 1.625000000000000000, 0.000000000000000000 ) ) ;
#262 =( CONVERSION_BASED_UNIT ( 'INCH', #49 ) LENGTH_UNIT ( ) NAMED_UNIT ( #290 ) );
#263 = STYLED_ITEM ( 'NONE', ( #142 ), #163 ) ;
#264 =( LENGTH_UNIT ( ) NAMED_UNIT ( * ) SI_UNIT ( $, .METRE. ) );
#265 = DIMENSIONAL_EXPONENTS ( 1.000000000000000000, 0.000000000000000000, 0.000000000000000000, 0.000000000000000000, 0.000000000000000000, 0.000000000000000000, 0.000000000000000000 ) ;
#266 = EDGE_CURVE ( 'NONE', #296, #94, #106, .T. ) ;
#267 = DIRECTION ( 'NONE',  ( -5.156407575357275916E-17, 1.000000000000000000, -0.000000000000000000 ) ) ;
#268 = DIRECTION ( 'NONE',  ( -5.156407575357275299E-17, 1.000000000000000000, -0.000000000000000000 ) ) ;
#269 = DIRECTION ( 'NONE',  ( 0.000000000000000000, 0.000000000000000000, -1.000000000000000000 ) ) ;
#270 = VECTOR ( 'NONE', #267, 39.37007874015748143 ) ;
#271 = FACE_OUTER_BOUND ( 'NONE', #143, .T. ) ;
#272 = ORIENTED_EDGE ( 'NONE', *, *, #72, .F. ) ;
#273 = CYLINDRICAL_SURFACE ( 'NONE', #216, 0.3750000000000001110 ) ;
#274 = ORIENTED_EDGE ( 'NONE', *, *, #297, .T. ) ;
#275 = AXIS2_PLACEMENT_3D ( 'NONE', #134, #293, #93 ) ;
#276 = CYLINDRICAL_SURFACE ( 'NONE', #127, 0.3750000000000001110 ) ;
#277 = EDGE_CURVE ( 'NONE', #38, #64, #29, .T. ) ;
#278 = SURFACE_SIDE_STYLE ('',( #240 ) ) ;
#279 = PLANE ( 'NONE',  #7 ) ;
#280 = CARTESIAN_POINT ( 'NONE',  ( 0.000000000000000000, 0.000000000000000000, 0.000000000000000000 ) ) ;
#281 = FILL_AREA_STYLE_COLOUR ( '', #39 ) ;
#282 = PRESENTATION_STYLE_ASSIGNMENT (( #22 ) ) ;
#283 = CARTESIAN_POINT ( 'NONE',  ( 4.592425496802575451E-17, 0.000000000000000000, 0.3750000000000000555 ) ) ;
#284 = AXIS2_PLACEMENT_3D ( 'NONE', #280, #77, #169 ) ;
#285 = DIRECTION ( 'NONE',  ( -0.000000000000000000, -1.000000000000000000, -0.000000000000000000 ) ) ;
#286 = DIRECTION ( 'NONE',  ( 1.000000000000000000, 5.156407575357275916E-17, 0.000000000000000000 ) ) ;
#287 = DIRECTION ( 'NONE',  ( -1.000000000000000000, 0.000000000000000000, 0.000000000000000000 ) ) ;
#288 = CARTESIAN_POINT ( 'NONE',  ( 0.000000000000000000, 0.000000000000000000, 0.000000000000000000 ) ) ;
#289 =( GEOMETRIC_REPRESENTATION_CONTEXT ( 3 ) GLOBAL_UNCERTAINTY_ASSIGNED_CONTEXT ( ( #238 ) ) GLOBAL_UNIT_ASSIGNED_CONTEXT ( ( #5, #250, #55 ) ) REPRESENTATION_CONTEXT ( 'NONE', 'WORKASPACE' ) );
#290 = DIMENSIONAL_EXPONENTS ( 1.000000000000000000, 0.000000000000000000, 0.000000000000000000, 0.000000000000000000, 0.000000000000000000, 0.000000000000000000, 0.000000000000000000 ) ;
#291 = DIRECTION ( 'NONE',  ( -0.000000000000000000, -1.000000000000000000, -0.000000000000000000 ) ) ;
#292 = AXIS2_PLACEMENT_3D ( 'NONE', #61, #34, #161 ) ;
#293 = DIRECTION ( 'NONE',  ( -5.156407575357275299E-17, 1.000000000000000000, -0.000000000000000000 ) ) ;
#294 = EDGE_LOOP ( 'NONE', ( #117, #259, #68, #35 ) ) ;
#295 = CARTESIAN_POINT ( 'NONE',  ( 0.000000000000000000, 0.000000000000000000, 0.000000000000000000 ) ) ;
#296 = VERTEX_POINT ( 'NONE', #218 ) ;
#297 = EDGE_CURVE ( 'NONE', #296, #138, #199, .T. ) ;
#298 = DIRECTION ( 'NONE',  ( -0.000000000000000000, -1.000000000000000000, -0.000000000000000000 ) ) ;
#299 = ORIENTED_EDGE ( 'NONE', *, *, #72, .T. ) ;
#300 = PRESENTATION_LAYER_ASSIGNMENT (  '', '', ( #51 ) ) ;
#301 = SURFACE_SIDE_STYLE ('',( #239 ) ) ;
#302 = UNCERTAINTY_MEASURE_WITH_UNIT (LENGTH_MEASURE( 1.000000000000000082E-05 ), #25, 'distance_accuracy_value', 'NONE');
#303 = MECHANICAL_DESIGN_GEOMETRIC_PRESENTATION_REPRESENTATION (  '', ( #79 ), #211 ) ;
#304 = AXIS2_PLACEMENT_3D ( 'NONE', #245, #155, #220 ) ;
#305 = FILL_AREA_STYLE ('',( #281 ) ) ;
#306 = LENGTH_MEASURE_WITH_UNIT ( LENGTH_MEASURE( 0.02539999999999999897 ), #192 );
#307 = UNCERTAINTY_MEASURE_WITH_UNIT (LENGTH_MEASURE( 1.000000000000000082E-05 ), #232, 'distance_accuracy_value', 'NONE');
#308 = ADVANCED_FACE ( 'NONE', ( #59 ), #249, .F. ) ;
#309 = SURFACE_STYLE_USAGE ( .BOTH. , #278 ) ;
ENDSEC;
END-ISO-10303-21;
