ISO-10303-21;
HEADER;
FILE_DESCRIPTION (( 'STEP AP214' ),
    '1' );
FILE_NAME ('81553.STEP',
    '2023-06-23T01:43:50',
    ( '' ),
    ( '' ),
    'SwSTEP 2.0',
    'SolidWorks 2023',
    '' );
FILE_SCHEMA (( 'AUTOMOTIVE_DESIGN' ));
ENDSEC;

DATA;
#1 = SURFACE_STYLE_FILL_AREA ( #254 ) ;
#2 =( NAMED_UNIT ( * ) SI_UNIT ( $, .STERADIAN. ) SOLID_ANGLE_UNIT ( ) );
#3 = FILL_AREA_STYLE_COLOUR ( '', #281 ) ;
#4 = CARTESIAN_POINT ( 'NONE',  ( 1.148106374200643863E-17, 0.000000000000000000, 0.09375000000000001388 ) ) ;
#5 = COLOUR_RGB ( '',1.000000000000000000, 0.000000000000000000, 0.000000000000000000 ) ;
#6 = VECTOR ( 'NONE', #54, 39.37007874015748143 ) ;
#7 =( NAMED_UNIT ( * ) PLANE_ANGLE_UNIT ( ) SI_UNIT ( $, .RADIAN. ) );
#8 = CARTESIAN_POINT ( 'NONE',  ( 0.09375000000000001388, 2.500000000000000000, 1.148106374200642938E-17 ) ) ;
#9 = DIRECTION ( 'NONE',  ( -0.000000000000000000, -1.000000000000000000, -0.000000000000000000 ) ) ;
#10 = AXIS2_PLACEMENT_3D ( 'NONE', #200, #104, #302 ) ;
#11 = ORIENTED_EDGE ( 'NONE', *, *, #57, .T. ) ;
#12 =( NAMED_UNIT ( * ) PLANE_ANGLE_UNIT ( ) SI_UNIT ( $, .RADIAN. ) );
#13 = LENGTH_MEASURE_WITH_UNIT ( LENGTH_MEASURE( 0.02539999999999999897 ), #301 );
#14 = AXIS2_PLACEMENT_3D ( 'NONE', #273, #74, #124 ) ;
#15 =( LENGTH_UNIT ( ) NAMED_UNIT ( * ) SI_UNIT ( $, .METRE. ) );
#16 = APPLICATION_PROTOCOL_DEFINITION ( 'draft international standard', 'automotive_design', 1998, #247 ) ;
#17 = SURFACE_SIDE_STYLE ('',( #264 ) ) ;
#18 = SURFACE_STYLE_USAGE ( .BOTH. , #17 ) ;
#19 = VECTOR ( 'NONE', #163, 39.37007874015748143 ) ;
#20 = DIRECTION ( 'NONE',  ( 0.000000000000000000, 0.000000000000000000, -1.000000000000000000 ) ) ;
#21 =( NAMED_UNIT ( * ) SI_UNIT ( $, .STERADIAN. ) SOLID_ANGLE_UNIT ( ) );
#22 = UNCERTAINTY_MEASURE_WITH_UNIT (LENGTH_MEASURE( 1.000000000000000082E-05 ), #132, 'distance_accuracy_value', 'NONE');
#23 = FILL_AREA_STYLE_COLOUR ( '', #5 ) ;
#24 = LINE ( 'NONE', #4, #129 ) ;
#25 = PRESENTATION_LAYER_ASSIGNMENT (  '', '', ( #81 ) ) ;
#26 = AXIS2_PLACEMENT_3D ( 'NONE', #189, #159, #183 ) ;
#27 = EDGE_CURVE ( 'NONE', #62, #251, #173, .T. ) ;
#28 = DIRECTION ( 'NONE',  ( 2.041077998578922341E-16, 1.000000000000000000, -0.000000000000000000 ) ) ;
#29 = FACE_OUTER_BOUND ( 'NONE', #179, .T. ) ;
#30 = DIRECTION ( 'NONE',  ( 2.041077998578922094E-16, 1.000000000000000000, -0.000000000000000000 ) ) ;
#31 = DIMENSIONAL_EXPONENTS ( 1.000000000000000000, 0.000000000000000000, 0.000000000000000000, 0.000000000000000000, 0.000000000000000000, 0.000000000000000000, 0.000000000000000000 ) ;
#32 = COLOUR_RGB ( '',1.000000000000000000, 0.000000000000000000, 0.000000000000000000 ) ;
#33 = MANIFOLD_SOLID_BREP ( 'Revolve - Tool Body (Straight Shanked)', #145 ) ;
#34 = DIRECTION ( 'NONE',  ( 1.000000000000000000, -2.041077998578922341E-16, 0.000000000000000000 ) ) ;
#35 = ORIENTED_EDGE ( 'NONE', *, *, #131, .T. ) ;
#36 = DIRECTION ( 'NONE',  ( -1.000000000000000000, 2.041077998578922341E-16, 0.000000000000000000 ) ) ;
#37 = SURFACE_STYLE_USAGE ( .BOTH. , #300 ) ;
#38 = PRESENTATION_STYLE_ASSIGNMENT (( #257 ) ) ;
#39 = DIMENSIONAL_EXPONENTS ( 1.000000000000000000, 0.000000000000000000, 0.000000000000000000, 0.000000000000000000, 0.000000000000000000, 0.000000000000000000, 0.000000000000000000 ) ;
#40 = ORIENTED_EDGE ( 'NONE', *, *, #27, .F. ) ;
#41 = STYLED_ITEM ( 'NONE', ( #92 ), #33 ) ;
#42 = CARTESIAN_POINT ( 'NONE',  ( -0.09374999999999954203, 2.500000000000000000, 0.000000000000000000 ) ) ;
#43 = DIRECTION ( 'NONE',  ( 1.000000000000000000, 0.000000000000000000, 0.000000000000000000 ) ) ;
#44 = AXIS2_PLACEMENT_3D ( 'NONE', #76, #220, #43 ) ;
#45 = EDGE_CURVE ( 'NONE', #251, #62, #217, .T. ) ;
#46 = DIRECTION ( 'NONE',  ( 0.000000000000000000, 0.000000000000000000, -1.000000000000000000 ) ) ;
#47 = PRESENTATION_STYLE_ASSIGNMENT (( #270 ) ) ;
#48 = DIRECTION ( 'NONE',  ( 2.041077998578922094E-16, 1.000000000000000000, -0.000000000000000000 ) ) ;
#49 = FACE_OUTER_BOUND ( 'NONE', #205, .T. ) ;
#50 = EDGE_LOOP ( 'NONE', ( #298, #101 ) ) ;
#51 = FILL_AREA_STYLE ('',( #23 ) ) ;
#52 =( GEOMETRIC_REPRESENTATION_CONTEXT ( 3 ) GLOBAL_UNCERTAINTY_ASSIGNED_CONTEXT ( ( #192 ) ) GLOBAL_UNIT_ASSIGNED_CONTEXT ( ( #78, #7, #279 ) ) REPRESENTATION_CONTEXT ( 'NONE', 'WORKASPACE' ) );
#53 = STYLED_ITEM ( 'NONE', ( #206 ), #240 ) ;
#54 = DIRECTION ( 'NONE',  ( -0.000000000000000000, -1.000000000000000000, -0.000000000000000000 ) ) ;
#55 = ORIENTED_EDGE ( 'NONE', *, *, #45, .F. ) ;
#56 = DIRECTION ( 'NONE',  ( 0.000000000000000000, 0.000000000000000000, -1.000000000000000000 ) ) ;
#57 = EDGE_CURVE ( 'NONE', #233, #204, #290, .T. ) ;
#58 = AXIS2_PLACEMENT_3D ( 'NONE', #152, #106, #34 ) ;
#59 = AXIS2_PLACEMENT_3D ( 'NONE', #185, #48, #89 ) ;
#60 = SURFACE_STYLE_USAGE ( .BOTH. , #186 ) ;
#61 = ADVANCED_FACE ( 'NONE', ( #75 ), #68, .T. ) ;
#62 = VERTEX_POINT ( 'NONE', #125 ) ;
#63 = SURFACE_SIDE_STYLE ('',( #110 ) ) ;
#64 =( NAMED_UNIT ( * ) PLANE_ANGLE_UNIT ( ) SI_UNIT ( $, .RADIAN. ) );
#65 = CIRCLE ( 'NONE', #309, 0.09375000000000001388 ) ;
#66 = FILL_AREA_STYLE_COLOUR ( '', #32 ) ;
#67 = DIMENSIONAL_EXPONENTS ( 1.000000000000000000, 0.000000000000000000, 0.000000000000000000, 0.000000000000000000, 0.000000000000000000, 0.000000000000000000, 0.000000000000000000 ) ;
#68 = CYLINDRICAL_SURFACE ( 'NONE', #291, 0.09374999999999984734 ) ;
#69 = CARTESIAN_POINT ( 'NONE',  ( 0.000000000000000000, 0.000000000000000000, 0.000000000000000000 ) ) ;
#70 = APPLICATION_PROTOCOL_DEFINITION ( 'draft international standard', 'automotive_design', 1998, #71 ) ;
#71 = APPLICATION_CONTEXT ( 'automotive_design' ) ;
#72 = DIRECTION ( 'NONE',  ( 0.000000000000000000, 0.000000000000000000, -1.000000000000000000 ) ) ;
#73 = DIRECTION ( 'NONE',  ( -1.000000000000000000, 0.000000000000000000, 0.000000000000000000 ) ) ;
#74 = DIRECTION ( 'NONE',  ( -0.000000000000000000, -1.000000000000000000, -0.000000000000000000 ) ) ;
#75 = FACE_OUTER_BOUND ( 'NONE', #84, .T. ) ;
#76 = CARTESIAN_POINT ( 'NONE',  ( 0.000000000000000000, 0.000000000000000000, 0.000000000000000000 ) ) ;
#77 = AXIS2_PLACEMENT_3D ( 'NONE', #96, #123, #218 ) ;
#78 =( CONVERSION_BASED_UNIT ( 'INCH', #275 ) LENGTH_UNIT ( ) NAMED_UNIT ( #139 ) );
#79 = FACE_OUTER_BOUND ( 'NONE', #258, .T. ) ;
#80 = SURFACE_STYLE_FILL_AREA ( #51 ) ;
#81 = STYLED_ITEM ( 'NONE', ( #177 ), #94 ) ;
#82 = CIRCLE ( 'NONE', #26, 0.09374999999999969469 ) ;
#83 = LENGTH_MEASURE_WITH_UNIT ( LENGTH_MEASURE( 0.02539999999999999897 ), #157 );
#84 = EDGE_LOOP ( 'NONE', ( #35, #11, #256, #169 ) ) ;
#85 = VERTEX_POINT ( 'NONE', #244 ) ;
#86 =( NAMED_UNIT ( * ) SI_UNIT ( $, .STERADIAN. ) SOLID_ANGLE_UNIT ( ) );
#87 = AXIS2_PLACEMENT_3D ( 'NONE', #164, #165, #20 ) ;
#88 =( NAMED_UNIT ( * ) PLANE_ANGLE_UNIT ( ) SI_UNIT ( $, .RADIAN. ) );
#89 = DIRECTION ( 'NONE',  ( -1.000000000000000000, 0.000000000000000000, 0.000000000000000000 ) ) ;
#90 = EDGE_CURVE ( 'NONE', #252, #251, #24, .T. ) ;
#91 = CARTESIAN_POINT ( 'NONE',  ( 0.000000000000000000, 0.000000000000000000, 0.000000000000000000 ) ) ;
#92 = PRESENTATION_STYLE_ASSIGNMENT (( #18 ) ) ;
#93 = CIRCLE ( 'NONE', #198, 0.09375000000000001388 ) ;
#94 = ADVANCED_FACE ( 'NONE', ( #79 ), #235, .T. ) ;
#95 = VERTEX_POINT ( 'NONE', #227 ) ;
#96 = CARTESIAN_POINT ( 'NONE',  ( 3.061616997868383141E-16, 2.500000000000000000, 0.000000000000000000 ) ) ;
#97 = STYLED_ITEM ( 'NONE', ( #47 ), #112 ) ;
#98 = SURFACE_SIDE_STYLE ('',( #1 ) ) ;
#99 = CYLINDRICAL_SURFACE ( 'NONE', #77, 0.09374999999999984734 ) ;
#100 = FACE_OUTER_BOUND ( 'NONE', #210, .T. ) ;
#101 = ORIENTED_EDGE ( 'NONE', *, *, #287, .F. ) ;
#102 = MECHANICAL_DESIGN_GEOMETRIC_PRESENTATION_REPRESENTATION (  '', ( #53 ), #142 ) ;
#103 = ADVANCED_FACE ( 'NONE', ( #49 ), #109, .T. ) ;
#104 = DIRECTION ( 'NONE',  ( -0.000000000000000000, -1.000000000000000000, -0.000000000000000000 ) ) ;
#105 = CARTESIAN_POINT ( 'NONE',  ( 1.952812217007627778E-33, 1.000000000000000000, 0.000000000000000000 ) ) ;
#106 = DIRECTION ( 'NONE',  ( -2.041077998578922341E-16, -1.000000000000000000, 0.000000000000000000 ) ) ;
#107 = LENGTH_MEASURE_WITH_UNIT ( LENGTH_MEASURE( 0.02539999999999999897 ), #155 );
#108 = ADVANCED_FACE ( 'NONE', ( #134 ), #299, .F. ) ;
#109 = CYLINDRICAL_SURFACE ( 'NONE', #10, 0.09375000000000001388 ) ;
#110 = SURFACE_STYLE_FILL_AREA ( #284 ) ;
#111 = MECHANICAL_DESIGN_GEOMETRIC_PRESENTATION_REPRESENTATION (  '', ( #81 ), #182 ) ;
#112 = ADVANCED_FACE ( 'NONE', ( #154 ), #170, .T. ) ;
#113 = ORIENTED_EDGE ( 'NONE', *, *, #126, .F. ) ;
#114 = DIMENSIONAL_EXPONENTS ( 1.000000000000000000, 0.000000000000000000, 0.000000000000000000, 0.000000000000000000, 0.000000000000000000, 0.000000000000000000, 0.000000000000000000 ) ;
#115 = DIRECTION ( 'NONE',  ( 0.000000000000000000, 0.000000000000000000, -1.000000000000000000 ) ) ;
#116 = ADVANCED_FACE ( 'NONE', ( #100 ), #99, .T. ) ;
#117 =( NAMED_UNIT ( * ) SI_UNIT ( $, .STERADIAN. ) SOLID_ANGLE_UNIT ( ) );
#118 = FILL_AREA_STYLE_COLOUR ( '', #190 ) ;
#119 = ORIENTED_EDGE ( 'NONE', *, *, #27, .T. ) ;
#120 = DIRECTION ( 'NONE',  ( -1.000000000000000000, 0.000000000000000000, 0.000000000000000000 ) ) ;
#121 = MECHANICAL_DESIGN_GEOMETRIC_PRESENTATION_REPRESENTATION (  '', ( #245 ), #52 ) ;
#122 = DIRECTION ( 'NONE',  ( -0.000000000000000000, -1.000000000000000000, -0.000000000000000000 ) ) ;
#123 = DIRECTION ( 'NONE',  ( 2.041077998578922094E-16, 1.000000000000000000, -0.000000000000000000 ) ) ;
#124 = DIRECTION ( 'NONE',  ( 0.000000000000000000, 0.000000000000000000, -1.000000000000000000 ) ) ;
#125 = CARTESIAN_POINT ( 'NONE',  ( 0.000000000000000000, 0.000000000000000000, -0.09375000000000001388 ) ) ;
#126 = EDGE_CURVE ( 'NONE', #233, #95, #181, .T. ) ;
#127 = DIRECTION ( 'NONE',  ( 2.041077998578922094E-16, 1.000000000000000000, -0.000000000000000000 ) ) ;
#128 =( NAMED_UNIT ( * ) PLANE_ANGLE_UNIT ( ) SI_UNIT ( $, .RADIAN. ) );
#129 = VECTOR ( 'NONE', #122, 39.37007874015748143 ) ;
#130 = AXIS2_PLACEMENT_3D ( 'NONE', #147, #9, #56 ) ;
#131 = EDGE_CURVE ( 'NONE', #95, #233, #93, .T. ) ;
#132 =( CONVERSION_BASED_UNIT ( 'INCH', #292 ) LENGTH_UNIT ( ) NAMED_UNIT ( #188 ) );
#133 = ORIENTED_EDGE ( 'NONE', *, *, #45, .T. ) ;
#134 = FACE_OUTER_BOUND ( 'NONE', #269, .T. ) ;
#135 = ORIENTED_EDGE ( 'NONE', *, *, #57, .F. ) ;
#136 = VERTEX_POINT ( 'NONE', #246 ) ;
#137 = PRESENTATION_LAYER_ASSIGNMENT (  '', '', ( #274 ) ) ;
#138 =( CONVERSION_BASED_UNIT ( 'INCH', #83 ) LENGTH_UNIT ( ) NAMED_UNIT ( #191 ) );
#139 = DIMENSIONAL_EXPONENTS ( 1.000000000000000000, 0.000000000000000000, 0.000000000000000000, 0.000000000000000000, 0.000000000000000000, 0.000000000000000000, 0.000000000000000000 ) ;
#140 = PRODUCT ( '81553', '81553', '', ( #238 ) ) ;
#141 = MECHANICAL_DESIGN_GEOMETRIC_PRESENTATION_REPRESENTATION (  '', ( #97 ), #229 ) ;
#142 =( GEOMETRIC_REPRESENTATION_CONTEXT ( 3 ) GLOBAL_UNCERTAINTY_ASSIGNED_CONTEXT ( ( #208 ) ) GLOBAL_UNIT_ASSIGNED_CONTEXT ( ( #162, #266, #117 ) ) REPRESENTATION_CONTEXT ( 'NONE', 'WORKASPACE' ) );
#143 =( NAMED_UNIT ( * ) SI_UNIT ( $, .STERADIAN. ) SOLID_ANGLE_UNIT ( ) );
#144 = UNCERTAINTY_MEASURE_WITH_UNIT (LENGTH_MEASURE( 1.000000000000000082E-05 ), #203, 'distance_accuracy_value', 'NONE');
#145 = CLOSED_SHELL ( 'NONE', ( #61, #248, #116, #108 ) ) ;
#146 =( LENGTH_UNIT ( ) NAMED_UNIT ( * ) SI_UNIT ( $, .METRE. ) );
#147 = CARTESIAN_POINT ( 'NONE',  ( 0.000000000000000000, 1.000000000000000000, 0.000000000000000000 ) ) ;
#148 =( GEOMETRIC_REPRESENTATION_CONTEXT ( 3 ) GLOBAL_UNCERTAINTY_ASSIGNED_CONTEXT ( ( #272 ) ) GLOBAL_UNIT_ASSIGNED_CONTEXT ( ( #138, #12, #2 ) ) REPRESENTATION_CONTEXT ( 'NONE', 'WORKASPACE' ) );
#149 = CARTESIAN_POINT ( 'NONE',  ( -6.065921084684207584E-32, 1.000000000000000000, 0.000000000000000000 ) ) ;
#150 = UNCERTAINTY_MEASURE_WITH_UNIT (LENGTH_MEASURE( 1.000000000000000082E-05 ), #174, 'distance_accuracy_value', 'NONE');
#151 = ORIENTED_EDGE ( 'NONE', *, *, #209, .T. ) ;
#152 = CARTESIAN_POINT ( 'NONE',  ( 0.09375000000000001388, 2.500000000000000000, 0.000000000000000000 ) ) ;
#153 = AXIS2_PLACEMENT_3D ( 'NONE', #91, #268, #46 ) ;
#154 = FACE_OUTER_BOUND ( 'NONE', #50, .T. ) ;
#155 =( LENGTH_UNIT ( ) NAMED_UNIT ( * ) SI_UNIT ( $, .METRE. ) );
#156 = FILL_AREA_STYLE ('',( #3 ) ) ;
#157 =( LENGTH_UNIT ( ) NAMED_UNIT ( * ) SI_UNIT ( $, .METRE. ) );
#158 = SURFACE_STYLE_USAGE ( .BOTH. , #63 ) ;
#159 = DIRECTION ( 'NONE',  ( 2.041077998578922094E-16, 1.000000000000000000, -0.000000000000000000 ) ) ;
#160 = PRESENTATION_LAYER_ASSIGNMENT (  '', '', ( #41 ) ) ;
#161 = ADVANCED_FACE ( 'NONE', ( #29 ), #304, .T. ) ;
#162 =( CONVERSION_BASED_UNIT ( 'INCH', #259 ) LENGTH_UNIT ( ) NAMED_UNIT ( #67 ) );
#163 = DIRECTION ( 'NONE',  ( 2.041077998578922341E-16, 1.000000000000000000, -0.000000000000000000 ) ) ;
#164 = CARTESIAN_POINT ( 'NONE',  ( 0.000000000000000000, 0.000000000000000000, 0.000000000000000000 ) ) ;
#165 = DIRECTION ( 'NONE',  ( -0.000000000000000000, -1.000000000000000000, -0.000000000000000000 ) ) ;
#166 = AXIS2_PLACEMENT_3D ( 'NONE', #69, #216, #72 ) ;
#167 = SURFACE_SIDE_STYLE ('',( #289 ) ) ;
#168 = DIRECTION ( 'NONE',  ( -1.000000000000000000, 0.000000000000000000, 0.000000000000000000 ) ) ;
#169 = ORIENTED_EDGE ( 'NONE', *, *, #172, .F. ) ;
#170 = PLANE ( 'NONE',  #263 ) ;
#171 = CARTESIAN_POINT ( 'NONE',  ( 3.061616997868383141E-16, 2.500000000000000000, 0.000000000000000000 ) ) ;
#172 = EDGE_CURVE ( 'NONE', #95, #85, #262, .T. ) ;
#173 = CIRCLE ( 'NONE', #87, 0.09375000000000001388 ) ;
#174 =( CONVERSION_BASED_UNIT ( 'INCH', #219 ) LENGTH_UNIT ( ) NAMED_UNIT ( #39 ) );
#175 = ORIENTED_EDGE ( 'NONE', *, *, #287, .T. ) ;
#176 = ORIENTED_EDGE ( 'NONE', *, *, #187, .T. ) ;
#177 = PRESENTATION_STYLE_ASSIGNMENT (( #37 ) ) ;
#178 = CIRCLE ( 'NONE', #59, 0.09374999999999969469 ) ;
#179 = EDGE_LOOP ( 'NONE', ( #119, #133 ) ) ;
#180 = CARTESIAN_POINT ( 'NONE',  ( 1.148106374200643863E-17, 1.000000000000000000, 0.09375000000000001388 ) ) ;
#181 = CIRCLE ( 'NONE', #212, 0.09375000000000001388 ) ;
#182 =( GEOMETRIC_REPRESENTATION_CONTEXT ( 3 ) GLOBAL_UNCERTAINTY_ASSIGNED_CONTEXT ( ( #144 ) ) GLOBAL_UNIT_ASSIGNED_CONTEXT ( ( #203, #128, #86 ) ) REPRESENTATION_CONTEXT ( 'NONE', 'WORKASPACE' ) );
#183 = DIRECTION ( 'NONE',  ( -1.000000000000000000, 0.000000000000000000, 0.000000000000000000 ) ) ;
#184 = SURFACE_STYLE_FILL_AREA ( #230 ) ;
#185 = CARTESIAN_POINT ( 'NONE',  ( 3.061616997868383141E-16, 2.500000000000000000, 0.000000000000000000 ) ) ;
#186 = SURFACE_SIDE_STYLE ('',( #184 ) ) ;
#187 = EDGE_CURVE ( 'NONE', #136, #62, #237, .T. ) ;
#188 = DIMENSIONAL_EXPONENTS ( 1.000000000000000000, 0.000000000000000000, 0.000000000000000000, 0.000000000000000000, 0.000000000000000000, 0.000000000000000000, 0.000000000000000000 ) ;
#189 = CARTESIAN_POINT ( 'NONE',  ( 3.061616997868383141E-16, 2.500000000000000000, 0.000000000000000000 ) ) ;
#190 = COLOUR_RGB ( '',1.000000000000000000, 0.000000000000000000, 0.000000000000000000 ) ;
#191 = DIMENSIONAL_EXPONENTS ( 1.000000000000000000, 0.000000000000000000, 0.000000000000000000, 0.000000000000000000, 0.000000000000000000, 0.000000000000000000, 0.000000000000000000 ) ;
#192 = UNCERTAINTY_MEASURE_WITH_UNIT (LENGTH_MEASURE( 1.000000000000000082E-05 ), #78, 'distance_accuracy_value', 'NONE');
#193 = PRODUCT_DEFINITION ( 'UNKNOWN', '', #232, #199 ) ;
#194 = CIRCLE ( 'NONE', #130, 0.09375000000000001388 ) ;
#195 = CARTESIAN_POINT ( 'NONE',  ( 0.09375000000000016653, 2.500000000000000000, 1.148106374200641860E-17 ) ) ;
#196 =( NAMED_UNIT ( * ) PLANE_ANGLE_UNIT ( ) SI_UNIT ( $, .RADIAN. ) );
#197 = CARTESIAN_POINT ( 'NONE',  ( -6.065921084684207584E-32, 1.000000000000000000, 0.000000000000000000 ) ) ;
#198 = AXIS2_PLACEMENT_3D ( 'NONE', #197, #221, #73 ) ;
#199 = PRODUCT_DEFINITION_CONTEXT ( 'detailed design', #247, 'design' ) ;
#200 = CARTESIAN_POINT ( 'NONE',  ( 0.000000000000000000, 0.000000000000000000, 0.000000000000000000 ) ) ;
#201 = PRODUCT_RELATED_PRODUCT_CATEGORY ( 'part', '', ( #140 ) ) ;
#202 = CARTESIAN_POINT ( 'NONE',  ( 0.000000000000000000, 1.000000000000000000, 0.000000000000000000 ) ) ;
#203 =( CONVERSION_BASED_UNIT ( 'INCH', #107 ) LENGTH_UNIT ( ) NAMED_UNIT ( #114 ) );
#204 = VERTEX_POINT ( 'NONE', #8 ) ;
#205 = EDGE_LOOP ( 'NONE', ( #297, #175, #176, #55 ) ) ;
#206 = PRESENTATION_STYLE_ASSIGNMENT (( #158 ) ) ;
#207 =( CONVERSION_BASED_UNIT ( 'INCH', #13 ) LENGTH_UNIT ( ) NAMED_UNIT ( #31 ) );
#208 = UNCERTAINTY_MEASURE_WITH_UNIT (LENGTH_MEASURE( 1.000000000000000082E-05 ), #162, 'distance_accuracy_value', 'NONE');
#209 = EDGE_CURVE ( 'NONE', #85, #204, #178, .T. ) ;
#210 = EDGE_LOOP ( 'NONE', ( #135, #283, #280, #242 ) ) ;
#211 = ORIENTED_EDGE ( 'NONE', *, *, #255, .T. ) ;
#212 = AXIS2_PLACEMENT_3D ( 'NONE', #149, #127, #120 ) ;
#213 = DIRECTION ( 'NONE',  ( 0.000000000000000000, 1.000000000000000000, 0.000000000000000000 ) ) ;
#214 = SHAPE_DEFINITION_REPRESENTATION ( #234, #249 ) ;
#215 = EDGE_CURVE ( 'NONE', #204, #85, #82, .T. ) ;
#216 = DIRECTION ( 'NONE',  ( -0.000000000000000000, -1.000000000000000000, -0.000000000000000000 ) ) ;
#217 = CIRCLE ( 'NONE', #166, 0.09375000000000001388 ) ;
#218 = DIRECTION ( 'NONE',  ( -1.000000000000000000, 0.000000000000000000, 0.000000000000000000 ) ) ;
#219 = LENGTH_MEASURE_WITH_UNIT ( LENGTH_MEASURE( 0.02539999999999999897 ), #146 );
#220 = DIRECTION ( 'NONE',  ( 0.000000000000000000, 0.000000000000000000, 1.000000000000000000 ) ) ;
#221 = DIRECTION ( 'NONE',  ( 2.041077998578922094E-16, 1.000000000000000000, -0.000000000000000000 ) ) ;
#222 =( GEOMETRIC_REPRESENTATION_CONTEXT ( 3 ) GLOBAL_UNCERTAINTY_ASSIGNED_CONTEXT ( ( #243 ) ) GLOBAL_UNIT_ASSIGNED_CONTEXT ( ( #207, #64, #143 ) ) REPRESENTATION_CONTEXT ( 'NONE', 'WORKASPACE' ) );
#223 = ORIENTED_EDGE ( 'NONE', *, *, #215, .T. ) ;
#224 = CARTESIAN_POINT ( 'NONE',  ( 0.000000000000000000, 0.000000000000000000, -0.09375000000000001388 ) ) ;
#225 = CARTESIAN_POINT ( 'NONE',  ( 1.148106374200643863E-17, 0.000000000000000000, 0.09375000000000001388 ) ) ;
#226 = DIRECTION ( 'NONE',  ( 2.041077998578922341E-16, 1.000000000000000000, -0.000000000000000000 ) ) ;
#227 = CARTESIAN_POINT ( 'NONE',  ( -0.09375000000000001388, 1.000000000000000000, 0.000000000000000000 ) ) ;
#228 = ORIENTED_EDGE ( 'NONE', *, *, #131, .F. ) ;
#229 =( GEOMETRIC_REPRESENTATION_CONTEXT ( 3 ) GLOBAL_UNCERTAINTY_ASSIGNED_CONTEXT ( ( #22 ) ) GLOBAL_UNIT_ASSIGNED_CONTEXT ( ( #132, #88, #261 ) ) REPRESENTATION_CONTEXT ( 'NONE', 'WORKASPACE' ) );
#230 = FILL_AREA_STYLE ('',( #66 ) ) ;
#231 = VECTOR ( 'NONE', #28, 39.37007874015748143 ) ;
#232 = PRODUCT_DEFINITION_FORMATION_WITH_SPECIFIED_SOURCE ( 'ANY', '', #140, .NOT_KNOWN. ) ;
#233 = VERTEX_POINT ( 'NONE', #282 ) ;
#234 = PRODUCT_DEFINITION_SHAPE ( 'NONE', 'NONE',  #193 ) ;
#235 = CYLINDRICAL_SURFACE ( 'NONE', #14, 0.09375000000000001388 ) ;
#236 = FACE_OUTER_BOUND ( 'NONE', #276, .T. ) ;
#237 = LINE ( 'NONE', #224, #6 ) ;
#238 = PRODUCT_CONTEXT ( 'NONE', #71, 'mechanical' ) ;
#239 = COLOUR_RGB ( '',1.000000000000000000, 0.000000000000000000, 0.000000000000000000 ) ;
#240 = MANIFOLD_SOLID_BREP ( 'Revolve - Cutting Edge', #303 ) ;
#241 = DIRECTION ( 'NONE',  ( -0.000000000000000000, -1.000000000000000000, -0.000000000000000000 ) ) ;
#242 = ORIENTED_EDGE ( 'NONE', *, *, #215, .F. ) ;
#243 = UNCERTAINTY_MEASURE_WITH_UNIT (LENGTH_MEASURE( 1.000000000000000082E-05 ), #207, 'distance_accuracy_value', 'NONE');
#244 = CARTESIAN_POINT ( 'NONE',  ( -0.09374999999999938938, 2.500000000000000000, 0.000000000000000000 ) ) ;
#245 = STYLED_ITEM ( 'NONE', ( #308 ), #103 ) ;
#246 = CARTESIAN_POINT ( 'NONE',  ( 0.000000000000000000, 1.000000000000000000, -0.09375000000000001388 ) ) ;
#247 = APPLICATION_CONTEXT ( 'automotive_design' ) ;
#248 = ADVANCED_FACE ( 'NONE', ( #236 ), #296, .F. ) ;
#249 = ADVANCED_BREP_SHAPE_REPRESENTATION ( '81553', ( #240, #33, #44 ), #148 ) ;
#250 = MECHANICAL_DESIGN_GEOMETRIC_PRESENTATION_REPRESENTATION (  '', ( #41 ), #293 ) ;
#251 = VERTEX_POINT ( 'NONE', #225 ) ;
#252 = VERTEX_POINT ( 'NONE', #180 ) ;
#253 = DIRECTION ( 'NONE',  ( 0.000000000000000000, -0.000000000000000000, 1.000000000000000000 ) ) ;
#254 = FILL_AREA_STYLE ('',( #295 ) ) ;
#255 = EDGE_CURVE ( 'NONE', #136, #252, #65, .T. ) ;
#256 = ORIENTED_EDGE ( 'NONE', *, *, #209, .F. ) ;
#257 = SURFACE_STYLE_USAGE ( .BOTH. , #98 ) ;
#258 = EDGE_LOOP ( 'NONE', ( #211, #278, #40, #306 ) ) ;
#259 = LENGTH_MEASURE_WITH_UNIT ( LENGTH_MEASURE( 0.02539999999999999897 ), #15 );
#260 = FILL_AREA_STYLE_COLOUR ( '', #265 ) ;
#261 =( NAMED_UNIT ( * ) SI_UNIT ( $, .STERADIAN. ) SOLID_ANGLE_UNIT ( ) );
#262 = LINE ( 'NONE', #42, #19 ) ;
#263 = AXIS2_PLACEMENT_3D ( 'NONE', #288, #213, #253 ) ;
#264 = SURFACE_STYLE_FILL_AREA ( #156 ) ;
#265 = COLOUR_RGB ( '',0.7921568627450980005, 0.8196078431372548767, 0.9333333333333333481 ) ;
#266 =( NAMED_UNIT ( * ) PLANE_ANGLE_UNIT ( ) SI_UNIT ( $, .RADIAN. ) );
#267 = PRESENTATION_LAYER_ASSIGNMENT (  '', '', ( #53 ) ) ;
#268 = DIRECTION ( 'NONE',  ( 0.000000000000000000, -1.000000000000000000, -0.000000000000000000 ) ) ;
#269 = EDGE_LOOP ( 'NONE', ( #151, #223 ) ) ;
#270 = SURFACE_STYLE_USAGE ( .BOTH. , #167 ) ;
#271 =( LENGTH_UNIT ( ) NAMED_UNIT ( * ) SI_UNIT ( $, .METRE. ) );
#272 = UNCERTAINTY_MEASURE_WITH_UNIT (LENGTH_MEASURE( 1.000000000000000082E-05 ), #138, 'distance_accuracy_value', 'NONE');
#273 = CARTESIAN_POINT ( 'NONE',  ( 0.000000000000000000, 0.000000000000000000, 0.000000000000000000 ) ) ;
#274 = STYLED_ITEM ( 'NONE', ( #38 ), #161 ) ;
#275 = LENGTH_MEASURE_WITH_UNIT ( LENGTH_MEASURE( 0.02539999999999999897 ), #294 );
#276 = EDGE_LOOP ( 'NONE', ( #228, #113 ) ) ;
#277 = PRESENTATION_LAYER_ASSIGNMENT (  '', '', ( #97 ) ) ;
#278 = ORIENTED_EDGE ( 'NONE', *, *, #90, .T. ) ;
#279 =( NAMED_UNIT ( * ) SI_UNIT ( $, .STERADIAN. ) SOLID_ANGLE_UNIT ( ) );
#280 = ORIENTED_EDGE ( 'NONE', *, *, #172, .T. ) ;
#281 = COLOUR_RGB ( '',0.7921568627450980005, 0.8196078431372548767, 0.9333333333333333481 ) ;
#282 = CARTESIAN_POINT ( 'NONE',  ( 0.09375000000000001388, 1.000000000000000000, 1.148106374200642938E-17 ) ) ;
#283 = ORIENTED_EDGE ( 'NONE', *, *, #126, .T. ) ;
#284 = FILL_AREA_STYLE ('',( #260 ) ) ;
#285 = PRESENTATION_LAYER_ASSIGNMENT (  '', '', ( #245 ) ) ;
#286 = AXIS2_PLACEMENT_3D ( 'NONE', #105, #226, #36 ) ;
#287 = EDGE_CURVE ( 'NONE', #252, #136, #194, .T. ) ;
#288 = CARTESIAN_POINT ( 'NONE',  ( 0.000000000000000000, 1.000000000000000000, 0.000000000000000000 ) ) ;
#289 = SURFACE_STYLE_FILL_AREA ( #307 ) ;
#290 = LINE ( 'NONE', #195, #231 ) ;
#291 = AXIS2_PLACEMENT_3D ( 'NONE', #171, #30, #168 ) ;
#292 = LENGTH_MEASURE_WITH_UNIT ( LENGTH_MEASURE( 0.02539999999999999897 ), #271 );
#293 =( GEOMETRIC_REPRESENTATION_CONTEXT ( 3 ) GLOBAL_UNCERTAINTY_ASSIGNED_CONTEXT ( ( #150 ) ) GLOBAL_UNIT_ASSIGNED_CONTEXT ( ( #174, #196, #21 ) ) REPRESENTATION_CONTEXT ( 'NONE', 'WORKASPACE' ) );
#294 =( LENGTH_UNIT ( ) NAMED_UNIT ( * ) SI_UNIT ( $, .METRE. ) );
#295 = FILL_AREA_STYLE_COLOUR ( '', #239 ) ;
#296 = PLANE ( 'NONE',  #286 ) ;
#297 = ORIENTED_EDGE ( 'NONE', *, *, #90, .F. ) ;
#298 = ORIENTED_EDGE ( 'NONE', *, *, #255, .F. ) ;
#299 = PLANE ( 'NONE',  #58 ) ;
#300 = SURFACE_SIDE_STYLE ('',( #80 ) ) ;
#301 =( LENGTH_UNIT ( ) NAMED_UNIT ( * ) SI_UNIT ( $, .METRE. ) );
#302 = DIRECTION ( 'NONE',  ( 0.000000000000000000, 0.000000000000000000, -1.000000000000000000 ) ) ;
#303 = CLOSED_SHELL ( 'NONE', ( #94, #112, #103, #161 ) ) ;
#304 = PLANE ( 'NONE',  #153 ) ;
#305 = MECHANICAL_DESIGN_GEOMETRIC_PRESENTATION_REPRESENTATION (  '', ( #274 ), #222 ) ;
#306 = ORIENTED_EDGE ( 'NONE', *, *, #187, .F. ) ;
#307 = FILL_AREA_STYLE ('',( #118 ) ) ;
#308 = PRESENTATION_STYLE_ASSIGNMENT (( #60 ) ) ;
#309 = AXIS2_PLACEMENT_3D ( 'NONE', #202, #241, #115 ) ;
ENDSEC;
END-ISO-10303-21;
