ISO-10303-21;
HEADER;
FILE_DESCRIPTION (( 'STEP AP214' ),
    '1' );
FILE_NAME ('Micro_DMM-030-290.STEP',
    '2021-09-02T16:14:18',
    ( '' ),
    ( '' ),
    'SwSTEP 2.0',
    'SolidWorks 2020',
    '' );
FILE_SCHEMA (( 'AUTOMOTIVE_DESIGN' ));
ENDSEC;

DATA;
#1 = CARTESIAN_POINT ( 'NONE',  ( 0.0000000000000000000, 0.0000000000000000000, 1.496062999999999921 ) ) ;
#2 = ORIENTED_EDGE ( 'NONE', *, *, #177, .T. ) ;
#3 = AXIS2_PLACEMENT_3D ( 'NONE', #264, #38, #192 ) ;
#4 = VECTOR ( 'NONE', #326, 39.37007874015748143 ) ;
#5 = SURFACE_STYLE_USAGE ( .BOTH. , #236 ) ;
#6 = ORIENTED_EDGE ( 'NONE', *, *, #160, .F. ) ;
#7 = CIRCLE ( 'NONE', #322, 0.007499999999999999722 ) ;
#8 = APPLICATION_PROTOCOL_DEFINITION ( 'draft international standard', 'automotive_design', 1998, #175 ) ;
#9 = FACE_OUTER_BOUND ( 'NONE', #255, .T. ) ;
#10 = FACE_BOUND ( 'NONE', #53, .T. ) ;
#11 = ORIENTED_EDGE ( 'NONE', *, *, #143, .T. ) ;
#12 = ORIENTED_EDGE ( 'NONE', *, *, #115, .T. ) ;
#13 = CARTESIAN_POINT ( 'NONE',  ( -0.04405500000000001082, 0.0000000000000000000, 1.496062999999999921 ) ) ;
#14 = ORIENTED_EDGE ( 'NONE', *, *, #302, .T. ) ;
#15 =( NAMED_UNIT ( * ) PLANE_ANGLE_UNIT ( ) SI_UNIT ( $, .RADIAN. ) );
#16 = AXIS2_PLACEMENT_3D ( 'NONE', #188, #218, #286 ) ;
#17 = STYLED_ITEM ( 'NONE', ( #84 ), #250 ) ;
#18 = CARTESIAN_POINT ( 'NONE',  ( 0.05900500000000002271, 0.0000000000000000000, 0.05150499999999980788 ) ) ;
#19 = CARTESIAN_POINT ( 'NONE',  ( -0.007499999999999999722, 9.184850993605147975E-19, 1.707404996040164512E-17 ) ) ;
#20 = EDGE_CURVE ( 'NONE', #190, #76, #27, .T. ) ;
#21 = CARTESIAN_POINT ( 'NONE',  ( 0.0000000000000000000, 0.0000000000000000000, 0.3149610000000000465 ) ) ;
#22 = LINE ( 'NONE', #272, #68 ) ;
#23 = APPLICATION_CONTEXT ( 'automotive_design' ) ;
#24 = UNCERTAINTY_MEASURE_WITH_UNIT (LENGTH_MEASURE( 1.000000000000000082E-05 ), #40, 'distance_accuracy_value', 'NONE');
#25 = DIRECTION ( 'NONE',  ( -1.000000000000000000, 0.0000000000000000000, 0.0000000000000000000 ) ) ;
#26 = VERTEX_POINT ( 'NONE', #90 ) ;
#27 = CIRCLE ( 'NONE', #3, 0.05905499999999998251 ) ;
#28 =( NAMED_UNIT ( * ) PLANE_ANGLE_UNIT ( ) SI_UNIT ( $, .RADIAN. ) );
#29 = VERTEX_POINT ( 'NONE', #213 ) ;
#30 = CARTESIAN_POINT ( 'NONE',  ( 0.0000000000000000000, 0.0000000000000000000, 1.496062999999999921 ) ) ;
#31 = AXIS2_PLACEMENT_3D ( 'NONE', #50, #56, #78 ) ;
#32 = LINE ( 'NONE', #141, #168 ) ;
#33 = ORIENTED_EDGE ( 'NONE', *, *, #161, .F. ) ;
#34 = ADVANCED_FACE ( 'NONE', ( #313 ), #227, .T. ) ;
#35 = CARTESIAN_POINT ( 'NONE',  ( 0.04405500000000001082, 5.395181473643666598E-18, 1.496062999999999921 ) ) ;
#36 = CARTESIAN_POINT ( 'NONE',  ( 0.0000000000000000000, 0.0000000000000000000, 1.496062999999999921 ) ) ;
#37 =( LENGTH_UNIT ( ) NAMED_UNIT ( * ) SI_UNIT ( $, .METRE. ) );
#38 = DIRECTION ( 'NONE',  ( 0.0000000000000000000, 0.0000000000000000000, -1.000000000000000000 ) ) ;
#39 = ORIENTED_EDGE ( 'NONE', *, *, #161, .T. ) ;
#40 =( CONVERSION_BASED_UNIT ( 'INCH', #121 ) LENGTH_UNIT ( ) NAMED_UNIT ( #41 ) );
#41 = DIMENSIONAL_EXPONENTS ( 1.000000000000000000, 0.0000000000000000000, 0.0000000000000000000, 0.0000000000000000000, 0.0000000000000000000, 0.0000000000000000000, 0.0000000000000000000 ) ;
#42 = CARTESIAN_POINT ( 'NONE',  ( 0.0000000000000000000, 0.0000000000000000000, 1.707404996040164512E-17 ) ) ;
#43 = DIRECTION ( 'NONE',  ( -0.0000000000000000000, -0.0000000000000000000, -1.000000000000000000 ) ) ;
#44 = EDGE_CURVE ( 'NONE', #283, #279, #184, .T. ) ;
#45 = FACE_OUTER_BOUND ( 'NONE', #321, .T. ) ;
#46 = DIRECTION ( 'NONE',  ( 1.000000000000000000, 0.0000000000000000000, -0.0000000000000000000 ) ) ;
#47 = FACE_OUTER_BOUND ( 'NONE', #136, .T. ) ;
#48 = ORIENTED_EDGE ( 'NONE', *, *, #80, .F. ) ;
#49 = ORIENTED_EDGE ( 'NONE', *, *, #266, .F. ) ;
#50 = CARTESIAN_POINT ( 'NONE',  ( 0.0000000000000000000, 0.0000000000000000000, 0.0000000000000000000 ) ) ;
#51 = VECTOR ( 'NONE', #315, 39.37007874015748854 ) ;
#52 = DIRECTION ( 'NONE',  ( -0.0000000000000000000, -0.0000000000000000000, -1.000000000000000000 ) ) ;
#53 = EDGE_LOOP ( 'NONE', ( #155, #6 ) ) ;
#54 = ADVANCED_BREP_SHAPE_REPRESENTATION ( 'Micro_DMM-030-290', ( #250, #228 ), #64 ) ;
#55 = EDGE_CURVE ( 'NONE', #76, #29, #159, .T. ) ;
#56 = DIRECTION ( 'NONE',  ( 0.0000000000000000000, 0.0000000000000000000, 1.000000000000000000 ) ) ;
#57 = DIRECTION ( 'NONE',  ( 0.0000000000000000000, 0.0000000000000000000, 1.000000000000000000 ) ) ;
#58 = CIRCLE ( 'NONE', #138, 0.05905499999999998251 ) ;
#59 = VERTEX_POINT ( 'NONE', #268 ) ;
#60 = DIRECTION ( 'NONE',  ( 0.0000000000000000000, 0.0000000000000000000, -1.000000000000000000 ) ) ;
#61 = DIRECTION ( 'NONE',  ( 0.0000000000000000000, 0.0000000000000000000, 1.000000000000000000 ) ) ;
#62 =( NAMED_UNIT ( * ) SI_UNIT ( $, .STERADIAN. ) SOLID_ANGLE_UNIT ( ) );
#63 = DIMENSIONAL_EXPONENTS ( 1.000000000000000000, 0.0000000000000000000, 0.0000000000000000000, 0.0000000000000000000, 0.0000000000000000000, 0.0000000000000000000, 0.0000000000000000000 ) ;
#64 =( GEOMETRIC_REPRESENTATION_CONTEXT ( 3 ) GLOBAL_UNCERTAINTY_ASSIGNED_CONTEXT ( ( #176 ) ) GLOBAL_UNIT_ASSIGNED_CONTEXT ( ( #287, #291, #88 ) ) REPRESENTATION_CONTEXT ( 'NONE', 'WORKASPACE' ) );
#65 = EDGE_LOOP ( 'NONE', ( #207, #260 ) ) ;
#66 = DIRECTION ( 'NONE',  ( -1.000000000000000000, 0.0000000000000000000, 0.0000000000000000000 ) ) ;
#67 = DIRECTION ( 'NONE',  ( 0.0000000000000000000, 0.0000000000000000000, 1.000000000000000000 ) ) ;
#68 = VECTOR ( 'NONE', #173, 39.37007874015748143 ) ;
#69 = CARTESIAN_POINT ( 'NONE',  ( 0.05905499999999998251, 7.232151672364692341E-18, 1.481063000000000240 ) ) ;
#70 = EDGE_CURVE ( 'NONE', #129, #203, #295, .T. ) ;
#71 = CONICAL_SURFACE ( 'NONE', #238, 0.007499999999999999722, 0.7853981633974504994 ) ;
#72 = ADVANCED_FACE ( 'NONE', ( #45 ), #144, .T. ) ;
#73 = DIRECTION ( 'NONE',  ( -0.0000000000000000000, -0.0000000000000000000, -1.000000000000000000 ) ) ;
#74 = LINE ( 'NONE', #146, #4 ) ;
#75 = LINE ( 'NONE', #19, #202 ) ;
#76 = VERTEX_POINT ( 'NONE', #69 ) ;
#77 = ORIENTED_EDGE ( 'NONE', *, *, #106, .T. ) ;
#78 = DIRECTION ( 'NONE',  ( 1.000000000000000000, 0.0000000000000000000, -0.0000000000000000000 ) ) ;
#79 = ORIENTED_EDGE ( 'NONE', *, *, #44, .T. ) ;
#80 = EDGE_CURVE ( 'NONE', #279, #283, #214, .T. ) ;
#81 = CARTESIAN_POINT ( 'NONE',  ( 0.0000000000000000000, 0.0000000000000000000, 0.0000000000000000000 ) ) ;
#82 = PRODUCT_DEFINITION_SHAPE ( 'NONE', 'NONE',  #199 ) ;
#83 = PRODUCT_RELATED_PRODUCT_CATEGORY ( 'part', '', ( #179 ) ) ;
#84 = PRESENTATION_STYLE_ASSIGNMENT (( #5 ) ) ;
#85 = ORIENTED_EDGE ( 'NONE', *, *, #91, .T. ) ;
#86 = CIRCLE ( 'NONE', #162, 0.05900500000000007128 ) ;
#87 = AXIS2_PLACEMENT_3D ( 'NONE', #30, #281, #305 ) ;
#88 =( NAMED_UNIT ( * ) SI_UNIT ( $, .STERADIAN. ) SOLID_ANGLE_UNIT ( ) );
#89 = FACE_OUTER_BOUND ( 'NONE', #65, .T. ) ;
#90 = CARTESIAN_POINT ( 'NONE',  ( 0.05900500000000007822, 7.226028438368966682E-18, 0.3149610000000000465 ) ) ;
#91 = EDGE_CURVE ( 'NONE', #163, #203, #75, .T. ) ;
#92 = DIRECTION ( 'NONE',  ( -0.7071067811865536790, 0.0000000000000000000, -0.7071067811865412445 ) ) ;
#93 = CARTESIAN_POINT ( 'NONE',  ( 0.0000000000000000000, 0.0000000000000000000, 0.05150499999999980788 ) ) ;
#94 = PRESENTATION_STYLE_ASSIGNMENT (( #223 ) ) ;
#95 = DIRECTION ( 'NONE',  ( 1.000000000000000000, 0.0000000000000000000, 0.0000000000000000000 ) ) ;
#96 = CARTESIAN_POINT ( 'NONE',  ( 0.007499999999999999722, 0.0000000000000000000, 1.707404996040164512E-17 ) ) ;
#97 = ORIENTED_EDGE ( 'NONE', *, *, #317, .F. ) ;
#98 = CARTESIAN_POINT ( 'NONE',  ( 0.0000000000000000000, 0.0000000000000000000, 0.3149610000000000465 ) ) ;
#99 = COLOUR_RGB ( '',0.7921568627450980005, 0.8196078431372548767, 0.9333333333333333481 ) ;
#100 = CARTESIAN_POINT ( 'NONE',  ( 0.0000000000000000000, 0.0000000000000000000, 0.3149610000000000465 ) ) ;
#101 = CARTESIAN_POINT ( 'NONE',  ( 0.0000000000000000000, 0.0000000000000000000, 0.3149610000000000465 ) ) ;
#102 = ORIENTED_EDGE ( 'NONE', *, *, #106, .F. ) ;
#103 = AXIS2_PLACEMENT_3D ( 'NONE', #258, #52, #231 ) ;
#104 = FACE_OUTER_BOUND ( 'NONE', #217, .T. ) ;
#105 = EDGE_LOOP ( 'NONE', ( #306, #85, #152, #263 ) ) ;
#106 = EDGE_CURVE ( 'NONE', #59, #203, #22, .T. ) ;
#107 = AXIS2_PLACEMENT_3D ( 'NONE', #1, #229, #298 ) ;
#108 = COLOUR_RGB ( '',0.7921568627450980005, 0.8196078431372548767, 0.9333333333333333481 ) ;
#109 = CYLINDRICAL_SURFACE ( 'NONE', #103, 0.05905499999999998251 ) ;
#110 = ORIENTED_EDGE ( 'NONE', *, *, #20, .T. ) ;
#111 = AXIS2_PLACEMENT_3D ( 'NONE', #127, #67, #46 ) ;
#112 = DIRECTION ( 'NONE',  ( -0.0000000000000000000, 0.0000000000000000000, -1.000000000000000000 ) ) ;
#113 = ORIENTED_EDGE ( 'NONE', *, *, #187, .T. ) ;
#114 = CARTESIAN_POINT ( 'NONE',  ( 0.0000000000000000000, 0.0000000000000000000, 0.0000000000000000000 ) ) ;
#115 = EDGE_CURVE ( 'NONE', #59, #26, #86, .T. ) ;
#116 = ORIENTED_EDGE ( 'NONE', *, *, #148, .F. ) ;
#117 = AXIS2_PLACEMENT_3D ( 'NONE', #226, #151, #147 ) ;
#118 = FILL_AREA_STYLE_COLOUR ( '', #99 ) ;
#119 = ORIENTED_EDGE ( 'NONE', *, *, #91, .F. ) ;
#120 = ADVANCED_FACE ( 'NONE', ( #47 ), #222, .T. ) ;
#121 = LENGTH_MEASURE_WITH_UNIT ( LENGTH_MEASURE( 0.02539999999999999897 ), #271 );
#122 = DIRECTION ( 'NONE',  ( -0.7071067811865490160, 8.659560562354951347E-17, 0.7071067811865459074 ) ) ;
#123 = CARTESIAN_POINT ( 'NONE',  ( 0.007499999999999999722, 0.0000000000000000000, 1.707404996040164512E-17 ) ) ;
#124 = DIMENSIONAL_EXPONENTS ( 1.000000000000000000, 0.0000000000000000000, 0.0000000000000000000, 0.0000000000000000000, 0.0000000000000000000, 0.0000000000000000000, 0.0000000000000000000 ) ;
#125 = EDGE_CURVE ( 'NONE', #316, #29, #167, .T. ) ;
#126 = AXIS2_PLACEMENT_3D ( 'NONE', #224, #73, #325 ) ;
#127 = CARTESIAN_POINT ( 'NONE',  ( 0.0000000000000000000, 0.0000000000000000000, 1.496062999999999921 ) ) ;
#128 = DIRECTION ( 'NONE',  ( -1.000000000000000000, 0.0000000000000000000, 0.0000000000000000000 ) ) ;
#129 = VERTEX_POINT ( 'NONE', #18 ) ;
#130 = ADVANCED_FACE ( 'NONE', ( #251 ), #230, .T. ) ;
#131 = PRODUCT_CONTEXT ( 'NONE', #23, 'mechanical' ) ;
#132 = FILL_AREA_STYLE_COLOUR ( '', #108 ) ;
#133 = PRODUCT_DEFINITION_FORMATION_WITH_SPECIFIED_SOURCE ( 'ANY', '', #179, .NOT_KNOWN. ) ;
#134 = DIRECTION ( 'NONE',  ( -0.0000000000000000000, -0.0000000000000000000, -1.000000000000000000 ) ) ;
#135 = ORIENTED_EDGE ( 'NONE', *, *, #125, .F. ) ;
#136 = EDGE_LOOP ( 'NONE', ( #278, #164, #77, #142 ) ) ;
#137 = CIRCLE ( 'NONE', #126, 0.05900500000000000883 ) ;
#138 = AXIS2_PLACEMENT_3D ( 'NONE', #100, #200, #233 ) ;
#139 = DIRECTION ( 'NONE',  ( 0.0000000000000000000, 0.0000000000000000000, 1.000000000000000000 ) ) ;
#140 = CARTESIAN_POINT ( 'NONE',  ( 0.05905499999999998251, 7.232151672364692341E-18, 1.496062999999999921 ) ) ;
#141 = CARTESIAN_POINT ( 'NONE',  ( -0.04405500000000001082, 0.0000000000000000000, 1.496062999999999921 ) ) ;
#142 = ORIENTED_EDGE ( 'NONE', *, *, #70, .F. ) ;
#143 = EDGE_CURVE ( 'NONE', #190, #316, #145, .T. ) ;
#144 = CONICAL_SURFACE ( 'NONE', #117, 0.04405500000000001082, 0.7853981633974570498 ) ;
#145 = LINE ( 'NONE', #274, #149 ) ;
#146 = CARTESIAN_POINT ( 'NONE',  ( 0.05900500000000003659, 7.226028438368962060E-18, 0.0000000000000000000 ) ) ;
#147 = DIRECTION ( 'NONE',  ( -1.000000000000000000, 0.0000000000000000000, 0.0000000000000000000 ) ) ;
#148 = EDGE_CURVE ( 'NONE', #203, #129, #137, .T. ) ;
#149 = VECTOR ( 'NONE', #150, 39.37007874015748143 ) ;
#150 = DIRECTION ( 'NONE',  ( -0.0000000000000000000, -0.0000000000000000000, -1.000000000000000000 ) ) ;
#151 = DIRECTION ( 'NONE',  ( 0.0000000000000000000, 0.0000000000000000000, -1.000000000000000000 ) ) ;
#152 = ORIENTED_EDGE ( 'NONE', *, *, #148, .T. ) ;
#153 = DIRECTION ( 'NONE',  ( 1.000000000000000000, 0.0000000000000000000, 0.0000000000000000000 ) ) ;
#154 = ADVANCED_FACE ( 'NONE', ( #253 ), #254, .T. ) ;
#155 = ORIENTED_EDGE ( 'NONE', *, *, #115, .F. ) ;
#156 = CARTESIAN_POINT ( 'NONE',  ( 0.0000000000000000000, 0.0000000000000000000, 1.707404996040164512E-17 ) ) ;
#157 = DIRECTION ( 'NONE',  ( 1.000000000000000000, 0.0000000000000000000, 0.0000000000000000000 ) ) ;
#158 = EDGE_LOOP ( 'NONE', ( #256, #79 ) ) ;
#159 = LINE ( 'NONE', #140, #312 ) ;
#160 = EDGE_CURVE ( 'NONE', #26, #59, #210, .T. ) ;
#161 = EDGE_CURVE ( 'NONE', #183, #163, #7, .T. ) ;
#162 = AXIS2_PLACEMENT_3D ( 'NONE', #21, #277, #128 ) ;
#163 = VERTEX_POINT ( 'NONE', #170 ) ;
#164 = ORIENTED_EDGE ( 'NONE', *, *, #160, .T. ) ;
#165 = DIRECTION ( 'NONE',  ( -1.000000000000000000, 0.0000000000000000000, 0.0000000000000000000 ) ) ;
#166 = AXIS2_PLACEMENT_3D ( 'NONE', #98, #293, #297 ) ;
#167 = CIRCLE ( 'NONE', #166, 0.05905499999999998251 ) ;
#168 = VECTOR ( 'NONE', #92, 39.37007874015748854 ) ;
#169 = CARTESIAN_POINT ( 'NONE',  ( 0.0000000000000000000, 0.0000000000000000000, 1.707404996040164512E-17 ) ) ;
#170 = CARTESIAN_POINT ( 'NONE',  ( -0.007499999999999999722, 4.072256768864737466E-18, 1.707404996040164512E-17 ) ) ;
#171 = CARTESIAN_POINT ( 'NONE',  ( 0.0000000000000000000, 0.0000000000000000000, 1.496062999999999921 ) ) ;
#172 = AXIS2_PLACEMENT_3D ( 'NONE', #169, #324, #247 ) ;
#173 = DIRECTION ( 'NONE',  ( -0.0000000000000000000, -0.0000000000000000000, -1.000000000000000000 ) ) ;
#174 = AXIS2_PLACEMENT_3D ( 'NONE', #193, #112, #311 ) ;
#175 = APPLICATION_CONTEXT ( 'automotive_design' ) ;
#176 = UNCERTAINTY_MEASURE_WITH_UNIT (LENGTH_MEASURE( 1.000000000000000082E-05 ), #287, 'distance_accuracy_value', 'NONE');
#177 = EDGE_CURVE ( 'NONE', #163, #183, #276, .T. ) ;
#178 = EDGE_LOOP ( 'NONE', ( #12, #246, #116, #102 ) ) ;
#179 = PRODUCT ( 'Micro_DMM-030-290', 'Micro_DMM-030-290', '', ( #131 ) ) ;
#180 = ORIENTED_EDGE ( 'NONE', *, *, #55, .T. ) ;
#181 = ORIENTED_EDGE ( 'NONE', *, *, #234, .F. ) ;
#182 = SURFACE_SIDE_STYLE ('',( #323 ) ) ;
#183 = VERTEX_POINT ( 'NONE', #96 ) ;
#184 = CIRCLE ( 'NONE', #252, 0.04405500000000001082 ) ;
#185 = CIRCLE ( 'NONE', #257, 0.05905499999999998251 ) ;
#186 = CARTESIAN_POINT ( 'NONE',  ( -0.05905499999999998251, 0.0000000000000000000, 0.3149610000000000465 ) ) ;
#187 = EDGE_CURVE ( 'NONE', #183, #129, #328, .T. ) ;
#188 = CARTESIAN_POINT ( 'NONE',  ( 0.0000000000000000000, 0.0000000000000000000, 1.707404996040164512E-17 ) ) ;
#189 = LENGTH_MEASURE_WITH_UNIT ( LENGTH_MEASURE( 0.02539999999999999897 ), #37 );
#190 = VERTEX_POINT ( 'NONE', #294 ) ;
#191 =( CONVERSION_BASED_UNIT ( 'INCH', #318 ) LENGTH_UNIT ( ) NAMED_UNIT ( #63 ) );
#192 = DIRECTION ( 'NONE',  ( 1.000000000000000000, 0.0000000000000000000, 0.0000000000000000000 ) ) ;
#193 = CARTESIAN_POINT ( 'NONE',  ( 0.05900500000000007128, 0.0000000000000000000, 0.3149610000000000465 ) ) ;
#194 = DIRECTION ( 'NONE',  ( -0.0000000000000000000, -0.0000000000000000000, -1.000000000000000000 ) ) ;
#195 = DIRECTION ( 'NONE',  ( -1.000000000000000000, 0.0000000000000000000, 0.0000000000000000000 ) ) ;
#196 = DIRECTION ( 'NONE',  ( 0.7071067811865490160, 0.0000000000000000000, 0.7071067811865459074 ) ) ;
#197 = STYLED_ITEM ( 'NONE', ( #94 ), #54 ) ;
#198 = CARTESIAN_POINT ( 'NONE',  ( 0.0000000000000000000, 0.0000000000000000000, 0.0000000000000000000 ) ) ;
#199 = PRODUCT_DEFINITION ( 'UNKNOWN', '', #133, #208 ) ;
#200 = DIRECTION ( 'NONE',  ( -0.0000000000000000000, -0.0000000000000000000, -1.000000000000000000 ) ) ;
#201 = DIRECTION ( 'NONE',  ( -0.0000000000000000000, -0.0000000000000000000, -1.000000000000000000 ) ) ;
#202 = VECTOR ( 'NONE', #122, 39.37007874015748854 ) ;
#203 = VERTEX_POINT ( 'NONE', #273 ) ;
#204 = MECHANICAL_DESIGN_GEOMETRIC_PRESENTATION_REPRESENTATION (  '', ( #197 ), #232 ) ;
#205 = FILL_AREA_STYLE ('',( #132 ) ) ;
#206 = ORIENTED_EDGE ( 'NONE', *, *, #317, .T. ) ;
#207 = ORIENTED_EDGE ( 'NONE', *, *, #125, .T. ) ;
#208 = PRODUCT_DEFINITION_CONTEXT ( 'detailed design', #175, 'design' ) ;
#209 = FACE_OUTER_BOUND ( 'NONE', #280, .T. ) ;
#210 = CIRCLE ( 'NONE', #290, 0.05900500000000007128 ) ;
#211 =( LENGTH_UNIT ( ) NAMED_UNIT ( * ) SI_UNIT ( $, .METRE. ) );
#212 =( NAMED_UNIT ( * ) SI_UNIT ( $, .STERADIAN. ) SOLID_ANGLE_UNIT ( ) );
#213 = CARTESIAN_POINT ( 'NONE',  ( 0.05905499999999998251, 7.232151672364692341E-18, 0.3149610000000000465 ) ) ;
#214 = CIRCLE ( 'NONE', #237, 0.04405500000000001082 ) ;
#215 = VECTOR ( 'NONE', #196, 39.37007874015748854 ) ;
#216 = FACE_OUTER_BOUND ( 'NONE', #178, .T. ) ;
#217 = EDGE_LOOP ( 'NONE', ( #49, #48, #206, #309 ) ) ;
#218 = DIRECTION ( 'NONE',  ( 0.0000000000000000000, 0.0000000000000000000, 1.000000000000000000 ) ) ;
#219 = LINE ( 'NONE', #35, #51 ) ;
#220 = ORIENTED_EDGE ( 'NONE', *, *, #70, .T. ) ;
#221 = FILL_AREA_STYLE ('',( #118 ) ) ;
#222 = CYLINDRICAL_SURFACE ( 'NONE', #300, 0.05900500000000003659 ) ;
#223 = SURFACE_STYLE_USAGE ( .BOTH. , #182 ) ;
#224 = CARTESIAN_POINT ( 'NONE',  ( 0.0000000000000000000, 0.0000000000000000000, 0.05150499999999980788 ) ) ;
#225 = EDGE_CURVE ( 'NONE', #26, #129, #74, .T. ) ;
#226 = CARTESIAN_POINT ( 'NONE',  ( 0.0000000000000000000, 0.0000000000000000000, 1.496062999999999921 ) ) ;
#227 = CONICAL_SURFACE ( 'NONE', #16, 0.007499999999999999722, 0.7853981633974504994 ) ;
#228 = AXIS2_PLACEMENT_3D ( 'NONE', #81, #57, #153 ) ;
#229 = DIRECTION ( 'NONE',  ( -0.0000000000000000000, -0.0000000000000000000, -1.000000000000000000 ) ) ;
#230 = PLANE ( 'NONE',  #111 ) ;
#231 = DIRECTION ( 'NONE',  ( -1.000000000000000000, 0.0000000000000000000, 0.0000000000000000000 ) ) ;
#232 =( GEOMETRIC_REPRESENTATION_CONTEXT ( 3 ) GLOBAL_UNCERTAINTY_ASSIGNED_CONTEXT ( ( #24 ) ) GLOBAL_UNIT_ASSIGNED_CONTEXT ( ( #40, #28, #212 ) ) REPRESENTATION_CONTEXT ( 'NONE', 'WORKASPACE' ) );
#233 = DIRECTION ( 'NONE',  ( -1.000000000000000000, 0.0000000000000000000, 0.0000000000000000000 ) ) ;
#234 = EDGE_CURVE ( 'NONE', #29, #316, #58, .T. ) ;
#235 = SHAPE_DEFINITION_REPRESENTATION ( #82, #54 ) ;
#236 = SURFACE_SIDE_STYLE ('',( #261 ) ) ;
#237 = AXIS2_PLACEMENT_3D ( 'NONE', #171, #275, #95 ) ;
#238 = AXIS2_PLACEMENT_3D ( 'NONE', #156, #139, #157 ) ;
#239 = ADVANCED_FACE ( 'NONE', ( #104 ), #296, .T. ) ;
#240 = EDGE_LOOP ( 'NONE', ( #119, #33, #113, #220 ) ) ;
#241 = DIRECTION ( 'NONE',  ( -0.0000000000000000000, -0.0000000000000000000, -1.000000000000000000 ) ) ;
#242 = AXIS2_PLACEMENT_3D ( 'NONE', #114, #134, #244 ) ;
#243 = PLANE ( 'NONE',  #174 ) ;
#244 = DIRECTION ( 'NONE',  ( -1.000000000000000000, 0.0000000000000000000, 0.0000000000000000000 ) ) ;
#245 = ORIENTED_EDGE ( 'NONE', *, *, #55, .F. ) ;
#246 = ORIENTED_EDGE ( 'NONE', *, *, #225, .T. ) ;
#247 = DIRECTION ( 'NONE',  ( -1.000000000000000000, 0.0000000000000000000, 0.0000000000000000000 ) ) ;
#248 = ADVANCED_FACE ( 'NONE', ( #209 ), #308, .F. ) ;
#249 = ADVANCED_FACE ( 'NONE', ( #9 ), #109, .T. ) ;
#250 = MANIFOLD_SOLID_BREP ( 'Cut-Revolve4', #282 ) ;
#251 = FACE_OUTER_BOUND ( 'NONE', #158, .T. ) ;
#252 = AXIS2_PLACEMENT_3D ( 'NONE', #36, #61, #289 ) ;
#253 = FACE_OUTER_BOUND ( 'NONE', #288, .T. ) ;
#254 = CYLINDRICAL_SURFACE ( 'NONE', #107, 0.05905499999999998251 ) ;
#255 = EDGE_LOOP ( 'NONE', ( #110, #180, #135, #270 ) ) ;
#256 = ORIENTED_EDGE ( 'NONE', *, *, #80, .T. ) ;
#257 = AXIS2_PLACEMENT_3D ( 'NONE', #269, #60, #320 ) ;
#258 = CARTESIAN_POINT ( 'NONE',  ( 0.0000000000000000000, 0.0000000000000000000, 1.496062999999999921 ) ) ;
#259 = ADVANCED_FACE ( 'NONE', ( #265 ), #71, .T. ) ;
#260 = ORIENTED_EDGE ( 'NONE', *, *, #234, .T. ) ;
#261 = SURFACE_STYLE_FILL_AREA ( #205 ) ;
#262 = CARTESIAN_POINT ( 'NONE',  ( 0.04405500000000001082, 6.313666573004179469E-18, 1.496062999999999921 ) ) ;
#263 = ORIENTED_EDGE ( 'NONE', *, *, #187, .F. ) ;
#264 = CARTESIAN_POINT ( 'NONE',  ( 0.0000000000000000000, 0.0000000000000000000, 1.481063000000000240 ) ) ;
#265 = FACE_OUTER_BOUND ( 'NONE', #105, .T. ) ;
#266 = EDGE_CURVE ( 'NONE', #283, #76, #219, .T. ) ;
#267 = CYLINDRICAL_SURFACE ( 'NONE', #242, 0.05900500000000003659 ) ;
#268 = CARTESIAN_POINT ( 'NONE',  ( -0.05900500000000007128, 0.0000000000000000000, 0.3149610000000000465 ) ) ;
#269 = CARTESIAN_POINT ( 'NONE',  ( 0.0000000000000000000, 0.0000000000000000000, 1.481063000000000240 ) ) ;
#270 = ORIENTED_EDGE ( 'NONE', *, *, #143, .F. ) ;
#271 =( LENGTH_UNIT ( ) NAMED_UNIT ( * ) SI_UNIT ( $, .METRE. ) );
#272 = CARTESIAN_POINT ( 'NONE',  ( -0.05900500000000003659, 0.0000000000000000000, 0.0000000000000000000 ) ) ;
#273 = CARTESIAN_POINT ( 'NONE',  ( -0.05900500000000002271, 7.226028438368960519E-18, 0.05150499999999980788 ) ) ;
#274 = CARTESIAN_POINT ( 'NONE',  ( -0.05905499999999998251, 0.0000000000000000000, 1.496062999999999921 ) ) ;
#275 = DIRECTION ( 'NONE',  ( 0.0000000000000000000, 0.0000000000000000000, 1.000000000000000000 ) ) ;
#276 = CIRCLE ( 'NONE', #172, 0.007499999999999999722 ) ;
#277 = DIRECTION ( 'NONE',  ( -0.0000000000000000000, -0.0000000000000000000, -1.000000000000000000 ) ) ;
#278 = ORIENTED_EDGE ( 'NONE', *, *, #225, .F. ) ;
#279 = VERTEX_POINT ( 'NONE', #13 ) ;
#280 = EDGE_LOOP ( 'NONE', ( #39, #2 ) ) ;
#281 = DIRECTION ( 'NONE',  ( 0.0000000000000000000, 0.0000000000000000000, -1.000000000000000000 ) ) ;
#282 = CLOSED_SHELL ( 'NONE', ( #329, #259, #72, #249, #154, #130, #239, #304, #34, #120, #248 ) ) ;
#283 = VERTEX_POINT ( 'NONE', #262 ) ;
#284 =( GEOMETRIC_REPRESENTATION_CONTEXT ( 3 ) GLOBAL_UNCERTAINTY_ASSIGNED_CONTEXT ( ( #301 ) ) GLOBAL_UNIT_ASSIGNED_CONTEXT ( ( #191, #15, #62 ) ) REPRESENTATION_CONTEXT ( 'NONE', 'WORKASPACE' ) );
#285 = APPLICATION_PROTOCOL_DEFINITION ( 'draft international standard', 'automotive_design', 1998, #23 ) ;
#286 = DIRECTION ( 'NONE',  ( 1.000000000000000000, 0.0000000000000000000, 0.0000000000000000000 ) ) ;
#287 =( CONVERSION_BASED_UNIT ( 'INCH', #189 ) LENGTH_UNIT ( ) NAMED_UNIT ( #124 ) );
#288 = EDGE_LOOP ( 'NONE', ( #245, #14, #11, #181 ) ) ;
#289 = DIRECTION ( 'NONE',  ( 1.000000000000000000, 0.0000000000000000000, 0.0000000000000000000 ) ) ;
#290 = AXIS2_PLACEMENT_3D ( 'NONE', #101, #201, #165 ) ;
#291 =( NAMED_UNIT ( * ) PLANE_ANGLE_UNIT ( ) SI_UNIT ( $, .RADIAN. ) );
#292 = ORIENTED_EDGE ( 'NONE', *, *, #20, .F. ) ;
#293 = DIRECTION ( 'NONE',  ( -0.0000000000000000000, -0.0000000000000000000, -1.000000000000000000 ) ) ;
#294 = CARTESIAN_POINT ( 'NONE',  ( -0.05905499999999998251, 0.0000000000000000000, 1.481063000000000240 ) ) ;
#295 = CIRCLE ( 'NONE', #310, 0.05900500000000000883 ) ;
#296 = CONICAL_SURFACE ( 'NONE', #87, 0.04405500000000001082, 0.7853981633974570498 ) ;
#297 = DIRECTION ( 'NONE',  ( -1.000000000000000000, 0.0000000000000000000, 0.0000000000000000000 ) ) ;
#298 = DIRECTION ( 'NONE',  ( -1.000000000000000000, 0.0000000000000000000, 0.0000000000000000000 ) ) ;
#299 = DIRECTION ( 'NONE',  ( -0.0000000000000000000, -0.0000000000000000000, -1.000000000000000000 ) ) ;
#300 = AXIS2_PLACEMENT_3D ( 'NONE', #198, #43, #195 ) ;
#301 = UNCERTAINTY_MEASURE_WITH_UNIT (LENGTH_MEASURE( 1.000000000000000082E-05 ), #191, 'distance_accuracy_value', 'NONE');
#302 = EDGE_CURVE ( 'NONE', #76, #190, #185, .T. ) ;
#303 = ORIENTED_EDGE ( 'NONE', *, *, #44, .F. ) ;
#304 = ADVANCED_FACE ( 'NONE', ( #10, #89 ), #243, .T. ) ;
#305 = DIRECTION ( 'NONE',  ( -1.000000000000000000, 0.0000000000000000000, 0.0000000000000000000 ) ) ;
#306 = ORIENTED_EDGE ( 'NONE', *, *, #177, .F. ) ;
#307 = PRESENTATION_LAYER_ASSIGNMENT (  '', '', ( #17 ) ) ;
#308 = PLANE ( 'NONE',  #31 ) ;
#309 = ORIENTED_EDGE ( 'NONE', *, *, #302, .F. ) ;
#310 = AXIS2_PLACEMENT_3D ( 'NONE', #93, #194, #66 ) ;
#311 = DIRECTION ( 'NONE',  ( -1.000000000000000000, 0.0000000000000000000, 0.0000000000000000000 ) ) ;
#312 = VECTOR ( 'NONE', #241, 39.37007874015748143 ) ;
#313 = FACE_OUTER_BOUND ( 'NONE', #240, .T. ) ;
#314 = MECHANICAL_DESIGN_GEOMETRIC_PRESENTATION_REPRESENTATION (  '', ( #17 ), #284 ) ;
#315 = DIRECTION ( 'NONE',  ( 0.7071067811865536790, 8.659560562355008046E-17, -0.7071067811865412445 ) ) ;
#316 = VERTEX_POINT ( 'NONE', #186 ) ;
#317 = EDGE_CURVE ( 'NONE', #279, #190, #32, .T. ) ;
#318 = LENGTH_MEASURE_WITH_UNIT ( LENGTH_MEASURE( 0.02539999999999999897 ), #211 );
#319 = ORIENTED_EDGE ( 'NONE', *, *, #266, .T. ) ;
#320 = DIRECTION ( 'NONE',  ( 1.000000000000000000, 0.0000000000000000000, 0.0000000000000000000 ) ) ;
#321 = EDGE_LOOP ( 'NONE', ( #303, #319, #292, #97 ) ) ;
#322 = AXIS2_PLACEMENT_3D ( 'NONE', #42, #299, #25 ) ;
#323 = SURFACE_STYLE_FILL_AREA ( #221 ) ;
#324 = DIRECTION ( 'NONE',  ( -0.0000000000000000000, -0.0000000000000000000, -1.000000000000000000 ) ) ;
#325 = DIRECTION ( 'NONE',  ( -1.000000000000000000, 0.0000000000000000000, 0.0000000000000000000 ) ) ;
#326 = DIRECTION ( 'NONE',  ( -0.0000000000000000000, -0.0000000000000000000, -1.000000000000000000 ) ) ;
#327 = PRESENTATION_LAYER_ASSIGNMENT (  '', '', ( #197 ) ) ;
#328 = LINE ( 'NONE', #123, #215 ) ;
#329 = ADVANCED_FACE ( 'NONE', ( #216 ), #267, .T. ) ;
ENDSEC;
END-ISO-10303-21;
