ISO-10303-21;
HEADER;
FILE_DESCRIPTION (( 'STEP AP214' ),
    '1' );
FILE_NAME ('26442.STEP',
    '2023-06-22T17:49:01',
    ( '' ),
    ( '' ),
    'SwSTEP 2.0',
    'SolidWorks 2023',
    '' );
FILE_SCHEMA (( 'AUTOMOTIVE_DESIGN' ));
ENDSEC;

DATA;
#1 = FILL_AREA_STYLE_COLOUR ( '', #69 ) ;
#2 = AXIS2_PLACEMENT_3D ( 'NONE', #55, #103, #272 ) ;
#3 = PRESENTATION_STYLE_ASSIGNMENT (( #271 ) ) ;
#4 = DIRECTION ( 'NONE',  ( 0.000000000000000000, 0.000000000000000000, -1.000000000000000000 ) ) ;
#5 = FILL_AREA_STYLE ('',( #83 ) ) ;
#6 = DIMENSIONAL_EXPONENTS ( 1.000000000000000000, 0.000000000000000000, 0.000000000000000000, 0.000000000000000000, 0.000000000000000000, 0.000000000000000000, 0.000000000000000000 ) ;
#7 = CARTESIAN_POINT ( 'NONE',  ( -1.224646799147354440E-16, 6.000000000000000888, 0.000000000000000000 ) ) ;
#8 = DIRECTION ( 'NONE',  ( 0.000000000000000000, 0.000000000000000000, -1.000000000000000000 ) ) ;
#9 = DIRECTION ( 'NONE',  ( 0.000000000000000000, 0.000000000000000000, -1.000000000000000000 ) ) ;
#10 = SURFACE_STYLE_USAGE ( .BOTH. , #240 ) ;
#11 = CYLINDRICAL_SURFACE ( 'NONE', #74, 0.5000000000000001110 ) ;
#12 = CYLINDRICAL_SURFACE ( 'NONE', #2, 0.5000000000000000000 ) ;
#13 = PRESENTATION_LAYER_ASSIGNMENT (  '', '', ( #192 ) ) ;
#14 = ORIENTED_EDGE ( 'NONE', *, *, #259, .F. ) ;
#15 = DIRECTION ( 'NONE',  ( 1.000000000000000000, 4.453261087808560759E-17, 0.000000000000000000 ) ) ;
#16 = LINE ( 'NONE', #209, #257 ) ;
#17 = ORIENTED_EDGE ( 'NONE', *, *, #77, .F. ) ;
#18 = DIRECTION ( 'NONE',  ( 0.000000000000000000, 0.000000000000000000, 1.000000000000000000 ) ) ;
#19 = EDGE_LOOP ( 'NONE', ( #102, #17 ) ) ;
#20 = STYLED_ITEM ( 'NONE', ( #57 ), #61 ) ;
#21 = ORIENTED_EDGE ( 'NONE', *, *, #206, .T. ) ;
#22 = SURFACE_SIDE_STYLE ('',( #234 ) ) ;
#23 = MANIFOLD_SOLID_BREP ( 'Revolve - Tool Body (Straight Shanked)', #187 ) ;
#24 = PRODUCT_RELATED_PRODUCT_CATEGORY ( 'part', '', ( #171 ) ) ;
#25 = CIRCLE ( 'NONE', #308, 0.5000000000000000000 ) ;
#26 = PRODUCT_DEFINITION_FORMATION_WITH_SPECIFIED_SOURCE ( 'ANY', '', #171, .NOT_KNOWN. ) ;
#27 =( CONVERSION_BASED_UNIT ( 'INCH', #237 ) LENGTH_UNIT ( ) NAMED_UNIT ( #146 ) );
#28 = CARTESIAN_POINT ( 'NONE',  ( 6.123233995736766036E-17, 0.000000000000000000, 0.5000000000000000000 ) ) ;
#29 = MECHANICAL_DESIGN_GEOMETRIC_PRESENTATION_REPRESENTATION (  '', ( #242 ), #178 ) ;
#30 = ADVANCED_FACE ( 'NONE', ( #297 ), #51, .T. ) ;
#31 = PLANE ( 'NONE',  #47 ) ;
#32 = DIMENSIONAL_EXPONENTS ( 1.000000000000000000, 0.000000000000000000, 0.000000000000000000, 0.000000000000000000, 0.000000000000000000, 0.000000000000000000, 0.000000000000000000 ) ;
#33 =( CONVERSION_BASED_UNIT ( 'INCH', #122 ) LENGTH_UNIT ( ) NAMED_UNIT ( #32 ) );
#34 = LINE ( 'NONE', #175, #147 ) ;
#35 = AXIS2_PLACEMENT_3D ( 'NONE', #269, #243, #9 ) ;
#36 = DIRECTION ( 'NONE',  ( -4.453261087808560759E-17, 1.000000000000000000, -0.000000000000000000 ) ) ;
#37 =( NAMED_UNIT ( * ) SI_UNIT ( $, .STERADIAN. ) SOLID_ANGLE_UNIT ( ) );
#38 = CARTESIAN_POINT ( 'NONE',  ( 4.957883579047472087E-34, 3.250000000000000000, 0.000000000000000000 ) ) ;
#39 = EDGE_LOOP ( 'NONE', ( #21, #205 ) ) ;
#40 = AXIS2_PLACEMENT_3D ( 'NONE', #238, #149, #170 ) ;
#41 = CARTESIAN_POINT ( 'NONE',  ( 0.000000000000000000, 0.000000000000000000, 0.000000000000000000 ) ) ;
#42 = EDGE_LOOP ( 'NONE', ( #71, #163, #233, #261 ) ) ;
#43 = ORIENTED_EDGE ( 'NONE', *, *, #153, .F. ) ;
#44 = UNCERTAINTY_MEASURE_WITH_UNIT (LENGTH_MEASURE( 1.000000000000000082E-05 ), #306, 'distance_accuracy_value', 'NONE');
#45 = EDGE_CURVE ( 'NONE', #183, #303, #287, .T. ) ;
#46 = CARTESIAN_POINT ( 'NONE',  ( 0.000000000000000000, 0.000000000000000000, -0.5000000000000000000 ) ) ;
#47 = AXIS2_PLACEMENT_3D ( 'NONE', #216, #212, #4 ) ;
#48 =( CONVERSION_BASED_UNIT ( 'INCH', #304 ) LENGTH_UNIT ( ) NAMED_UNIT ( #6 ) );
#49 = ADVANCED_FACE ( 'NONE', ( #299 ), #11, .T. ) ;
#50 =( GEOMETRIC_REPRESENTATION_CONTEXT ( 3 ) GLOBAL_UNCERTAINTY_ASSIGNED_CONTEXT ( ( #44 ) ) GLOBAL_UNIT_ASSIGNED_CONTEXT ( ( #306, #235, #115 ) ) REPRESENTATION_CONTEXT ( 'NONE', 'WORKASPACE' ) );
#51 = CYLINDRICAL_SURFACE ( 'NONE', #204, 0.5000000000000001110 ) ;
#52 = COLOUR_RGB ( '',1.000000000000000000, 0.000000000000000000, 0.000000000000000000 ) ;
#53 =( NAMED_UNIT ( * ) PLANE_ANGLE_UNIT ( ) SI_UNIT ( $, .RADIAN. ) );
#54 = COLOUR_RGB ( '',0.7921568627450980005, 0.8196078431372548767, 0.9333333333333333481 ) ;
#55 = CARTESIAN_POINT ( 'NONE',  ( 0.000000000000000000, 0.000000000000000000, 0.000000000000000000 ) ) ;
#56 = SURFACE_STYLE_USAGE ( .BOTH. , #105 ) ;
#57 = PRESENTATION_STYLE_ASSIGNMENT (( #56 ) ) ;
#58 =( GEOMETRIC_REPRESENTATION_CONTEXT ( 3 ) GLOBAL_UNCERTAINTY_ASSIGNED_CONTEXT ( ( #106 ) ) GLOBAL_UNIT_ASSIGNED_CONTEXT ( ( #152, #241, #101 ) ) REPRESENTATION_CONTEXT ( 'NONE', 'WORKASPACE' ) );
#59 =( NAMED_UNIT ( * ) SI_UNIT ( $, .STERADIAN. ) SOLID_ANGLE_UNIT ( ) );
#60 = DIRECTION ( 'NONE',  ( -1.000000000000000000, 0.000000000000000000, 0.000000000000000000 ) ) ;
#61 = ADVANCED_FACE ( 'NONE', ( #128 ), #200, .T. ) ;
#62 = PLANE ( 'NONE',  #116 ) ;
#63 = SURFACE_STYLE_FILL_AREA ( #88 ) ;
#64 = ORIENTED_EDGE ( 'NONE', *, *, #70, .T. ) ;
#65 = PRESENTATION_LAYER_ASSIGNMENT (  '', '', ( #20 ) ) ;
#66 = CIRCLE ( 'NONE', #295, 0.5000000000000001110 ) ;
#67 = UNCERTAINTY_MEASURE_WITH_UNIT (LENGTH_MEASURE( 1.000000000000000082E-05 ), #33, 'distance_accuracy_value', 'NONE');
#68 = VERTEX_POINT ( 'NONE', #125 ) ;
#69 = COLOUR_RGB ( '',0.7921568627450980005, 0.8196078431372548767, 0.9333333333333333481 ) ;
#70 = EDGE_CURVE ( 'NONE', #303, #68, #34, .T. ) ;
#71 = ORIENTED_EDGE ( 'NONE', *, *, #70, .F. ) ;
#72 = CIRCLE ( 'NONE', #82, 0.5000000000000001110 ) ;
#73 = FACE_OUTER_BOUND ( 'NONE', #39, .T. ) ;
#74 = AXIS2_PLACEMENT_3D ( 'NONE', #7, #127, #202 ) ;
#75 = CIRCLE ( 'NONE', #162, 0.5000000000000000000 ) ;
#76 =( LENGTH_UNIT ( ) NAMED_UNIT ( * ) SI_UNIT ( $, .METRE. ) );
#77 = EDGE_CURVE ( 'NONE', #303, #183, #232, .T. ) ;
#78 = FILL_AREA_STYLE ('',( #1 ) ) ;
#79 = CARTESIAN_POINT ( 'NONE',  ( 0.000000000000000000, 3.250000000000000000, 0.000000000000000000 ) ) ;
#80 = CARTESIAN_POINT ( 'NONE',  ( 0.000000000000000000, 3.250000000000000000, 0.000000000000000000 ) ) ;
#81 = CARTESIAN_POINT ( 'NONE',  ( 0.000000000000000000, 3.250000000000000000, -0.5000000000000000000 ) ) ;
#82 = AXIS2_PLACEMENT_3D ( 'NONE', #177, #36, #60 ) ;
#83 = FILL_AREA_STYLE_COLOUR ( '', #52 ) ;
#84 = DIRECTION ( 'NONE',  ( 0.000000000000000000, 0.000000000000000000, -1.000000000000000000 ) ) ;
#85 = SURFACE_SIDE_STYLE ('',( #199 ) ) ;
#86 = ORIENTED_EDGE ( 'NONE', *, *, #173, .F. ) ;
#87 =( NAMED_UNIT ( * ) SI_UNIT ( $, .STERADIAN. ) SOLID_ANGLE_UNIT ( ) );
#88 = FILL_AREA_STYLE ('',( #184 ) ) ;
#89 = VERTEX_POINT ( 'NONE', #81 ) ;
#90 =( GEOMETRIC_REPRESENTATION_CONTEXT ( 3 ) GLOBAL_UNCERTAINTY_ASSIGNED_CONTEXT ( ( #260 ) ) GLOBAL_UNIT_ASSIGNED_CONTEXT ( ( #27, #53, #263 ) ) REPRESENTATION_CONTEXT ( 'NONE', 'WORKASPACE' ) );
#91 = LINE ( 'NONE', #46, #145 ) ;
#92 = CARTESIAN_POINT ( 'NONE',  ( 0.000000000000000000, 0.000000000000000000, 0.000000000000000000 ) ) ;
#93 = PRESENTATION_STYLE_ASSIGNMENT (( #191 ) ) ;
#94 = PRODUCT_DEFINITION_SHAPE ( 'NONE', 'NONE',  #133 ) ;
#95 = EDGE_CURVE ( 'NONE', #89, #136, #25, .T. ) ;
#96 = PRESENTATION_STYLE_ASSIGNMENT (( #120 ) ) ;
#97 = COLOUR_RGB ( '',1.000000000000000000, 0.000000000000000000, 0.000000000000000000 ) ;
#98 =( LENGTH_UNIT ( ) NAMED_UNIT ( * ) SI_UNIT ( $, .METRE. ) );
#99 = AXIS2_PLACEMENT_3D ( 'NONE', #38, #181, #273 ) ;
#100 = DIRECTION ( 'NONE',  ( -4.453261087808560759E-17, 1.000000000000000000, -0.000000000000000000 ) ) ;
#101 =( NAMED_UNIT ( * ) SI_UNIT ( $, .STERADIAN. ) SOLID_ANGLE_UNIT ( ) );
#102 = ORIENTED_EDGE ( 'NONE', *, *, #45, .F. ) ;
#103 = DIRECTION ( 'NONE',  ( -0.000000000000000000, -1.000000000000000000, -0.000000000000000000 ) ) ;
#104 = ORIENTED_EDGE ( 'NONE', *, *, #95, .F. ) ;
#105 = SURFACE_SIDE_STYLE ('',( #63 ) ) ;
#106 = UNCERTAINTY_MEASURE_WITH_UNIT (LENGTH_MEASURE( 1.000000000000000082E-05 ), #152, 'distance_accuracy_value', 'NONE');
#107 = FACE_OUTER_BOUND ( 'NONE', #135, .T. ) ;
#108 = EDGE_LOOP ( 'NONE', ( #230, #298, #247, #111 ) ) ;
#109 = PRESENTATION_LAYER_ASSIGNMENT (  '', '', ( #242 ) ) ;
#110 = DIRECTION ( 'NONE',  ( -4.453261087808560759E-17, 1.000000000000000000, -0.000000000000000000 ) ) ;
#111 = ORIENTED_EDGE ( 'NONE', *, *, #182, .F. ) ;
#112 =( LENGTH_UNIT ( ) NAMED_UNIT ( * ) SI_UNIT ( $, .METRE. ) );
#113 = EDGE_CURVE ( 'NONE', #254, #68, #72, .T. ) ;
#114 = LENGTH_MEASURE_WITH_UNIT ( LENGTH_MEASURE( 0.02539999999999999897 ), #305 );
#115 =( NAMED_UNIT ( * ) SI_UNIT ( $, .STERADIAN. ) SOLID_ANGLE_UNIT ( ) );
#116 = AXIS2_PLACEMENT_3D ( 'NONE', #248, #201, #15 ) ;
#117 = ADVANCED_FACE ( 'NONE', ( #155 ), #245, .F. ) ;
#118 = DIRECTION ( 'NONE',  ( 0.000000000000000000, 1.000000000000000000, 0.000000000000000000 ) ) ;
#119 = COLOUR_RGB ( '',1.000000000000000000, 0.000000000000000000, 0.000000000000000000 ) ;
#120 = SURFACE_STYLE_USAGE ( .BOTH. , #264 ) ;
#121 = SURFACE_STYLE_FILL_AREA ( #286 ) ;
#122 = LENGTH_MEASURE_WITH_UNIT ( LENGTH_MEASURE( 0.02539999999999999897 ), #76 );
#123 = DIRECTION ( 'NONE',  ( -4.453261087808560759E-17, 1.000000000000000000, -0.000000000000000000 ) ) ;
#124 = COLOUR_RGB ( '',1.000000000000000000, 0.000000000000000000, 0.000000000000000000 ) ;
#125 = CARTESIAN_POINT ( 'NONE',  ( 0.5000000000000000000, 6.000000000000000888, 6.123233995736767268E-17 ) ) ;
#126 = LENGTH_MEASURE_WITH_UNIT ( LENGTH_MEASURE( 0.02539999999999999897 ), #266 );
#127 = DIRECTION ( 'NONE',  ( -4.453261087808560759E-17, 1.000000000000000000, -0.000000000000000000 ) ) ;
#128 = FACE_OUTER_BOUND ( 'NONE', #108, .T. ) ;
#129 = CIRCLE ( 'NONE', #40, 0.5000000000000000000 ) ;
#130 = DIRECTION ( 'NONE',  ( -0.000000000000000000, -1.000000000000000000, -0.000000000000000000 ) ) ;
#131 = EDGE_LOOP ( 'NONE', ( #86, #274, #251, #43 ) ) ;
#132 = SHAPE_DEFINITION_REPRESENTATION ( #94, #156 ) ;
#133 = PRODUCT_DEFINITION ( 'UNKNOWN', '', #26, #134 ) ;
#134 = PRODUCT_DEFINITION_CONTEXT ( 'detailed design', #151, 'design' ) ;
#135 = EDGE_LOOP ( 'NONE', ( #104, #14 ) ) ;
#136 = VERTEX_POINT ( 'NONE', #249 ) ;
#137 = DIMENSIONAL_EXPONENTS ( 1.000000000000000000, 0.000000000000000000, 0.000000000000000000, 0.000000000000000000, 0.000000000000000000, 0.000000000000000000, 0.000000000000000000 ) ;
#138 = AXIS2_PLACEMENT_3D ( 'NONE', #79, #100, #267 ) ;
#139 = APPLICATION_PROTOCOL_DEFINITION ( 'draft international standard', 'automotive_design', 1998, #151 ) ;
#140 = PRESENTATION_LAYER_ASSIGNMENT (  '', '', ( #210 ) ) ;
#141 = FILL_AREA_STYLE ('',( #142 ) ) ;
#142 = FILL_AREA_STYLE_COLOUR ( '', #97 ) ;
#143 = UNCERTAINTY_MEASURE_WITH_UNIT (LENGTH_MEASURE( 1.000000000000000082E-05 ), #48, 'distance_accuracy_value', 'NONE');
#144 = LENGTH_MEASURE_WITH_UNIT ( LENGTH_MEASURE( 0.02539999999999999897 ), #98 );
#145 = VECTOR ( 'NONE', #277, 39.37007874015748143 ) ;
#146 = DIMENSIONAL_EXPONENTS ( 1.000000000000000000, 0.000000000000000000, 0.000000000000000000, 0.000000000000000000, 0.000000000000000000, 0.000000000000000000, 0.000000000000000000 ) ;
#147 = VECTOR ( 'NONE', #160, 39.37007874015748143 ) ;
#148 = AXIS2_PLACEMENT_3D ( 'NONE', #92, #18, #256 ) ;
#149 = DIRECTION ( 'NONE',  ( -0.000000000000000000, -1.000000000000000000, -0.000000000000000000 ) ) ;
#150 = SURFACE_STYLE_FILL_AREA ( #5 ) ;
#151 = APPLICATION_CONTEXT ( 'automotive_design' ) ;
#152 =( CONVERSION_BASED_UNIT ( 'INCH', #225 ) LENGTH_UNIT ( ) NAMED_UNIT ( #137 ) );
#153 = EDGE_CURVE ( 'NONE', #207, #282, #262, .T. ) ;
#154 = PRESENTATION_LAYER_ASSIGNMENT (  '', '', ( #179 ) ) ;
#155 = FACE_OUTER_BOUND ( 'NONE', #19, .T. ) ;
#156 = ADVANCED_BREP_SHAPE_REPRESENTATION ( '26442', ( #222, #23, #148 ), #289 ) ;
#157 = CARTESIAN_POINT ( 'NONE',  ( 0.000000000000000000, 3.250000000000000000, 0.000000000000000000 ) ) ;
#158 = APPLICATION_CONTEXT ( 'automotive_design' ) ;
#159 = SURFACE_STYLE_FILL_AREA ( #78 ) ;
#160 = DIRECTION ( 'NONE',  ( -4.453261087808560759E-17, 1.000000000000000000, -0.000000000000000000 ) ) ;
#161 = ORIENTED_EDGE ( 'NONE', *, *, #113, .T. ) ;
#162 = AXIS2_PLACEMENT_3D ( 'NONE', #80, #288, #8 ) ;
#163 = ORIENTED_EDGE ( 'NONE', *, *, #77, .T. ) ;
#164 = PRESENTATION_LAYER_ASSIGNMENT (  '', '', ( #294 ) ) ;
#165 = VECTOR ( 'NONE', #258, 39.37007874015748143 ) ;
#166 = CARTESIAN_POINT ( 'NONE',  ( 0.5000000000000000000, 3.250000000000000000, 6.123233995736767268E-17 ) ) ;
#167 = CARTESIAN_POINT ( 'NONE',  ( -0.5000000000000000000, 3.250000000000000000, 0.000000000000000000 ) ) ;
#168 = DIRECTION ( 'NONE',  ( 0.000000000000000000, -0.000000000000000000, 1.000000000000000000 ) ) ;
#169 = ORIENTED_EDGE ( 'NONE', *, *, #45, .T. ) ;
#170 = DIRECTION ( 'NONE',  ( 0.000000000000000000, 0.000000000000000000, -1.000000000000000000 ) ) ;
#171 = PRODUCT ( '26442', '26442', '', ( #279 ) ) ;
#172 =( NAMED_UNIT ( * ) PLANE_ANGLE_UNIT ( ) SI_UNIT ( $, .RADIAN. ) );
#173 = EDGE_CURVE ( 'NONE', #136, #207, #16, .T. ) ;
#174 = AXIS2_PLACEMENT_3D ( 'NONE', #292, #123, #220 ) ;
#175 = CARTESIAN_POINT ( 'NONE',  ( 0.4999999999999999445, 6.000000000000000888, 6.123233995736767268E-17 ) ) ;
#176 = SURFACE_STYLE_USAGE ( .BOTH. , #244 ) ;
#177 = CARTESIAN_POINT ( 'NONE',  ( -1.224646799147354440E-16, 6.000000000000000888, 0.000000000000000000 ) ) ;
#178 =( GEOMETRIC_REPRESENTATION_CONTEXT ( 3 ) GLOBAL_UNCERTAINTY_ASSIGNED_CONTEXT ( ( #300 ) ) GLOBAL_UNIT_ASSIGNED_CONTEXT ( ( #214, #172, #236 ) ) REPRESENTATION_CONTEXT ( 'NONE', 'WORKASPACE' ) );
#179 = STYLED_ITEM ( 'NONE', ( #228 ), #222 ) ;
#180 =( NAMED_UNIT ( * ) PLANE_ANGLE_UNIT ( ) SI_UNIT ( $, .RADIAN. ) );
#181 = DIRECTION ( 'NONE',  ( -4.453261087808560759E-17, 1.000000000000000000, 0.000000000000000000 ) ) ;
#182 = EDGE_CURVE ( 'NONE', #89, #282, #91, .T. ) ;
#183 = VERTEX_POINT ( 'NONE', #167 ) ;
#184 = FILL_AREA_STYLE_COLOUR ( '', #119 ) ;
#185 = UNCERTAINTY_MEASURE_WITH_UNIT (LENGTH_MEASURE( 1.000000000000000082E-05 ), #291, 'distance_accuracy_value', 'NONE');
#186 = EDGE_LOOP ( 'NONE', ( #161, #227 ) ) ;
#187 = CLOSED_SHELL ( 'NONE', ( #30, #117, #49, #283 ) ) ;
#188 = CARTESIAN_POINT ( 'NONE',  ( 0.000000000000000000, 3.250000000000000000, 0.000000000000000000 ) ) ;
#189 = CARTESIAN_POINT ( 'NONE',  ( -0.5000000000000002220, 6.000000000000000888, 0.000000000000000000 ) ) ;
#190 = ADVANCED_FACE ( 'NONE', ( #107 ), #253, .T. ) ;
#191 = SURFACE_STYLE_USAGE ( .BOTH. , #22 ) ;
#192 = STYLED_ITEM ( 'NONE', ( #3 ), #23 ) ;
#193 = MECHANICAL_DESIGN_GEOMETRIC_PRESENTATION_REPRESENTATION (  '', ( #210 ), #250 ) ;
#194 = CARTESIAN_POINT ( 'NONE',  ( -0.5000000000000002220, 6.000000000000000888, 0.000000000000000000 ) ) ;
#195 = AXIS2_PLACEMENT_3D ( 'NONE', #41, #130, #229 ) ;
#196 = FACE_OUTER_BOUND ( 'NONE', #131, .T. ) ;
#197 = DIRECTION ( 'NONE',  ( -4.453261087808560759E-17, 1.000000000000000000, -0.000000000000000000 ) ) ;
#198 =( LENGTH_UNIT ( ) NAMED_UNIT ( * ) SI_UNIT ( $, .METRE. ) );
#199 = SURFACE_STYLE_FILL_AREA ( #224 ) ;
#200 = CYLINDRICAL_SURFACE ( 'NONE', #35, 0.5000000000000000000 ) ;
#201 = DIRECTION ( 'NONE',  ( 4.453261087808560759E-17, -1.000000000000000000, 0.000000000000000000 ) ) ;
#202 = DIRECTION ( 'NONE',  ( -1.000000000000000000, 0.000000000000000000, 0.000000000000000000 ) ) ;
#203 = FILL_AREA_STYLE_COLOUR ( '', #54 ) ;
#204 = AXIS2_PLACEMENT_3D ( 'NONE', #270, #197, #223 ) ;
#205 = ORIENTED_EDGE ( 'NONE', *, *, #153, .T. ) ;
#206 = EDGE_CURVE ( 'NONE', #282, #207, #129, .T. ) ;
#207 = VERTEX_POINT ( 'NONE', #28 ) ;
#208 = DIMENSIONAL_EXPONENTS ( 1.000000000000000000, 0.000000000000000000, 0.000000000000000000, 0.000000000000000000, 0.000000000000000000, 0.000000000000000000, 0.000000000000000000 ) ;
#209 = CARTESIAN_POINT ( 'NONE',  ( 6.123233995736766036E-17, 0.000000000000000000, 0.5000000000000000000 ) ) ;
#210 = STYLED_ITEM ( 'NONE', ( #268 ), #265 ) ;
#211 = ADVANCED_FACE ( 'NONE', ( #73 ), #31, .T. ) ;
#212 = DIRECTION ( 'NONE',  ( 0.000000000000000000, -1.000000000000000000, -0.000000000000000000 ) ) ;
#213 =( LENGTH_UNIT ( ) NAMED_UNIT ( * ) SI_UNIT ( $, .METRE. ) );
#214 =( CONVERSION_BASED_UNIT ( 'INCH', #144 ) LENGTH_UNIT ( ) NAMED_UNIT ( #307 ) );
#215 = CLOSED_SHELL ( 'NONE', ( #61, #190, #265, #211 ) ) ;
#216 = CARTESIAN_POINT ( 'NONE',  ( 0.000000000000000000, 0.000000000000000000, 0.000000000000000000 ) ) ;
#217 = CARTESIAN_POINT ( 'NONE',  ( 0.000000000000000000, 0.000000000000000000, -0.5000000000000000000 ) ) ;
#218 = AXIS2_PLACEMENT_3D ( 'NONE', #188, #118, #168 ) ;
#219 = MECHANICAL_DESIGN_GEOMETRIC_PRESENTATION_REPRESENTATION (  '', ( #294 ), #50 ) ;
#220 = DIRECTION ( 'NONE',  ( -1.000000000000000000, 0.000000000000000000, 0.000000000000000000 ) ) ;
#221 = FACE_OUTER_BOUND ( 'NONE', #186, .T. ) ;
#222 = MANIFOLD_SOLID_BREP ( 'Revolve - Cutting Edge', #215 ) ;
#223 = DIRECTION ( 'NONE',  ( -1.000000000000000000, 0.000000000000000000, 0.000000000000000000 ) ) ;
#224 = FILL_AREA_STYLE ('',( #203 ) ) ;
#225 = LENGTH_MEASURE_WITH_UNIT ( LENGTH_MEASURE( 0.02539999999999999897 ), #198 );
#226 = MECHANICAL_DESIGN_GEOMETRIC_PRESENTATION_REPRESENTATION (  '', ( #192 ), #90 ) ;
#227 = ORIENTED_EDGE ( 'NONE', *, *, #290, .T. ) ;
#228 = PRESENTATION_STYLE_ASSIGNMENT (( #10 ) ) ;
#229 = DIRECTION ( 'NONE',  ( 0.000000000000000000, 0.000000000000000000, -1.000000000000000000 ) ) ;
#230 = ORIENTED_EDGE ( 'NONE', *, *, #95, .T. ) ;
#231 = LINE ( 'NONE', #189, #165 ) ;
#232 = CIRCLE ( 'NONE', #174, 0.5000000000000000000 ) ;
#233 = ORIENTED_EDGE ( 'NONE', *, *, #301, .T. ) ;
#234 = SURFACE_STYLE_FILL_AREA ( #141 ) ;
#235 =( NAMED_UNIT ( * ) PLANE_ANGLE_UNIT ( ) SI_UNIT ( $, .RADIAN. ) );
#236 =( NAMED_UNIT ( * ) SI_UNIT ( $, .STERADIAN. ) SOLID_ANGLE_UNIT ( ) );
#237 = LENGTH_MEASURE_WITH_UNIT ( LENGTH_MEASURE( 0.02539999999999999897 ), #213 );
#238 = CARTESIAN_POINT ( 'NONE',  ( 0.000000000000000000, 0.000000000000000000, 0.000000000000000000 ) ) ;
#239 = FILL_AREA_STYLE_COLOUR ( '', #124 ) ;
#240 = SURFACE_SIDE_STYLE ('',( #159 ) ) ;
#241 =( NAMED_UNIT ( * ) PLANE_ANGLE_UNIT ( ) SI_UNIT ( $, .RADIAN. ) );
#242 = STYLED_ITEM ( 'NONE', ( #96 ), #211 ) ;
#243 = DIRECTION ( 'NONE',  ( -0.000000000000000000, -1.000000000000000000, -0.000000000000000000 ) ) ;
#244 = SURFACE_SIDE_STYLE ('',( #150 ) ) ;
#245 = PLANE ( 'NONE',  #99 ) ;
#246 = DIRECTION ( 'NONE',  ( -0.000000000000000000, -1.000000000000000000, -0.000000000000000000 ) ) ;
#247 = ORIENTED_EDGE ( 'NONE', *, *, #206, .F. ) ;
#248 = CARTESIAN_POINT ( 'NONE',  ( 0.5000000000000000000, 6.000000000000000888, 0.000000000000000000 ) ) ;
#249 = CARTESIAN_POINT ( 'NONE',  ( 6.123233995736766036E-17, 3.250000000000000000, 0.5000000000000000000 ) ) ;
#250 =( GEOMETRIC_REPRESENTATION_CONTEXT ( 3 ) GLOBAL_UNCERTAINTY_ASSIGNED_CONTEXT ( ( #67 ) ) GLOBAL_UNIT_ASSIGNED_CONTEXT ( ( #33, #180, #37 ) ) REPRESENTATION_CONTEXT ( 'NONE', 'WORKASPACE' ) );
#251 = ORIENTED_EDGE ( 'NONE', *, *, #182, .T. ) ;
#252 = DIRECTION ( 'NONE',  ( -1.000000000000000000, 0.000000000000000000, 0.000000000000000000 ) ) ;
#253 = PLANE ( 'NONE',  #218 ) ;
#254 = VERTEX_POINT ( 'NONE', #194 ) ;
#255 = EDGE_LOOP ( 'NONE', ( #169, #64, #278, #296 ) ) ;
#256 = DIRECTION ( 'NONE',  ( 1.000000000000000000, 0.000000000000000000, 0.000000000000000000 ) ) ;
#257 = VECTOR ( 'NONE', #281, 39.37007874015748143 ) ;
#258 = DIRECTION ( 'NONE',  ( -4.453261087808560759E-17, 1.000000000000000000, -0.000000000000000000 ) ) ;
#259 = EDGE_CURVE ( 'NONE', #136, #89, #75, .T. ) ;
#260 = UNCERTAINTY_MEASURE_WITH_UNIT (LENGTH_MEASURE( 1.000000000000000082E-05 ), #27, 'distance_accuracy_value', 'NONE');
#261 = ORIENTED_EDGE ( 'NONE', *, *, #290, .F. ) ;
#262 = CIRCLE ( 'NONE', #195, 0.5000000000000000000 ) ;
#263 =( NAMED_UNIT ( * ) SI_UNIT ( $, .STERADIAN. ) SOLID_ANGLE_UNIT ( ) );
#264 = SURFACE_SIDE_STYLE ('',( #121 ) ) ;
#265 = ADVANCED_FACE ( 'NONE', ( #196 ), #12, .T. ) ;
#266 =( LENGTH_UNIT ( ) NAMED_UNIT ( * ) SI_UNIT ( $, .METRE. ) );
#267 = DIRECTION ( 'NONE',  ( -1.000000000000000000, 0.000000000000000000, 0.000000000000000000 ) ) ;
#268 = PRESENTATION_STYLE_ASSIGNMENT (( #176 ) ) ;
#269 = CARTESIAN_POINT ( 'NONE',  ( 0.000000000000000000, 0.000000000000000000, 0.000000000000000000 ) ) ;
#270 = CARTESIAN_POINT ( 'NONE',  ( -1.224646799147354440E-16, 6.000000000000000888, 0.000000000000000000 ) ) ;
#271 = SURFACE_STYLE_USAGE ( .BOTH. , #85 ) ;
#272 = DIRECTION ( 'NONE',  ( 0.000000000000000000, 0.000000000000000000, -1.000000000000000000 ) ) ;
#273 = DIRECTION ( 'NONE',  ( -1.000000000000000000, -4.453261087808560759E-17, 0.000000000000000000 ) ) ;
#274 = ORIENTED_EDGE ( 'NONE', *, *, #259, .T. ) ;
#275 = APPLICATION_PROTOCOL_DEFINITION ( 'draft international standard', 'automotive_design', 1998, #158 ) ;
#276 = DIMENSIONAL_EXPONENTS ( 1.000000000000000000, 0.000000000000000000, 0.000000000000000000, 0.000000000000000000, 0.000000000000000000, 0.000000000000000000, 0.000000000000000000 ) ;
#277 = DIRECTION ( 'NONE',  ( -0.000000000000000000, -1.000000000000000000, -0.000000000000000000 ) ) ;
#278 = ORIENTED_EDGE ( 'NONE', *, *, #113, .F. ) ;
#279 = PRODUCT_CONTEXT ( 'NONE', #158, 'mechanical' ) ;
#280 =( NAMED_UNIT ( * ) PLANE_ANGLE_UNIT ( ) SI_UNIT ( $, .RADIAN. ) );
#281 = DIRECTION ( 'NONE',  ( -0.000000000000000000, -1.000000000000000000, -0.000000000000000000 ) ) ;
#282 = VERTEX_POINT ( 'NONE', #217 ) ;
#283 = ADVANCED_FACE ( 'NONE', ( #221 ), #62, .F. ) ;
#284 = MECHANICAL_DESIGN_GEOMETRIC_PRESENTATION_REPRESENTATION (  '', ( #20 ), #58 ) ;
#285 =( GEOMETRIC_REPRESENTATION_CONTEXT ( 3 ) GLOBAL_UNCERTAINTY_ASSIGNED_CONTEXT ( ( #185 ) ) GLOBAL_UNIT_ASSIGNED_CONTEXT ( ( #291, #293, #59 ) ) REPRESENTATION_CONTEXT ( 'NONE', 'WORKASPACE' ) );
#286 = FILL_AREA_STYLE ('',( #239 ) ) ;
#287 = CIRCLE ( 'NONE', #138, 0.5000000000000000000 ) ;
#288 = DIRECTION ( 'NONE',  ( -0.000000000000000000, -1.000000000000000000, -0.000000000000000000 ) ) ;
#289 =( GEOMETRIC_REPRESENTATION_CONTEXT ( 3 ) GLOBAL_UNCERTAINTY_ASSIGNED_CONTEXT ( ( #143 ) ) GLOBAL_UNIT_ASSIGNED_CONTEXT ( ( #48, #280, #87 ) ) REPRESENTATION_CONTEXT ( 'NONE', 'WORKASPACE' ) );
#290 = EDGE_CURVE ( 'NONE', #68, #254, #66, .T. ) ;
#291 =( CONVERSION_BASED_UNIT ( 'INCH', #126 ) LENGTH_UNIT ( ) NAMED_UNIT ( #276 ) );
#292 = CARTESIAN_POINT ( 'NONE',  ( 0.000000000000000000, 3.250000000000000000, 0.000000000000000000 ) ) ;
#293 =( NAMED_UNIT ( * ) PLANE_ANGLE_UNIT ( ) SI_UNIT ( $, .RADIAN. ) );
#294 = STYLED_ITEM ( 'NONE', ( #93 ), #190 ) ;
#295 = AXIS2_PLACEMENT_3D ( 'NONE', #302, #110, #252 ) ;
#296 = ORIENTED_EDGE ( 'NONE', *, *, #301, .F. ) ;
#297 = FACE_OUTER_BOUND ( 'NONE', #255, .T. ) ;
#298 = ORIENTED_EDGE ( 'NONE', *, *, #173, .T. ) ;
#299 = FACE_OUTER_BOUND ( 'NONE', #42, .T. ) ;
#300 = UNCERTAINTY_MEASURE_WITH_UNIT (LENGTH_MEASURE( 1.000000000000000082E-05 ), #214, 'distance_accuracy_value', 'NONE');
#301 = EDGE_CURVE ( 'NONE', #183, #254, #231, .T. ) ;
#302 = CARTESIAN_POINT ( 'NONE',  ( -1.224646799147354440E-16, 6.000000000000000888, 0.000000000000000000 ) ) ;
#303 = VERTEX_POINT ( 'NONE', #166 ) ;
#304 = LENGTH_MEASURE_WITH_UNIT ( LENGTH_MEASURE( 0.02539999999999999897 ), #112 );
#305 =( LENGTH_UNIT ( ) NAMED_UNIT ( * ) SI_UNIT ( $, .METRE. ) );
#306 =( CONVERSION_BASED_UNIT ( 'INCH', #114 ) LENGTH_UNIT ( ) NAMED_UNIT ( #208 ) );
#307 = DIMENSIONAL_EXPONENTS ( 1.000000000000000000, 0.000000000000000000, 0.000000000000000000, 0.000000000000000000, 0.000000000000000000, 0.000000000000000000, 0.000000000000000000 ) ;
#308 = AXIS2_PLACEMENT_3D ( 'NONE', #157, #246, #84 ) ;
#309 = MECHANICAL_DESIGN_GEOMETRIC_PRESENTATION_REPRESENTATION (  '', ( #179 ), #285 ) ;
ENDSEC;
END-ISO-10303-21;
