ISO-10303-21;
HEADER;
FILE_DESCRIPTION (( 'STEP AP214' ),
    '1' );
FILE_NAME ('83429.STEP',
    '2023-06-23T09:57:05',
    ( '' ),
    ( '' ),
    'SwSTEP 2.0',
    'SolidWorks 2023',
    '' );
FILE_SCHEMA (( 'AUTOMOTIVE_DESIGN' ));
ENDSEC;

DATA;
#1 = DIRECTION ( 'NONE',  ( -1.000000000000000000, 0.000000000000000000, 0.000000000000000000 ) ) ;
#2 = CARTESIAN_POINT ( 'NONE',  ( 0.000000000000000000, 0.8750000000000000000, 0.000000000000000000 ) ) ;
#3 = VECTOR ( 'NONE', #294, 39.37007874015748143 ) ;
#4 = EDGE_CURVE ( 'NONE', #173, #298, #271, .T. ) ;
#5 = DIRECTION ( 'NONE',  ( -3.768143997376470743E-17, 1.000000000000000000, -0.000000000000000000 ) ) ;
#6 = EDGE_CURVE ( 'NONE', #178, #173, #127, .T. ) ;
#7 = ORIENTED_EDGE ( 'NONE', *, *, #89, .F. ) ;
#8 = SURFACE_STYLE_FILL_AREA ( #168 ) ;
#9 = ORIENTED_EDGE ( 'NONE', *, *, #296, .F. ) ;
#10 = CARTESIAN_POINT ( 'NONE',  ( 0.000000000000000000, 0.000000000000000000, 0.000000000000000000 ) ) ;
#11 = CIRCLE ( 'NONE', #25, 0.06250000000000000000 ) ;
#12 = ORIENTED_EDGE ( 'NONE', *, *, #191, .T. ) ;
#13 = ADVANCED_FACE ( 'NONE', ( #27 ), #225, .F. ) ;
#14 =( NAMED_UNIT ( * ) SI_UNIT ( $, .STERADIAN. ) SOLID_ANGLE_UNIT ( ) );
#15 = FILL_AREA_STYLE_COLOUR ( '', #68 ) ;
#16 = SURFACE_SIDE_STYLE ('',( #244 ) ) ;
#17 = SURFACE_SIDE_STYLE ('',( #158 ) ) ;
#18 = PRODUCT_RELATED_PRODUCT_CATEGORY ( 'part', '', ( #239 ) ) ;
#19 = CARTESIAN_POINT ( 'NONE',  ( 0.06250000000000000000, 2.500000000000000000, 0.000000000000000000 ) ) ;
#20 = PRESENTATION_LAYER_ASSIGNMENT (  '', '', ( #120 ) ) ;
#21 =( NAMED_UNIT ( * ) SI_UNIT ( $, .STERADIAN. ) SOLID_ANGLE_UNIT ( ) );
#22 = DIMENSIONAL_EXPONENTS ( 1.000000000000000000, 0.000000000000000000, 0.000000000000000000, 0.000000000000000000, 0.000000000000000000, 0.000000000000000000, 0.000000000000000000 ) ;
#23 = CARTESIAN_POINT ( 'NONE',  ( -0.06250000000000000000, 0.8749999999999997780, 0.000000000000000000 ) ) ;
#24 =( NAMED_UNIT ( * ) PLANE_ANGLE_UNIT ( ) SI_UNIT ( $, .RADIAN. ) );
#25 = AXIS2_PLACEMENT_3D ( 'NONE', #159, #140, #1 ) ;
#26 = ORIENTED_EDGE ( 'NONE', *, *, #4, .T. ) ;
#27 = FACE_OUTER_BOUND ( 'NONE', #248, .T. ) ;
#28 = PRESENTATION_STYLE_ASSIGNMENT (( #208 ) ) ;
#29 = EDGE_CURVE ( 'NONE', #267, #245, #291, .T. ) ;
#30 =( GEOMETRIC_REPRESENTATION_CONTEXT ( 3 ) GLOBAL_UNCERTAINTY_ASSIGNED_CONTEXT ( ( #138 ) ) GLOBAL_UNIT_ASSIGNED_CONTEXT ( ( #109, #299, #234 ) ) REPRESENTATION_CONTEXT ( 'NONE', 'WORKASPACE' ) );
#31 = DIRECTION ( 'NONE',  ( -3.768143997376470743E-17, 1.000000000000000000, -0.000000000000000000 ) ) ;
#32 =( LENGTH_UNIT ( ) NAMED_UNIT ( * ) SI_UNIT ( $, .METRE. ) );
#33 = VECTOR ( 'NONE', #259, 39.37007874015748143 ) ;
#34 = DIRECTION ( 'NONE',  ( -1.000000000000000000, 0.000000000000000000, 0.000000000000000000 ) ) ;
#35 = DIRECTION ( 'NONE',  ( 0.000000000000000000, 0.000000000000000000, -1.000000000000000000 ) ) ;
#36 = EDGE_LOOP ( 'NONE', ( #81, #290, #287, #250 ) ) ;
#37 = DIRECTION ( 'NONE',  ( -3.768143997376470743E-17, 1.000000000000000000, -0.000000000000000000 ) ) ;
#38 = UNCERTAINTY_MEASURE_WITH_UNIT (LENGTH_MEASURE( 1.000000000000000082E-05 ), #218, 'distance_accuracy_value', 'NONE');
#39 = CARTESIAN_POINT ( 'NONE',  ( 0.000000000000000000, 0.000000000000000000, 0.000000000000000000 ) ) ;
#40 = AXIS2_PLACEMENT_3D ( 'NONE', #219, #5, #124 ) ;
#41 = SURFACE_STYLE_USAGE ( .BOTH. , #307 ) ;
#42 =( NAMED_UNIT ( * ) PLANE_ANGLE_UNIT ( ) SI_UNIT ( $, .RADIAN. ) );
#43 = SURFACE_STYLE_FILL_AREA ( #85 ) ;
#44 = DIRECTION ( 'NONE',  ( -0.000000000000000000, -1.000000000000000000, -0.000000000000000000 ) ) ;
#45 = MECHANICAL_DESIGN_GEOMETRIC_PRESENTATION_REPRESENTATION (  '', ( #63 ), #57 ) ;
#46 = MANIFOLD_SOLID_BREP ( 'Revolve - Tool Body (Straight Shanked)', #143 ) ;
#47 = PRODUCT_DEFINITION_CONTEXT ( 'detailed design', #184, 'design' ) ;
#48 = CYLINDRICAL_SURFACE ( 'NONE', #137, 0.06250000000000002776 ) ;
#49 = EDGE_CURVE ( 'NONE', #64, #245, #132, .T. ) ;
#50 = LENGTH_MEASURE_WITH_UNIT ( LENGTH_MEASURE( 0.02539999999999999897 ), #119 );
#51 = DIMENSIONAL_EXPONENTS ( 1.000000000000000000, 0.000000000000000000, 0.000000000000000000, 0.000000000000000000, 0.000000000000000000, 0.000000000000000000, 0.000000000000000000 ) ;
#52 = VECTOR ( 'NONE', #62, 39.37007874015748143 ) ;
#53 = SURFACE_SIDE_STYLE ('',( #8 ) ) ;
#54 =( NAMED_UNIT ( * ) PLANE_ANGLE_UNIT ( ) SI_UNIT ( $, .RADIAN. ) );
#55 = SURFACE_STYLE_FILL_AREA ( #194 ) ;
#56 = ADVANCED_BREP_SHAPE_REPRESENTATION ( '83429', ( #141, #46, #295 ), #30 ) ;
#57 =( GEOMETRIC_REPRESENTATION_CONTEXT ( 3 ) GLOBAL_UNCERTAINTY_ASSIGNED_CONTEXT ( ( #66 ) ) GLOBAL_UNIT_ASSIGNED_CONTEXT ( ( #76, #283, #196 ) ) REPRESENTATION_CONTEXT ( 'NONE', 'WORKASPACE' ) );
#58 = CARTESIAN_POINT ( 'NONE',  ( -6.123233995736766036E-17, 2.500000000000000000, 0.000000000000000000 ) ) ;
#59 = DIMENSIONAL_EXPONENTS ( 1.000000000000000000, 0.000000000000000000, 0.000000000000000000, 0.000000000000000000, 0.000000000000000000, 0.000000000000000000, 0.000000000000000000 ) ;
#60 = EDGE_LOOP ( 'NONE', ( #7, #269 ) ) ;
#61 =( CONVERSION_BASED_UNIT ( 'INCH', #249 ) LENGTH_UNIT ( ) NAMED_UNIT ( #22 ) );
#62 = DIRECTION ( 'NONE',  ( -0.000000000000000000, -1.000000000000000000, -0.000000000000000000 ) ) ;
#63 = STYLED_ITEM ( 'NONE', ( #148 ), #167 ) ;
#64 = VERTEX_POINT ( 'NONE', #236 ) ;
#65 = CARTESIAN_POINT ( 'NONE',  ( -6.123233995736766036E-17, 2.500000000000000000, 0.000000000000000000 ) ) ;
#66 = UNCERTAINTY_MEASURE_WITH_UNIT (LENGTH_MEASURE( 1.000000000000000082E-05 ), #76, 'distance_accuracy_value', 'NONE');
#67 = CYLINDRICAL_SURFACE ( 'NONE', #306, 0.06250000000000002776 ) ;
#68 = COLOUR_RGB ( '',0.7921568627450980005, 0.8196078431372548767, 0.9333333333333333481 ) ;
#69 =( LENGTH_UNIT ( ) NAMED_UNIT ( * ) SI_UNIT ( $, .METRE. ) );
#70 = UNCERTAINTY_MEASURE_WITH_UNIT (LENGTH_MEASURE( 1.000000000000000082E-05 ), #240, 'distance_accuracy_value', 'NONE');
#71 = PLANE ( 'NONE',  #115 ) ;
#72 = PRESENTATION_LAYER_ASSIGNMENT (  '', '', ( #186 ) ) ;
#73 = ADVANCED_FACE ( 'NONE', ( #192 ), #48, .T. ) ;
#74 = DIRECTION ( 'NONE',  ( 3.768143997376470743E-17, -1.000000000000000000, 0.000000000000000000 ) ) ;
#75 = SURFACE_STYLE_USAGE ( .BOTH. , #97 ) ;
#76 =( CONVERSION_BASED_UNIT ( 'INCH', #288 ) LENGTH_UNIT ( ) NAMED_UNIT ( #263 ) );
#77 = PRESENTATION_LAYER_ASSIGNMENT (  '', '', ( #247 ) ) ;
#78 = CARTESIAN_POINT ( 'NONE',  ( 0.000000000000000000, 0.8750000000000000000, 0.000000000000000000 ) ) ;
#79 = EDGE_CURVE ( 'NONE', #221, #178, #11, .T. ) ;
#80 = STYLED_ITEM ( 'NONE', ( #28 ), #284 ) ;
#81 = ORIENTED_EDGE ( 'NONE', *, *, #89, .T. ) ;
#82 = SURFACE_STYLE_USAGE ( .BOTH. , #53 ) ;
#83 = EDGE_LOOP ( 'NONE', ( #273, #199, #181, #103 ) ) ;
#84 = DIRECTION ( 'NONE',  ( -0.000000000000000000, -1.000000000000000000, -0.000000000000000000 ) ) ;
#85 = FILL_AREA_STYLE ('',( #15 ) ) ;
#86 =( LENGTH_UNIT ( ) NAMED_UNIT ( * ) SI_UNIT ( $, .METRE. ) );
#87 = ORIENTED_EDGE ( 'NONE', *, *, #49, .T. ) ;
#88 = FACE_OUTER_BOUND ( 'NONE', #83, .T. ) ;
#89 = EDGE_CURVE ( 'NONE', #169, #267, #265, .T. ) ;
#90 = FACE_OUTER_BOUND ( 'NONE', #149, .T. ) ;
#91 = VECTOR ( 'NONE', #129, 39.37007874015748143 ) ;
#92 =( NAMED_UNIT ( * ) SI_UNIT ( $, .STERADIAN. ) SOLID_ANGLE_UNIT ( ) );
#93 = DIRECTION ( 'NONE',  ( 0.000000000000000000, 0.000000000000000000, -1.000000000000000000 ) ) ;
#94 = CIRCLE ( 'NONE', #187, 0.06250000000000000000 ) ;
#95 = DIRECTION ( 'NONE',  ( 0.000000000000000000, 0.000000000000000000, -1.000000000000000000 ) ) ;
#96 = COLOUR_RGB ( '',1.000000000000000000, 0.000000000000000000, 0.000000000000000000 ) ;
#97 = SURFACE_SIDE_STYLE ('',( #305 ) ) ;
#98 = DIRECTION ( 'NONE',  ( -3.768143997376470743E-17, 1.000000000000000000, -0.000000000000000000 ) ) ;
#99 = AXIS2_PLACEMENT_3D ( 'NONE', #257, #256, #93 ) ;
#100 =( LENGTH_UNIT ( ) NAMED_UNIT ( * ) SI_UNIT ( $, .METRE. ) );
#101 = ORIENTED_EDGE ( 'NONE', *, *, #164, .F. ) ;
#102 = DIRECTION ( 'NONE',  ( 0.000000000000000000, -0.000000000000000000, 1.000000000000000000 ) ) ;
#103 = ORIENTED_EDGE ( 'NONE', *, *, #191, .F. ) ;
#104 = AXIS2_PLACEMENT_3D ( 'NONE', #210, #308, #163 ) ;
#105 = DIRECTION ( 'NONE',  ( -3.768143997376470743E-17, 1.000000000000000000, 0.000000000000000000 ) ) ;
#106 =( NAMED_UNIT ( * ) PLANE_ANGLE_UNIT ( ) SI_UNIT ( $, .RADIAN. ) );
#107 = DIRECTION ( 'NONE',  ( -1.000000000000000000, 0.000000000000000000, 0.000000000000000000 ) ) ;
#108 = ORIENTED_EDGE ( 'NONE', *, *, #6, .F. ) ;
#109 =( CONVERSION_BASED_UNIT ( 'INCH', #251 ) LENGTH_UNIT ( ) NAMED_UNIT ( #51 ) );
#110 = EDGE_CURVE ( 'NONE', #267, #169, #258, .T. ) ;
#111 = CARTESIAN_POINT ( 'NONE',  ( 7.654042494670957545E-18, 0.000000000000000000, 0.06250000000000000000 ) ) ;
#112 = DIRECTION ( 'NONE',  ( 1.000000000000000000, 0.000000000000000000, 0.000000000000000000 ) ) ;
#113 = CYLINDRICAL_SURFACE ( 'NONE', #104, 0.06250000000000000000 ) ;
#114 =( CONVERSION_BASED_UNIT ( 'INCH', #118 ) LENGTH_UNIT ( ) NAMED_UNIT ( #200 ) );
#115 = AXIS2_PLACEMENT_3D ( 'NONE', #19, #74, #188 ) ;
#116 = CARTESIAN_POINT ( 'NONE',  ( -6.123233995736766036E-17, 2.500000000000000000, 0.000000000000000000 ) ) ;
#117 = CARTESIAN_POINT ( 'NONE',  ( 0.000000000000000000, 0.8749999999999997780, 0.000000000000000000 ) ) ;
#118 = LENGTH_MEASURE_WITH_UNIT ( LENGTH_MEASURE( 0.02539999999999999897 ), #69 );
#119 =( LENGTH_UNIT ( ) NAMED_UNIT ( * ) SI_UNIT ( $, .METRE. ) );
#120 = STYLED_ITEM ( 'NONE', ( #217 ), #201 ) ;
#121 = FILL_AREA_STYLE_COLOUR ( '', #215 ) ;
#122 = PLANE ( 'NONE',  #254 ) ;
#123 = ADVANCED_FACE ( 'NONE', ( #90 ), #113, .T. ) ;
#124 = DIRECTION ( 'NONE',  ( -1.000000000000000000, 0.000000000000000000, 0.000000000000000000 ) ) ;
#125 =( GEOMETRIC_REPRESENTATION_CONTEXT ( 3 ) GLOBAL_UNCERTAINTY_ASSIGNED_CONTEXT ( ( #70 ) ) GLOBAL_UNIT_ASSIGNED_CONTEXT ( ( #240, #106, #151 ) ) REPRESENTATION_CONTEXT ( 'NONE', 'WORKASPACE' ) );
#126 = ORIENTED_EDGE ( 'NONE', *, *, #164, .T. ) ;
#127 = LINE ( 'NONE', #243, #91 ) ;
#128 =( GEOMETRIC_REPRESENTATION_CONTEXT ( 3 ) GLOBAL_UNCERTAINTY_ASSIGNED_CONTEXT ( ( #276 ) ) GLOBAL_UNIT_ASSIGNED_CONTEXT ( ( #185, #54, #21 ) ) REPRESENTATION_CONTEXT ( 'NONE', 'WORKASPACE' ) );
#129 = DIRECTION ( 'NONE',  ( -3.768143997376470743E-17, 1.000000000000000000, -0.000000000000000000 ) ) ;
#130 = CARTESIAN_POINT ( 'NONE',  ( 0.000000000000000000, 0.000000000000000000, -0.06250000000000000000 ) ) ;
#131 = DIRECTION ( 'NONE',  ( -0.000000000000000000, -1.000000000000000000, -0.000000000000000000 ) ) ;
#132 = CIRCLE ( 'NONE', #289, 0.06250000000000000000 ) ;
#133 = ADVANCED_FACE ( 'NONE', ( #261 ), #71, .F. ) ;
#134 = EDGE_CURVE ( 'NONE', #221, #298, #160, .T. ) ;
#135 = DIRECTION ( 'NONE',  ( 0.000000000000000000, 0.000000000000000000, 1.000000000000000000 ) ) ;
#136 = DIRECTION ( 'NONE',  ( -3.768143997376470743E-17, 1.000000000000000000, -0.000000000000000000 ) ) ;
#137 = AXIS2_PLACEMENT_3D ( 'NONE', #116, #136, #142 ) ;
#138 = UNCERTAINTY_MEASURE_WITH_UNIT (LENGTH_MEASURE( 1.000000000000000082E-05 ), #109, 'distance_accuracy_value', 'NONE');
#139 = FILL_AREA_STYLE ('',( #281 ) ) ;
#140 = DIRECTION ( 'NONE',  ( -3.768143997376470743E-17, 1.000000000000000000, -0.000000000000000000 ) ) ;
#141 = MANIFOLD_SOLID_BREP ( 'Revolve - Cutting Edge', #179 ) ;
#142 = DIRECTION ( 'NONE',  ( -1.000000000000000000, 0.000000000000000000, 0.000000000000000000 ) ) ;
#143 = CLOSED_SHELL ( 'NONE', ( #73, #13, #255, #133 ) ) ;
#144 = LENGTH_MEASURE_WITH_UNIT ( LENGTH_MEASURE( 0.02539999999999999897 ), #100 );
#145 = ORIENTED_EDGE ( 'NONE', *, *, #4, .F. ) ;
#146 = PRESENTATION_LAYER_ASSIGNMENT (  '', '', ( #63 ) ) ;
#147 = ORIENTED_EDGE ( 'NONE', *, *, #134, .T. ) ;
#148 = PRESENTATION_STYLE_ASSIGNMENT (( #268 ) ) ;
#149 = EDGE_LOOP ( 'NONE', ( #154, #272, #206, #9 ) ) ;
#150 = PRODUCT_DEFINITION_FORMATION_WITH_SPECIFIED_SOURCE ( 'ANY', '', #239, .NOT_KNOWN. ) ;
#151 =( NAMED_UNIT ( * ) SI_UNIT ( $, .STERADIAN. ) SOLID_ANGLE_UNIT ( ) );
#152 = CARTESIAN_POINT ( 'NONE',  ( 0.000000000000000000, 0.000000000000000000, 0.000000000000000000 ) ) ;
#153 = AXIS2_PLACEMENT_3D ( 'NONE', #117, #98, #286 ) ;
#154 = ORIENTED_EDGE ( 'NONE', *, *, #29, .F. ) ;
#155 = DIRECTION ( 'NONE',  ( 0.000000000000000000, 0.000000000000000000, -1.000000000000000000 ) ) ;
#156 = MECHANICAL_DESIGN_GEOMETRIC_PRESENTATION_REPRESENTATION (  '', ( #120 ), #125 ) ;
#157 = PRODUCT_CONTEXT ( 'NONE', #241, 'mechanical' ) ;
#158 = SURFACE_STYLE_FILL_AREA ( #139 ) ;
#159 = CARTESIAN_POINT ( 'NONE',  ( 0.000000000000000000, 0.8749999999999997780, 0.000000000000000000 ) ) ;
#160 = LINE ( 'NONE', #275, #33 ) ;
#161 =( GEOMETRIC_REPRESENTATION_CONTEXT ( 3 ) GLOBAL_UNCERTAINTY_ASSIGNED_CONTEXT ( ( #38 ) ) GLOBAL_UNIT_ASSIGNED_CONTEXT ( ( #218, #24, #180 ) ) REPRESENTATION_CONTEXT ( 'NONE', 'WORKASPACE' ) );
#162 = SHAPE_DEFINITION_REPRESENTATION ( #214, #56 ) ;
#163 = DIRECTION ( 'NONE',  ( 0.000000000000000000, 0.000000000000000000, -1.000000000000000000 ) ) ;
#164 = EDGE_CURVE ( 'NONE', #178, #221, #170, .T. ) ;
#165 = MECHANICAL_DESIGN_GEOMETRIC_PRESENTATION_REPRESENTATION (  '', ( #247 ), #207 ) ;
#166 = DIRECTION ( 'NONE',  ( 0.000000000000000000, 1.000000000000000000, 0.000000000000000000 ) ) ;
#167 = ADVANCED_FACE ( 'NONE', ( #282 ), #122, .T. ) ;
#168 = FILL_AREA_STYLE ('',( #121 ) ) ;
#169 = VERTEX_POINT ( 'NONE', #197 ) ;
#170 = CIRCLE ( 'NONE', #153, 0.06250000000000000000 ) ;
#171 = PRODUCT_DEFINITION ( 'UNKNOWN', '', #150, #47 ) ;
#172 = FACE_OUTER_BOUND ( 'NONE', #36, .T. ) ;
#173 = VERTEX_POINT ( 'NONE', #264 ) ;
#174 = COLOUR_RGB ( '',1.000000000000000000, 0.000000000000000000, 0.000000000000000000 ) ;
#175 = CARTESIAN_POINT ( 'NONE',  ( 0.06250000000000000000, 0.8749999999999997780, 7.654042494670963708E-18 ) ) ;
#176 = CARTESIAN_POINT ( 'NONE',  ( 7.654042494670957545E-18, 0.000000000000000000, 0.06250000000000000000 ) ) ;
#177 = CARTESIAN_POINT ( 'NONE',  ( 0.000000000000000000, 0.000000000000000000, 0.000000000000000000 ) ) ;
#178 = VERTEX_POINT ( 'NONE', #23 ) ;
#179 = CLOSED_SHELL ( 'NONE', ( #201, #167, #123, #284 ) ) ;
#180 =( NAMED_UNIT ( * ) SI_UNIT ( $, .STERADIAN. ) SOLID_ANGLE_UNIT ( ) );
#181 = ORIENTED_EDGE ( 'NONE', *, *, #6, .T. ) ;
#182 = FILL_AREA_STYLE_COLOUR ( '', #174 ) ;
#183 = FACE_OUTER_BOUND ( 'NONE', #229, .T. ) ;
#184 = APPLICATION_CONTEXT ( 'automotive_design' ) ;
#185 =( CONVERSION_BASED_UNIT ( 'INCH', #303 ) LENGTH_UNIT ( ) NAMED_UNIT ( #193 ) );
#186 = STYLED_ITEM ( 'NONE', ( #301 ), #46 ) ;
#187 = AXIS2_PLACEMENT_3D ( 'NONE', #10, #270, #35 ) ;
#188 = DIRECTION ( 'NONE',  ( 1.000000000000000000, 3.768143997376470743E-17, 0.000000000000000000 ) ) ;
#189 = APPLICATION_PROTOCOL_DEFINITION ( 'draft international standard', 'automotive_design', 1998, #241 ) ;
#190 = FILL_AREA_STYLE ('',( #213 ) ) ;
#191 = EDGE_CURVE ( 'NONE', #298, #173, #233, .T. ) ;
#192 = FACE_OUTER_BOUND ( 'NONE', #205, .T. ) ;
#193 = DIMENSIONAL_EXPONENTS ( 1.000000000000000000, 0.000000000000000000, 0.000000000000000000, 0.000000000000000000, 0.000000000000000000, 0.000000000000000000, 0.000000000000000000 ) ;
#194 = FILL_AREA_STYLE ('',( #222 ) ) ;
#195 = COLOUR_RGB ( '',1.000000000000000000, 0.000000000000000000, 0.000000000000000000 ) ;
#196 =( NAMED_UNIT ( * ) SI_UNIT ( $, .STERADIAN. ) SOLID_ANGLE_UNIT ( ) );
#197 = CARTESIAN_POINT ( 'NONE',  ( 0.000000000000000000, 0.8750000000000000000, -0.06250000000000000000 ) ) ;
#198 = EDGE_LOOP ( 'NONE', ( #26, #12 ) ) ;
#199 = ORIENTED_EDGE ( 'NONE', *, *, #79, .T. ) ;
#200 = DIMENSIONAL_EXPONENTS ( 1.000000000000000000, 0.000000000000000000, 0.000000000000000000, 0.000000000000000000, 0.000000000000000000, 0.000000000000000000, 0.000000000000000000 ) ;
#201 = ADVANCED_FACE ( 'NONE', ( #172 ), #220, .T. ) ;
#202 = PLANE ( 'NONE',  #309 ) ;
#203 = DIRECTION ( 'NONE',  ( -1.000000000000000000, -3.768143997376470743E-17, 0.000000000000000000 ) ) ;
#204 = PRESENTATION_LAYER_ASSIGNMENT (  '', '', ( #80 ) ) ;
#205 = EDGE_LOOP ( 'NONE', ( #126, #147, #145, #108 ) ) ;
#206 = ORIENTED_EDGE ( 'NONE', *, *, #266, .T. ) ;
#207 =( GEOMETRIC_REPRESENTATION_CONTEXT ( 3 ) GLOBAL_UNCERTAINTY_ASSIGNED_CONTEXT ( ( #231 ) ) GLOBAL_UNIT_ASSIGNED_CONTEXT ( ( #114, #42, #92 ) ) REPRESENTATION_CONTEXT ( 'NONE', 'WORKASPACE' ) );
#208 = SURFACE_STYLE_USAGE ( .BOTH. , #16 ) ;
#209 = AXIS2_PLACEMENT_3D ( 'NONE', #227, #105, #203 ) ;
#210 = CARTESIAN_POINT ( 'NONE',  ( 0.000000000000000000, 0.000000000000000000, 0.000000000000000000 ) ) ;
#211 = PRESENTATION_STYLE_ASSIGNMENT (( #277 ) ) ;
#212 =( GEOMETRIC_REPRESENTATION_CONTEXT ( 3 ) GLOBAL_UNCERTAINTY_ASSIGNED_CONTEXT ( ( #253 ) ) GLOBAL_UNIT_ASSIGNED_CONTEXT ( ( #61, #292, #14 ) ) REPRESENTATION_CONTEXT ( 'NONE', 'WORKASPACE' ) );
#213 = FILL_AREA_STYLE_COLOUR ( '', #279 ) ;
#214 = PRODUCT_DEFINITION_SHAPE ( 'NONE', 'NONE',  #171 ) ;
#215 = COLOUR_RGB ( '',1.000000000000000000, 0.000000000000000000, 0.000000000000000000 ) ;
#216 = DIMENSIONAL_EXPONENTS ( 1.000000000000000000, 0.000000000000000000, 0.000000000000000000, 0.000000000000000000, 0.000000000000000000, 0.000000000000000000, 0.000000000000000000 ) ;
#217 = PRESENTATION_STYLE_ASSIGNMENT (( #82 ) ) ;
#218 =( CONVERSION_BASED_UNIT ( 'INCH', #50 ) LENGTH_UNIT ( ) NAMED_UNIT ( #216 ) );
#219 = CARTESIAN_POINT ( 'NONE',  ( -6.123233995736766036E-17, 2.500000000000000000, 0.000000000000000000 ) ) ;
#220 = CYLINDRICAL_SURFACE ( 'NONE', #260, 0.06250000000000000000 ) ;
#221 = VERTEX_POINT ( 'NONE', #175 ) ;
#222 = FILL_AREA_STYLE_COLOUR ( '', #195 ) ;
#223 = DIRECTION ( 'NONE',  ( 0.000000000000000000, -1.000000000000000000, -0.000000000000000000 ) ) ;
#224 = MECHANICAL_DESIGN_GEOMETRIC_PRESENTATION_REPRESENTATION (  '', ( #237 ), #128 ) ;
#225 = PLANE ( 'NONE',  #209 ) ;
#226 = AXIS2_PLACEMENT_3D ( 'NONE', #2, #44, #95 ) ;
#227 = CARTESIAN_POINT ( 'NONE',  ( 4.437159120301352683E-35, 0.8750000000000000000, 0.000000000000000000 ) ) ;
#228 = CARTESIAN_POINT ( 'NONE',  ( 0.06250000000000000000, 2.500000000000000000, 7.654042494670963708E-18 ) ) ;
#229 = EDGE_LOOP ( 'NONE', ( #87, #293 ) ) ;
#230 = CARTESIAN_POINT ( 'NONE',  ( 7.654042494670957545E-18, 0.8750000000000000000, 0.06250000000000000000 ) ) ;
#231 = UNCERTAINTY_MEASURE_WITH_UNIT (LENGTH_MEASURE( 1.000000000000000082E-05 ), #114, 'distance_accuracy_value', 'NONE');
#232 = DIRECTION ( 'NONE',  ( 0.000000000000000000, 0.000000000000000000, -1.000000000000000000 ) ) ;
#233 = CIRCLE ( 'NONE', #40, 0.06250000000000005551 ) ;
#234 =( NAMED_UNIT ( * ) SI_UNIT ( $, .STERADIAN. ) SOLID_ANGLE_UNIT ( ) );
#235 = APPLICATION_PROTOCOL_DEFINITION ( 'draft international standard', 'automotive_design', 1998, #184 ) ;
#236 = CARTESIAN_POINT ( 'NONE',  ( 0.000000000000000000, 0.000000000000000000, -0.06250000000000000000 ) ) ;
#237 = STYLED_ITEM ( 'NONE', ( #280 ), #141 ) ;
#238 =( LENGTH_UNIT ( ) NAMED_UNIT ( * ) SI_UNIT ( $, .METRE. ) );
#239 = PRODUCT ( '83429', '83429', '', ( #157 ) ) ;
#240 =( CONVERSION_BASED_UNIT ( 'INCH', #144 ) LENGTH_UNIT ( ) NAMED_UNIT ( #59 ) );
#241 = APPLICATION_CONTEXT ( 'automotive_design' ) ;
#242 = ORIENTED_EDGE ( 'NONE', *, *, #79, .F. ) ;
#243 = CARTESIAN_POINT ( 'NONE',  ( -0.06250000000000009714, 2.500000000000000000, 0.000000000000000000 ) ) ;
#244 = SURFACE_STYLE_FILL_AREA ( #252 ) ;
#245 = VERTEX_POINT ( 'NONE', #111 ) ;
#246 = LINE ( 'NONE', #130, #3 ) ;
#247 = STYLED_ITEM ( 'NONE', ( #211 ), #123 ) ;
#248 = EDGE_LOOP ( 'NONE', ( #101, #242 ) ) ;
#249 = LENGTH_MEASURE_WITH_UNIT ( LENGTH_MEASURE( 0.02539999999999999897 ), #32 );
#250 = ORIENTED_EDGE ( 'NONE', *, *, #266, .F. ) ;
#251 = LENGTH_MEASURE_WITH_UNIT ( LENGTH_MEASURE( 0.02539999999999999897 ), #86 );
#252 = FILL_AREA_STYLE ('',( #182 ) ) ;
#253 = UNCERTAINTY_MEASURE_WITH_UNIT (LENGTH_MEASURE( 1.000000000000000082E-05 ), #61, 'distance_accuracy_value', 'NONE');
#254 = AXIS2_PLACEMENT_3D ( 'NONE', #78, #166, #102 ) ;
#255 = ADVANCED_FACE ( 'NONE', ( #88 ), #67, .T. ) ;
#256 = DIRECTION ( 'NONE',  ( -0.000000000000000000, -1.000000000000000000, -0.000000000000000000 ) ) ;
#257 = CARTESIAN_POINT ( 'NONE',  ( 0.000000000000000000, 0.8750000000000000000, 0.000000000000000000 ) ) ;
#258 = CIRCLE ( 'NONE', #226, 0.06250000000000000000 ) ;
#259 = DIRECTION ( 'NONE',  ( -3.768143997376470743E-17, 1.000000000000000000, -0.000000000000000000 ) ) ;
#260 = AXIS2_PLACEMENT_3D ( 'NONE', #39, #84, #300 ) ;
#261 = FACE_OUTER_BOUND ( 'NONE', #198, .T. ) ;
#262 =( LENGTH_UNIT ( ) NAMED_UNIT ( * ) SI_UNIT ( $, .METRE. ) );
#263 = DIMENSIONAL_EXPONENTS ( 1.000000000000000000, 0.000000000000000000, 0.000000000000000000, 0.000000000000000000, 0.000000000000000000, 0.000000000000000000, 0.000000000000000000 ) ;
#264 = CARTESIAN_POINT ( 'NONE',  ( -0.06250000000000012490, 2.500000000000000000, 0.000000000000000000 ) ) ;
#265 = CIRCLE ( 'NONE', #99, 0.06250000000000000000 ) ;
#266 = EDGE_CURVE ( 'NONE', #169, #64, #246, .T. ) ;
#267 = VERTEX_POINT ( 'NONE', #230 ) ;
#268 = SURFACE_STYLE_USAGE ( .BOTH. , #285 ) ;
#269 = ORIENTED_EDGE ( 'NONE', *, *, #110, .F. ) ;
#270 = DIRECTION ( 'NONE',  ( -0.000000000000000000, -1.000000000000000000, -0.000000000000000000 ) ) ;
#271 = CIRCLE ( 'NONE', #297, 0.06250000000000005551 ) ;
#272 = ORIENTED_EDGE ( 'NONE', *, *, #110, .T. ) ;
#273 = ORIENTED_EDGE ( 'NONE', *, *, #134, .F. ) ;
#274 = PRESENTATION_LAYER_ASSIGNMENT (  '', '', ( #237 ) ) ;
#275 = CARTESIAN_POINT ( 'NONE',  ( 0.06249999999999997224, 2.500000000000000000, 7.654042494670960626E-18 ) ) ;
#276 = UNCERTAINTY_MEASURE_WITH_UNIT (LENGTH_MEASURE( 1.000000000000000082E-05 ), #185, 'distance_accuracy_value', 'NONE');
#277 = SURFACE_STYLE_USAGE ( .BOTH. , #17 ) ;
#278 = MECHANICAL_DESIGN_GEOMETRIC_PRESENTATION_REPRESENTATION (  '', ( #80 ), #212 ) ;
#279 = COLOUR_RGB ( '',0.7921568627450980005, 0.8196078431372548767, 0.9333333333333333481 ) ;
#280 = PRESENTATION_STYLE_ASSIGNMENT (( #75 ) ) ;
#281 = FILL_AREA_STYLE_COLOUR ( '', #96 ) ;
#282 = FACE_OUTER_BOUND ( 'NONE', #60, .T. ) ;
#283 =( NAMED_UNIT ( * ) PLANE_ANGLE_UNIT ( ) SI_UNIT ( $, .RADIAN. ) );
#284 = ADVANCED_FACE ( 'NONE', ( #183 ), #202, .T. ) ;
#285 = SURFACE_SIDE_STYLE ('',( #55 ) ) ;
#286 = DIRECTION ( 'NONE',  ( -1.000000000000000000, 0.000000000000000000, 0.000000000000000000 ) ) ;
#287 = ORIENTED_EDGE ( 'NONE', *, *, #49, .F. ) ;
#288 = LENGTH_MEASURE_WITH_UNIT ( LENGTH_MEASURE( 0.02539999999999999897 ), #238 );
#289 = AXIS2_PLACEMENT_3D ( 'NONE', #152, #131, #232 ) ;
#290 = ORIENTED_EDGE ( 'NONE', *, *, #29, .T. ) ;
#291 = LINE ( 'NONE', #176, #52 ) ;
#292 =( NAMED_UNIT ( * ) PLANE_ANGLE_UNIT ( ) SI_UNIT ( $, .RADIAN. ) );
#293 = ORIENTED_EDGE ( 'NONE', *, *, #296, .T. ) ;
#294 = DIRECTION ( 'NONE',  ( -0.000000000000000000, -1.000000000000000000, -0.000000000000000000 ) ) ;
#295 = AXIS2_PLACEMENT_3D ( 'NONE', #302, #135, #112 ) ;
#296 = EDGE_CURVE ( 'NONE', #245, #64, #94, .T. ) ;
#297 = AXIS2_PLACEMENT_3D ( 'NONE', #58, #31, #34 ) ;
#298 = VERTEX_POINT ( 'NONE', #228 ) ;
#299 =( NAMED_UNIT ( * ) PLANE_ANGLE_UNIT ( ) SI_UNIT ( $, .RADIAN. ) );
#300 = DIRECTION ( 'NONE',  ( 0.000000000000000000, 0.000000000000000000, -1.000000000000000000 ) ) ;
#301 = PRESENTATION_STYLE_ASSIGNMENT (( #41 ) ) ;
#302 = CARTESIAN_POINT ( 'NONE',  ( 0.000000000000000000, 0.000000000000000000, 0.000000000000000000 ) ) ;
#303 = LENGTH_MEASURE_WITH_UNIT ( LENGTH_MEASURE( 0.02539999999999999897 ), #262 );
#304 = MECHANICAL_DESIGN_GEOMETRIC_PRESENTATION_REPRESENTATION (  '', ( #186 ), #161 ) ;
#305 = SURFACE_STYLE_FILL_AREA ( #190 ) ;
#306 = AXIS2_PLACEMENT_3D ( 'NONE', #65, #37, #107 ) ;
#307 = SURFACE_SIDE_STYLE ('',( #43 ) ) ;
#308 = DIRECTION ( 'NONE',  ( -0.000000000000000000, -1.000000000000000000, -0.000000000000000000 ) ) ;
#309 = AXIS2_PLACEMENT_3D ( 'NONE', #177, #223, #155 ) ;
ENDSEC;
END-ISO-10303-21;
