ISO-10303-21;
HEADER;
FILE_DESCRIPTION (( 'STEP AP214' ),
    '1' );
FILE_NAME ('59639.STEP',
    '2023-07-24T15:18:12',
    ( '' ),
    ( '' ),
    'SwSTEP 2.0',
    'SolidWorks 2023',
    '' );
FILE_SCHEMA (( 'AUTOMOTIVE_DESIGN' ));
ENDSEC;

DATA;
#1 = AXIS2_PLACEMENT_3D ( 'NONE', #368, #185, #23 ) ;
#2 =( GEOMETRIC_REPRESENTATION_CONTEXT ( 3 ) GLOBAL_UNCERTAINTY_ASSIGNED_CONTEXT ( ( #116 ) ) GLOBAL_UNIT_ASSIGNED_CONTEXT ( ( #301, #244, #207 ) ) REPRESENTATION_CONTEXT ( 'NONE', 'WORKASPACE' ) );
#3 = LINE ( 'NONE', #154, #238 ) ;
#4 = FILL_AREA_STYLE ('',( #260 ) ) ;
#5 = SURFACE_STYLE_USAGE ( .BOTH. , #319 ) ;
#6 = VERTEX_POINT ( 'NONE', #290 ) ;
#7 = ORIENTED_EDGE ( 'NONE', *, *, #248, .T. ) ;
#8 = CIRCLE ( 'NONE', #99, 0.4999999999999995559 ) ;
#9 = FACE_OUTER_BOUND ( 'NONE', #352, .T. ) ;
#10 = DIRECTION ( 'NONE',  ( -9.135657442593541248E-17, 1.000000000000000000, -0.000000000000000000 ) ) ;
#11 = FACE_OUTER_BOUND ( 'NONE', #284, .T. ) ;
#12 = CARTESIAN_POINT ( 'NONE',  ( 0.000000000000000000, 0.000000000000000000, 0.000000000000000000 ) ) ;
#13 = CARTESIAN_POINT ( 'NONE',  ( 0.000000000000000000, 0.5000000000000000000, 0.000000000000000000 ) ) ;
#14 = ADVANCED_FACE ( 'NONE', ( #9 ), #363, .T. ) ;
#15 = MECHANICAL_DESIGN_GEOMETRIC_PRESENTATION_REPRESENTATION (  '', ( #313 ), #2 ) ;
#16 = DIRECTION ( 'NONE',  ( 0.000000000000000000, 0.000000000000000000, -1.000000000000000000 ) ) ;
#17 =( NAMED_UNIT ( * ) PLANE_ANGLE_UNIT ( ) SI_UNIT ( $, .RADIAN. ) );
#18 = DIRECTION ( 'NONE',  ( -9.135657442593541248E-17, 1.000000000000000000, -0.000000000000000000 ) ) ;
#19 = FILL_AREA_STYLE ('',( #305 ) ) ;
#20 =( GEOMETRIC_REPRESENTATION_CONTEXT ( 3 ) GLOBAL_UNCERTAINTY_ASSIGNED_CONTEXT ( ( #55 ) ) GLOBAL_UNIT_ASSIGNED_CONTEXT ( ( #153, #228, #148 ) ) REPRESENTATION_CONTEXT ( 'NONE', 'WORKASPACE' ) );
#21 = ADVANCED_BREP_SHAPE_REPRESENTATION ( '59639', ( #80, #335, #271 ), #204 ) ;
#22 = COLOUR_RGB ( '',1.000000000000000000, 0.000000000000000000, 0.000000000000000000 ) ;
#23 = DIRECTION ( 'NONE',  ( -1.000000000000000000, -9.135657442593541248E-17, 0.000000000000000000 ) ) ;
#24 = CIRCLE ( 'NONE', #224, 5.000000000000000000 ) ;
#25 = DIRECTION ( 'NONE',  ( -0.000000000000000000, -1.000000000000000000, -0.000000000000000000 ) ) ;
#26 = CYLINDRICAL_SURFACE ( 'NONE', #75, 5.000000000000000000 ) ;
#27 = ORIENTED_EDGE ( 'NONE', *, *, #336, .T. ) ;
#28 = VERTEX_POINT ( 'NONE', #144 ) ;
#29 = DIRECTION ( 'NONE',  ( -0.000000000000000000, -1.000000000000000000, -0.000000000000000000 ) ) ;
#30 = ORIENTED_EDGE ( 'NONE', *, *, #132, .T. ) ;
#31 = DIRECTION ( 'NONE',  ( 0.000000000000000000, 0.000000000000000000, -1.000000000000000000 ) ) ;
#32 = VERTEX_POINT ( 'NONE', #128 ) ;
#33 =( GEOMETRIC_REPRESENTATION_CONTEXT ( 3 ) GLOBAL_UNCERTAINTY_ASSIGNED_CONTEXT ( ( #85 ) ) GLOBAL_UNIT_ASSIGNED_CONTEXT ( ( #39, #264, #353 ) ) REPRESENTATION_CONTEXT ( 'NONE', 'WORKASPACE' ) );
#34 = AXIS2_PLACEMENT_3D ( 'NONE', #157, #102, #364 ) ;
#35 =( NAMED_UNIT ( * ) PLANE_ANGLE_UNIT ( ) SI_UNIT ( $, .RADIAN. ) );
#36 = ORIENTED_EDGE ( 'NONE', *, *, #98, .T. ) ;
#37 = SURFACE_SIDE_STYLE ('',( #360 ) ) ;
#38 = UNCERTAINTY_MEASURE_WITH_UNIT (LENGTH_MEASURE( 1.000000000000000082E-05 ), #140, 'distance_accuracy_value', 'NONE');
#39 =( LENGTH_UNIT ( ) NAMED_UNIT ( * ) SI_UNIT ( .MILLI., .METRE. ) );
#40 = STYLED_ITEM ( 'NONE', ( #334 ), #80 ) ;
#41 = COLOUR_RGB ( '',1.000000000000000000, 0.000000000000000000, 0.000000000000000000 ) ;
#42 = FACE_OUTER_BOUND ( 'NONE', #255, .T. ) ;
#43 = ADVANCED_FACE ( 'NONE', ( #183 ), #125, .T. ) ;
#44 = AXIS2_PLACEMENT_3D ( 'NONE', #254, #10, #52 ) ;
#45 = STYLED_ITEM ( 'NONE', ( #164 ), #263 ) ;
#46 = CARTESIAN_POINT ( 'NONE',  ( 5.000000000000000000, 63.00000000000000000, 0.000000000000000000 ) ) ;
#47 = PRESENTATION_LAYER_ASSIGNMENT (  '', '', ( #40 ) ) ;
#48 = CARTESIAN_POINT ( 'NONE',  ( 0.000000000000000000, 0.000000000000000000, -5.000000000000000000 ) ) ;
#49 = EDGE_CURVE ( 'NONE', #58, #32, #78, .T. ) ;
#50 = CARTESIAN_POINT ( 'NONE',  ( 0.000000000000000000, 0.000000000000000000, 0.000000000000000000 ) ) ;
#51 = PRESENTATION_LAYER_ASSIGNMENT (  '', '', ( #167 ) ) ;
#52 = DIRECTION ( 'NONE',  ( -1.000000000000000000, 0.000000000000000000, 0.000000000000000000 ) ) ;
#53 = DIRECTION ( 'NONE',  ( 0.000000000000000000, 0.000000000000000000, -1.000000000000000000 ) ) ;
#54 = EDGE_LOOP ( 'NONE', ( #170, #30, #7, #318 ) ) ;
#55 = UNCERTAINTY_MEASURE_WITH_UNIT (LENGTH_MEASURE( 1.000000000000000082E-05 ), #153, 'distance_accuracy_value', 'NONE');
#56 = PRESENTATION_LAYER_ASSIGNMENT (  '', '', ( #45 ) ) ;
#57 = DIRECTION ( 'NONE',  ( -9.135657442593541248E-17, 1.000000000000000000, -0.000000000000000000 ) ) ;
#58 = VERTEX_POINT ( 'NONE', #330 ) ;
#59 = PRODUCT_DEFINITION_FORMATION_WITH_SPECIFIED_SOURCE ( 'ANY', '', #275, .NOT_KNOWN. ) ;
#60 = MECHANICAL_DESIGN_GEOMETRIC_PRESENTATION_REPRESENTATION (  '', ( #167 ), #20 ) ;
#61 = PRESENTATION_STYLE_ASSIGNMENT (( #323 ) ) ;
#62 = EDGE_CURVE ( 'NONE', #351, #165, #343, .T. ) ;
#63 = DIRECTION ( 'NONE',  ( 0.000000000000000000, -0.000000000000000000, 1.000000000000000000 ) ) ;
#64 = DIRECTION ( 'NONE',  ( -0.000000000000000000, -1.000000000000000000, -0.000000000000000000 ) ) ;
#65 = SHAPE_DEFINITION_REPRESENTATION ( #280, #21 ) ;
#66 = AXIS2_PLACEMENT_3D ( 'NONE', #171, #350, #31 ) ;
#67 = SURFACE_STYLE_FILL_AREA ( #96 ) ;
#68 = DIRECTION ( 'NONE',  ( -0.000000000000000000, -1.000000000000000000, -0.000000000000000000 ) ) ;
#69 = CARTESIAN_POINT ( 'NONE',  ( 1.469576158976823750E-15, 63.00000000000000000, 0.000000000000000000 ) ) ;
#70 = COLOUR_RGB ( '',1.000000000000000000, 0.000000000000000000, 0.000000000000000000 ) ;
#71 = STYLED_ITEM ( 'NONE', ( #176 ), #72 ) ;
#72 = ADVANCED_FACE ( 'NONE', ( #202 ), #270, .T. ) ;
#73 = CARTESIAN_POINT ( 'NONE',  ( 0.000000000000000000, 0.000000000000000000, -4.500000000000000888 ) ) ;
#74 = LINE ( 'NONE', #133, #158 ) ;
#75 = AXIS2_PLACEMENT_3D ( 'NONE', #50, #29, #53 ) ;
#76 = CARTESIAN_POINT ( 'NONE',  ( 5.000000000000000000, 15.00000000000000000, 6.123233995736762338E-16 ) ) ;
#77 = AXIS2_PLACEMENT_3D ( 'NONE', #12, #235, #177 ) ;
#78 = CIRCLE ( 'NONE', #296, 4.999999999999998224 ) ;
#79 = DIRECTION ( 'NONE',  ( -1.000000000000000000, 0.000000000000000000, 0.000000000000000000 ) ) ;
#80 = MANIFOLD_SOLID_BREP ( 'Revolve - Cutting Edge', #208 ) ;
#81 = CARTESIAN_POINT ( 'NONE',  ( 0.000000000000000000, 15.00000000000000000, 0.000000000000000000 ) ) ;
#82 =( NAMED_UNIT ( * ) SI_UNIT ( $, .STERADIAN. ) SOLID_ANGLE_UNIT ( ) );
#83 = SURFACE_STYLE_USAGE ( .BOTH. , #346 ) ;
#84 = VERTEX_POINT ( 'NONE', #333 ) ;
#85 = UNCERTAINTY_MEASURE_WITH_UNIT (LENGTH_MEASURE( 1.000000000000000082E-05 ), #39, 'distance_accuracy_value', 'NONE');
#86 = AXIS2_PLACEMENT_3D ( 'NONE', #282, #312, #340 ) ;
#87 =( NAMED_UNIT ( * ) PLANE_ANGLE_UNIT ( ) SI_UNIT ( $, .RADIAN. ) );
#88 = ORIENTED_EDGE ( 'NONE', *, *, #49, .F. ) ;
#89 = EDGE_LOOP ( 'NONE', ( #226, #36, #262, #112 ) ) ;
#90 = FILL_AREA_STYLE_COLOUR ( '', #329 ) ;
#91 = ORIENTED_EDGE ( 'NONE', *, *, #306, .F. ) ;
#92 = ADVANCED_FACE ( 'NONE', ( #201 ), #237, .T. ) ;
#93 = PRESENTATION_LAYER_ASSIGNMENT (  '', '', ( #181 ) ) ;
#94 = EDGE_LOOP ( 'NONE', ( #294, #175 ) ) ;
#95 = FILL_AREA_STYLE_COLOUR ( '', #70 ) ;
#96 = FILL_AREA_STYLE ('',( #359 ) ) ;
#97 = PRESENTATION_STYLE_ASSIGNMENT (( #205 ) ) ;
#98 = EDGE_CURVE ( 'NONE', #354, #84, #234, .T. ) ;
#99 = AXIS2_PLACEMENT_3D ( 'NONE', #369, #315, #163 ) ;
#100 = MECHANICAL_DESIGN_GEOMETRIC_PRESENTATION_REPRESENTATION (  '', ( #198 ), #179 ) ;
#101 = CARTESIAN_POINT ( 'NONE',  ( 6.123233995736766282E-16, 15.00000000000000000, 5.000000000000000000 ) ) ;
#102 = DIRECTION ( 'NONE',  ( -9.135657442593541248E-17, 1.000000000000000000, -0.000000000000000000 ) ) ;
#103 =( LENGTH_UNIT ( ) NAMED_UNIT ( * ) SI_UNIT ( .MILLI., .METRE. ) );
#104 = ADVANCED_FACE ( 'NONE', ( #300 ), #324, .T. ) ;
#105 = CYLINDRICAL_SURFACE ( 'NONE', #109, 4.999999999999995559 ) ;
#106 = DIRECTION ( 'NONE',  ( 9.135657442593541248E-17, -1.000000000000000000, 0.000000000000000000 ) ) ;
#107 =( LENGTH_UNIT ( ) NAMED_UNIT ( * ) SI_UNIT ( .MILLI., .METRE. ) );
#108 = AXIS2_PLACEMENT_3D ( 'NONE', #287, #111, #169 ) ;
#109 = AXIS2_PLACEMENT_3D ( 'NONE', #273, #212, #274 ) ;
#110 =( NAMED_UNIT ( * ) PLANE_ANGLE_UNIT ( ) SI_UNIT ( $, .RADIAN. ) );
#111 = DIRECTION ( 'NONE',  ( 0.000000000000000000, -1.000000000000000000, -0.000000000000000000 ) ) ;
#112 = ORIENTED_EDGE ( 'NONE', *, *, #132, .F. ) ;
#113 = ADVANCED_FACE ( 'NONE', ( #11 ), #105, .T. ) ;
#114 = SURFACE_STYLE_FILL_AREA ( #225 ) ;
#115 = VERTEX_POINT ( 'NONE', #73 ) ;
#116 = UNCERTAINTY_MEASURE_WITH_UNIT (LENGTH_MEASURE( 1.000000000000000082E-05 ), #301, 'distance_accuracy_value', 'NONE');
#117 = CIRCLE ( 'NONE', #331, 4.999999999999993783 ) ;
#118 = DIRECTION ( 'NONE',  ( 0.000000000000000000, 0.000000000000000000, -1.000000000000000000 ) ) ;
#119 = ORIENTED_EDGE ( 'NONE', *, *, #279, .T. ) ;
#120 = SURFACE_STYLE_FILL_AREA ( #4 ) ;
#121 = LINE ( 'NONE', #218, #161 ) ;
#122 = ORIENTED_EDGE ( 'NONE', *, *, #303, .T. ) ;
#123 = PRESENTATION_STYLE_ASSIGNMENT (( #327 ) ) ;
#124 = CARTESIAN_POINT ( 'NONE',  ( 0.000000000000000000, 0.5000000000000000000, 0.000000000000000000 ) ) ;
#125 = CYLINDRICAL_SURFACE ( 'NONE', #34, 4.999999999999995559 ) ;
#126 = PRODUCT_DEFINITION ( 'UNKNOWN', '', #59, #265 ) ;
#127 = CARTESIAN_POINT ( 'NONE',  ( 5.510910596163089556E-16, 0.5000000000000000000, 4.500000000000000888 ) ) ;
#128 = CARTESIAN_POINT ( 'NONE',  ( 5.000000000000000000, 63.00000000000000000, 6.123233995736762338E-16 ) ) ;
#129 = SURFACE_SIDE_STYLE ('',( #366 ) ) ;
#130 = DIRECTION ( 'NONE',  ( -1.224646799147353454E-16, 0.000000000000000000, -1.000000000000000000 ) ) ;
#131 =( LENGTH_UNIT ( ) NAMED_UNIT ( * ) SI_UNIT ( .MILLI., .METRE. ) );
#132 = EDGE_CURVE ( 'NONE', #165, #351, #216, .T. ) ;
#133 = CARTESIAN_POINT ( 'NONE',  ( 6.123233995736766282E-16, 0.000000000000000000, 5.000000000000000000 ) ) ;
#134 = CARTESIAN_POINT ( 'NONE',  ( 0.000000000000000000, 0.5000000000000000000, 0.000000000000000000 ) ) ;
#135 = AXIS2_PLACEMENT_3D ( 'NONE', #134, #162, #211 ) ;
#136 = CARTESIAN_POINT ( 'NONE',  ( 5.854691731421723944E-15, 15.00000000000000000, 0.000000000000000000 ) ) ;
#137 = DIRECTION ( 'NONE',  ( -0.000000000000000000, -1.000000000000000000, -0.000000000000000000 ) ) ;
#138 = FACE_OUTER_BOUND ( 'NONE', #94, .T. ) ;
#139 = ORIENTED_EDGE ( 'NONE', *, *, #62, .T. ) ;
#140 =( LENGTH_UNIT ( ) NAMED_UNIT ( * ) SI_UNIT ( .MILLI., .METRE. ) );
#141 = ORIENTED_EDGE ( 'NONE', *, *, #227, .T. ) ;
#142 = COLOUR_RGB ( '',1.000000000000000000, 0.000000000000000000, 0.000000000000000000 ) ;
#143 = DIRECTION ( 'NONE',  ( -9.135657442593541248E-17, 1.000000000000000000, -0.000000000000000000 ) ) ;
#144 = CARTESIAN_POINT ( 'NONE',  ( 5.817072295949928412E-16, 0.000000000000000000, 4.500000000000000888 ) ) ;
#145 = PRESENTATION_LAYER_ASSIGNMENT (  '', '', ( #313 ) ) ;
#146 = DIRECTION ( 'NONE',  ( -0.000000000000000000, -1.000000000000000000, -0.000000000000000000 ) ) ;
#147 = ORIENTED_EDGE ( 'NONE', *, *, #311, .T. ) ;
#148 =( NAMED_UNIT ( * ) SI_UNIT ( $, .STERADIAN. ) SOLID_ANGLE_UNIT ( ) );
#149 = COLOUR_RGB ( '',0.7921568627450980005, 0.8196078431372548767, 0.9333333333333333481 ) ;
#150 = DIRECTION ( 'NONE',  ( 0.000000000000000000, 0.000000000000000000, -1.000000000000000000 ) ) ;
#151 = SURFACE_STYLE_FILL_AREA ( #203 ) ;
#152 =( LENGTH_UNIT ( ) NAMED_UNIT ( * ) SI_UNIT ( .MILLI., .METRE. ) );
#153 =( LENGTH_UNIT ( ) NAMED_UNIT ( * ) SI_UNIT ( .MILLI., .METRE. ) );
#154 = CARTESIAN_POINT ( 'NONE',  ( -4.999999999999993783, 63.00000000000000000, 0.000000000000000000 ) ) ;
#155 =( NAMED_UNIT ( * ) SI_UNIT ( $, .STERADIAN. ) SOLID_ANGLE_UNIT ( ) );
#156 =( GEOMETRIC_REPRESENTATION_CONTEXT ( 3 ) GLOBAL_UNCERTAINTY_ASSIGNED_CONTEXT ( ( #326 ) ) GLOBAL_UNIT_ASSIGNED_CONTEXT ( ( #283, #35, #317 ) ) REPRESENTATION_CONTEXT ( 'NONE', 'WORKASPACE' ) );
#157 = CARTESIAN_POINT ( 'NONE',  ( 1.469576158976823750E-15, 63.00000000000000000, 0.000000000000000000 ) ) ;
#158 = VECTOR ( 'NONE', #190, 1000.000000000000000 ) ;
#159 = DIRECTION ( 'NONE',  ( 1.000000000000000000, 0.000000000000000000, 0.000000000000000000 ) ) ;
#160 = PRESENTATION_STYLE_ASSIGNMENT (( #191 ) ) ;
#161 = VECTOR ( 'NONE', #57, 1000.000000000000000 ) ;
#162 = DIRECTION ( 'NONE',  ( -0.000000000000000000, -1.000000000000000000, -0.000000000000000000 ) ) ;
#163 = DIRECTION ( 'NONE',  ( 0.000000000000000000, 0.000000000000000000, 1.000000000000000000 ) ) ;
#164 = PRESENTATION_STYLE_ASSIGNMENT (( #5 ) ) ;
#165 = VERTEX_POINT ( 'NONE', #309 ) ;
#166 = ADVANCED_FACE ( 'NONE', ( #138 ), #278, .F. ) ;
#167 = STYLED_ITEM ( 'NONE', ( #97 ), #104 ) ;
#168 = ORIENTED_EDGE ( 'NONE', *, *, #311, .F. ) ;
#169 = DIRECTION ( 'NONE',  ( 0.000000000000000000, 0.000000000000000000, -1.000000000000000000 ) ) ;
#170 = ORIENTED_EDGE ( 'NONE', *, *, #365, .F. ) ;
#171 = CARTESIAN_POINT ( 'NONE',  ( 0.000000000000000000, 0.000000000000000000, 0.000000000000000000 ) ) ;
#172 = VERTEX_POINT ( 'NONE', #76 ) ;
#173 = STYLED_ITEM ( 'NONE', ( #222 ), #335 ) ;
#174 = FILL_AREA_STYLE_COLOUR ( '', #321 ) ;
#175 = ORIENTED_EDGE ( 'NONE', *, *, #303, .F. ) ;
#176 = PRESENTATION_STYLE_ASSIGNMENT (( #302 ) ) ;
#177 = DIRECTION ( 'NONE',  ( 0.000000000000000000, 0.000000000000000000, -1.000000000000000000 ) ) ;
#178 =( NAMED_UNIT ( * ) PLANE_ANGLE_UNIT ( ) SI_UNIT ( $, .RADIAN. ) );
#179 =( GEOMETRIC_REPRESENTATION_CONTEXT ( 3 ) GLOBAL_UNCERTAINTY_ASSIGNED_CONTEXT ( ( #291 ) ) GLOBAL_UNIT_ASSIGNED_CONTEXT ( ( #107, #110, #314 ) ) REPRESENTATION_CONTEXT ( 'NONE', 'WORKASPACE' ) );
#180 = EDGE_CURVE ( 'NONE', #354, #165, #74, .T. ) ;
#181 = STYLED_ITEM ( 'NONE', ( #123 ), #92 ) ;
#182 = SURFACE_SIDE_STYLE ('',( #67 ) ) ;
#183 = FACE_OUTER_BOUND ( 'NONE', #232, .T. ) ;
#184 = APPLICATION_PROTOCOL_DEFINITION ( 'draft international standard', 'automotive_design', 1998, #214 ) ;
#185 = DIRECTION ( 'NONE',  ( -9.135657442593541248E-17, 1.000000000000000000, 0.000000000000000000 ) ) ;
#186 = SURFACE_STYLE_FILL_AREA ( #308 ) ;
#187 = AXIS2_PLACEMENT_3D ( 'NONE', #229, #143, #322 ) ;
#188 = LINE ( 'NONE', #48, #277 ) ;
#189 = AXIS2_PLACEMENT_3D ( 'NONE', #13, #64, #150 ) ;
#190 = DIRECTION ( 'NONE',  ( -0.000000000000000000, -1.000000000000000000, -0.000000000000000000 ) ) ;
#191 = SURFACE_STYLE_USAGE ( .BOTH. , #251 ) ;
#192 = ORIENTED_EDGE ( 'NONE', *, *, #239, .T. ) ;
#193 =( NAMED_UNIT ( * ) SI_UNIT ( $, .STERADIAN. ) SOLID_ANGLE_UNIT ( ) );
#194 = ORIENTED_EDGE ( 'NONE', *, *, #62, .F. ) ;
#195 = ORIENTED_EDGE ( 'NONE', *, *, #227, .F. ) ;
#196 = ORIENTED_EDGE ( 'NONE', *, *, #233, .F. ) ;
#197 = AXIS2_PLACEMENT_3D ( 'NONE', #46, #106, #344 ) ;
#198 = STYLED_ITEM ( 'NONE', ( #160 ), #256 ) ;
#199 = ORIENTED_EDGE ( 'NONE', *, *, #180, .T. ) ;
#200 = AXIS2_PLACEMENT_3D ( 'NONE', #124, #357, #16 ) ;
#201 = FACE_OUTER_BOUND ( 'NONE', #89, .T. ) ;
#202 = FACE_OUTER_BOUND ( 'NONE', #223, .T. ) ;
#203 = FILL_AREA_STYLE ('',( #95 ) ) ;
#204 =( GEOMETRIC_REPRESENTATION_CONTEXT ( 3 ) GLOBAL_UNCERTAINTY_ASSIGNED_CONTEXT ( ( #269 ) ) GLOBAL_UNIT_ASSIGNED_CONTEXT ( ( #103, #178, #267 ) ) REPRESENTATION_CONTEXT ( 'NONE', 'WORKASPACE' ) );
#205 = SURFACE_STYLE_USAGE ( .BOTH. , #268 ) ;
#206 = MECHANICAL_DESIGN_GEOMETRIC_PRESENTATION_REPRESENTATION (  '', ( #181 ), #33 ) ;
#207 =( NAMED_UNIT ( * ) SI_UNIT ( $, .STERADIAN. ) SOLID_ANGLE_UNIT ( ) );
#208 = CLOSED_SHELL ( 'NONE', ( #263, #14, #256, #104, #92, #72 ) ) ;
#209 = PRESENTATION_LAYER_ASSIGNMENT (  '', '', ( #198 ) ) ;
#210 = PLANE ( 'NONE',  #108 ) ;
#211 = DIRECTION ( 'NONE',  ( 0.000000000000000000, 0.000000000000000000, -1.000000000000000000 ) ) ;
#212 = DIRECTION ( 'NONE',  ( -9.135657442593541248E-17, 1.000000000000000000, -0.000000000000000000 ) ) ;
#213 = CIRCLE ( 'NONE', #44, 4.999999999999998224 ) ;
#214 = APPLICATION_CONTEXT ( 'automotive_design' ) ;
#215 = DIRECTION ( 'NONE',  ( -9.135657442593541248E-17, 1.000000000000000000, -0.000000000000000000 ) ) ;
#216 = CIRCLE ( 'NONE', #135, 5.000000000000000000 ) ;
#217 = ADVANCED_FACE ( 'NONE', ( #42 ), #281, .F. ) ;
#218 = CARTESIAN_POINT ( 'NONE',  ( 4.999999999999997335, 63.00000000000000000, 6.123233995736761352E-16 ) ) ;
#219 = EDGE_LOOP ( 'NONE', ( #141, #199, #194, #196 ) ) ;
#220 = UNCERTAINTY_MEASURE_WITH_UNIT (LENGTH_MEASURE( 1.000000000000000082E-05 ), #131, 'distance_accuracy_value', 'NONE');
#221 = CIRCLE ( 'NONE', #187, 4.999999999999993783 ) ;
#222 = PRESENTATION_STYLE_ASSIGNMENT (( #83 ) ) ;
#223 = EDGE_LOOP ( 'NONE', ( #195, #325 ) ) ;
#224 = AXIS2_PLACEMENT_3D ( 'NONE', #81, #137, #250 ) ;
#225 = FILL_AREA_STYLE ('',( #90 ) ) ;
#226 = ORIENTED_EDGE ( 'NONE', *, *, #180, .F. ) ;
#227 = EDGE_CURVE ( 'NONE', #84, #354, #24, .T. ) ;
#228 =( NAMED_UNIT ( * ) PLANE_ANGLE_UNIT ( ) SI_UNIT ( $, .RADIAN. ) );
#229 = CARTESIAN_POINT ( 'NONE',  ( 5.854691731421723944E-15, 15.00000000000000000, 0.000000000000000000 ) ) ;
#230 = SURFACE_SIDE_STYLE ('',( #120 ) ) ;
#231 = SURFACE_STYLE_FILL_AREA ( #348 ) ;
#232 = EDGE_LOOP ( 'NONE', ( #192, #347, #88, #320 ) ) ;
#233 = EDGE_CURVE ( 'NONE', #84, #351, #188, .T. ) ;
#234 = CIRCLE ( 'NONE', #341, 5.000000000000000000 ) ;
#235 = DIRECTION ( 'NONE',  ( -0.000000000000000000, -1.000000000000000000, -0.000000000000000000 ) ) ;
#236 = DIRECTION ( 'NONE',  ( -1.000000000000000000, 0.000000000000000000, 0.000000000000000000 ) ) ;
#237 = CYLINDRICAL_SURFACE ( 'NONE', #77, 5.000000000000000000 ) ;
#238 = VECTOR ( 'NONE', #18, 1000.000000000000000 ) ;
#239 = EDGE_CURVE ( 'NONE', #6, #172, #117, .T. ) ;
#240 = MECHANICAL_DESIGN_GEOMETRIC_PRESENTATION_REPRESENTATION (  '', ( #173 ), #257 ) ;
#241 = AXIS2_PLACEMENT_3D ( 'NONE', #332, #304, #63 ) ;
#242 = SURFACE_STYLE_USAGE ( .BOTH. , #129 ) ;
#243 = CLOSED_SHELL ( 'NONE', ( #43, #166, #113, #217 ) ) ;
#244 =( NAMED_UNIT ( * ) PLANE_ANGLE_UNIT ( ) SI_UNIT ( $, .RADIAN. ) );
#245 = FACE_OUTER_BOUND ( 'NONE', #259, .T. ) ;
#246 = DIRECTION ( 'NONE',  ( 0.000000000000000000, 0.000000000000000000, 1.000000000000000000 ) ) ;
#247 = AXIS2_PLACEMENT_3D ( 'NONE', #293, #146, #118 ) ;
#248 = EDGE_CURVE ( 'NONE', #351, #115, #8, .T. ) ;
#249 = FILL_AREA_STYLE_COLOUR ( '', #142 ) ;
#250 = DIRECTION ( 'NONE',  ( 0.000000000000000000, 0.000000000000000000, -1.000000000000000000 ) ) ;
#251 = SURFACE_SIDE_STYLE ('',( #186 ) ) ;
#252 =( GEOMETRIC_REPRESENTATION_CONTEXT ( 3 ) GLOBAL_UNCERTAINTY_ASSIGNED_CONTEXT ( ( #220 ) ) GLOBAL_UNIT_ASSIGNED_CONTEXT ( ( #131, #338, #82 ) ) REPRESENTATION_CONTEXT ( 'NONE', 'WORKASPACE' ) );
#253 = ORIENTED_EDGE ( 'NONE', *, *, #49, .T. ) ;
#254 = CARTESIAN_POINT ( 'NONE',  ( 1.469576158976823750E-15, 63.00000000000000000, 0.000000000000000000 ) ) ;
#255 = EDGE_LOOP ( 'NONE', ( #253, #298 ) ) ;
#256 = ADVANCED_FACE ( 'NONE', ( #245 ), #210, .T. ) ;
#257 =( GEOMETRIC_REPRESENTATION_CONTEXT ( 3 ) GLOBAL_UNCERTAINTY_ASSIGNED_CONTEXT ( ( #38 ) ) GLOBAL_UNIT_ASSIGNED_CONTEXT ( ( #140, #87, #193 ) ) REPRESENTATION_CONTEXT ( 'NONE', 'WORKASPACE' ) );
#258 = CARTESIAN_POINT ( 'NONE',  ( 0.000000000000000000, 0.5000000000000000000, -5.000000000000000000 ) ) ;
#259 = EDGE_LOOP ( 'NONE', ( #147, #119 ) ) ;
#260 = FILL_AREA_STYLE_COLOUR ( '', #22 ) ;
#261 = FACE_OUTER_BOUND ( 'NONE', #219, .T. ) ;
#262 = ORIENTED_EDGE ( 'NONE', *, *, #233, .T. ) ;
#263 = ADVANCED_FACE ( 'NONE', ( #261 ), #26, .T. ) ;
#264 =( NAMED_UNIT ( * ) PLANE_ANGLE_UNIT ( ) SI_UNIT ( $, .RADIAN. ) );
#265 = PRODUCT_DEFINITION_CONTEXT ( 'detailed design', #342, 'design' ) ;
#266 = DIRECTION ( 'NONE',  ( -9.135657442593541248E-17, 1.000000000000000000, -0.000000000000000000 ) ) ;
#267 =( NAMED_UNIT ( * ) SI_UNIT ( $, .STERADIAN. ) SOLID_ANGLE_UNIT ( ) );
#268 = SURFACE_SIDE_STYLE ('',( #151 ) ) ;
#269 = UNCERTAINTY_MEASURE_WITH_UNIT (LENGTH_MEASURE( 1.000000000000000082E-05 ), #103, 'distance_accuracy_value', 'NONE');
#270 = PLANE ( 'NONE',  #241 ) ;
#271 = AXIS2_PLACEMENT_3D ( 'NONE', #307, #246, #159 ) ;
#272 = PRODUCT_CONTEXT ( 'NONE', #214, 'mechanical' ) ;
#273 = CARTESIAN_POINT ( 'NONE',  ( 1.469576158976823750E-15, 63.00000000000000000, 0.000000000000000000 ) ) ;
#274 = DIRECTION ( 'NONE',  ( -1.000000000000000000, 0.000000000000000000, 0.000000000000000000 ) ) ;
#275 = PRODUCT ( '59639', '59639', '', ( #272 ) ) ;
#276 = AXIS2_PLACEMENT_3D ( 'NONE', #127, #328, #130 ) ;
#277 = VECTOR ( 'NONE', #25, 1000.000000000000000 ) ;
#278 = PLANE ( 'NONE',  #1 ) ;
#279 = EDGE_CURVE ( 'NONE', #28, #115, #361, .T. ) ;
#280 = PRODUCT_DEFINITION_SHAPE ( 'NONE', 'NONE',  #126 ) ;
#281 = PLANE ( 'NONE',  #197 ) ;
#282 = CARTESIAN_POINT ( 'NONE',  ( 0.000000000000000000, 0.5000000000000000000, 0.000000000000000000 ) ) ;
#283 =( LENGTH_UNIT ( ) NAMED_UNIT ( * ) SI_UNIT ( .MILLI., .METRE. ) );
#284 = EDGE_LOOP ( 'NONE', ( #91, #122, #27, #349 ) ) ;
#285 = COLOUR_RGB ( '',1.000000000000000000, 0.000000000000000000, 0.000000000000000000 ) ;
#286 = PRESENTATION_LAYER_ASSIGNMENT (  '', '', ( #71 ) ) ;
#287 = CARTESIAN_POINT ( 'NONE',  ( 0.000000000000000000, 0.000000000000000000, 0.000000000000000000 ) ) ;
#288 = ORIENTED_EDGE ( 'NONE', *, *, #365, .T. ) ;
#289 = PRODUCT_RELATED_PRODUCT_CATEGORY ( 'part', '', ( #275 ) ) ;
#290 = CARTESIAN_POINT ( 'NONE',  ( -4.999999999999987566, 15.00000000000000000, 0.000000000000000000 ) ) ;
#291 = UNCERTAINTY_MEASURE_WITH_UNIT (LENGTH_MEASURE( 1.000000000000000082E-05 ), #107, 'distance_accuracy_value', 'NONE');
#292 = CIRCLE ( 'NONE', #276, 0.4999999999999995559 ) ;
#293 = CARTESIAN_POINT ( 'NONE',  ( 0.000000000000000000, 0.000000000000000000, 0.000000000000000000 ) ) ;
#294 = ORIENTED_EDGE ( 'NONE', *, *, #239, .F. ) ;
#295 =( GEOMETRIC_REPRESENTATION_CONTEXT ( 3 ) GLOBAL_UNCERTAINTY_ASSIGNED_CONTEXT ( ( #345 ) ) GLOBAL_UNIT_ASSIGNED_CONTEXT ( ( #152, #17, #155 ) ) REPRESENTATION_CONTEXT ( 'NONE', 'WORKASPACE' ) );
#296 = AXIS2_PLACEMENT_3D ( 'NONE', #69, #266, #236 ) ;
#297 = EDGE_CURVE ( 'NONE', #32, #58, #213, .T. ) ;
#298 = ORIENTED_EDGE ( 'NONE', *, *, #297, .T. ) ;
#299 = FILL_AREA_STYLE_COLOUR ( '', #285 ) ;
#300 = FACE_OUTER_BOUND ( 'NONE', #54, .T. ) ;
#301 =( LENGTH_UNIT ( ) NAMED_UNIT ( * ) SI_UNIT ( .MILLI., .METRE. ) );
#302 = SURFACE_STYLE_USAGE ( .BOTH. , #182 ) ;
#303 = EDGE_CURVE ( 'NONE', #172, #6, #221, .T. ) ;
#304 = DIRECTION ( 'NONE',  ( 0.000000000000000000, 1.000000000000000000, 0.000000000000000000 ) ) ;
#305 = FILL_AREA_STYLE_COLOUR ( '', #149 ) ;
#306 = EDGE_CURVE ( 'NONE', #172, #32, #121, .T. ) ;
#307 = CARTESIAN_POINT ( 'NONE',  ( 0.000000000000000000, 0.000000000000000000, 0.000000000000000000 ) ) ;
#308 = FILL_AREA_STYLE ('',( #249 ) ) ;
#309 = CARTESIAN_POINT ( 'NONE',  ( 6.123233995736766282E-16, 0.5000000000000000000, 5.000000000000000000 ) ) ;
#310 = MECHANICAL_DESIGN_GEOMETRIC_PRESENTATION_REPRESENTATION (  '', ( #45 ), #156 ) ;
#311 = EDGE_CURVE ( 'NONE', #115, #28, #370, .T. ) ;
#312 = DIRECTION ( 'NONE',  ( -0.000000000000000000, -1.000000000000000000, -0.000000000000000000 ) ) ;
#313 = STYLED_ITEM ( 'NONE', ( #61 ), #14 ) ;
#314 =( NAMED_UNIT ( * ) SI_UNIT ( $, .STERADIAN. ) SOLID_ANGLE_UNIT ( ) );
#315 = DIRECTION ( 'NONE',  ( -1.000000000000000000, 0.000000000000000000, 0.000000000000000000 ) ) ;
#316 = ORIENTED_EDGE ( 'NONE', *, *, #248, .F. ) ;
#317 =( NAMED_UNIT ( * ) SI_UNIT ( $, .STERADIAN. ) SOLID_ANGLE_UNIT ( ) );
#318 = ORIENTED_EDGE ( 'NONE', *, *, #279, .F. ) ;
#319 = SURFACE_SIDE_STYLE ('',( #231 ) ) ;
#320 = ORIENTED_EDGE ( 'NONE', *, *, #336, .F. ) ;
#321 = COLOUR_RGB ( '',1.000000000000000000, 0.000000000000000000, 0.000000000000000000 ) ;
#322 = DIRECTION ( 'NONE',  ( -1.000000000000000000, 0.000000000000000000, 0.000000000000000000 ) ) ;
#323 = SURFACE_STYLE_USAGE ( .BOTH. , #230 ) ;
#324 = TOROIDAL_SURFACE ( 'NONE', #86, 4.500000000000000888, 0.4999999999999997780 ) ;
#325 = ORIENTED_EDGE ( 'NONE', *, *, #98, .F. ) ;
#326 = UNCERTAINTY_MEASURE_WITH_UNIT (LENGTH_MEASURE( 1.000000000000000082E-05 ), #283, 'distance_accuracy_value', 'NONE');
#327 = SURFACE_STYLE_USAGE ( .BOTH. , #37 ) ;
#328 = DIRECTION ( 'NONE',  ( 1.000000000000000000, 0.000000000000000000, -1.224646799147353207E-16 ) ) ;
#329 = COLOUR_RGB ( '',0.7921568627450980005, 0.8196078431372548767, 0.9333333333333333481 ) ;
#330 = CARTESIAN_POINT ( 'NONE',  ( -4.999999999999996447, 63.00000000000000000, 0.000000000000000000 ) ) ;
#331 = AXIS2_PLACEMENT_3D ( 'NONE', #136, #215, #79 ) ;
#332 = CARTESIAN_POINT ( 'NONE',  ( 0.000000000000000000, 15.00000000000000000, 0.000000000000000000 ) ) ;
#333 = CARTESIAN_POINT ( 'NONE',  ( 0.000000000000000000, 15.00000000000000000, -5.000000000000000000 ) ) ;
#334 = PRESENTATION_STYLE_ASSIGNMENT (( #242 ) ) ;
#335 = MANIFOLD_SOLID_BREP ( 'Revolve - Tool Body (Straight Shanked)', #243 ) ;
#336 = EDGE_CURVE ( 'NONE', #6, #58, #3, .T. ) ;
#337 = MECHANICAL_DESIGN_GEOMETRIC_PRESENTATION_REPRESENTATION (  '', ( #71 ), #295 ) ;
#338 =( NAMED_UNIT ( * ) PLANE_ANGLE_UNIT ( ) SI_UNIT ( $, .RADIAN. ) );
#339 = PRESENTATION_LAYER_ASSIGNMENT (  '', '', ( #173 ) ) ;
#340 = DIRECTION ( 'NONE',  ( 0.000000000000000000, 0.000000000000000000, -1.000000000000000000 ) ) ;
#341 = AXIS2_PLACEMENT_3D ( 'NONE', #358, #68, #356 ) ;
#342 = APPLICATION_CONTEXT ( 'automotive_design' ) ;
#343 = CIRCLE ( 'NONE', #200, 5.000000000000000000 ) ;
#344 = DIRECTION ( 'NONE',  ( 1.000000000000000000, 9.135657442593541248E-17, 0.000000000000000000 ) ) ;
#345 = UNCERTAINTY_MEASURE_WITH_UNIT (LENGTH_MEASURE( 1.000000000000000082E-05 ), #152, 'distance_accuracy_value', 'NONE');
#346 = SURFACE_SIDE_STYLE ('',( #114 ) ) ;
#347 = ORIENTED_EDGE ( 'NONE', *, *, #306, .T. ) ;
#348 = FILL_AREA_STYLE ('',( #174 ) ) ;
#349 = ORIENTED_EDGE ( 'NONE', *, *, #297, .F. ) ;
#350 = DIRECTION ( 'NONE',  ( -0.000000000000000000, -1.000000000000000000, -0.000000000000000000 ) ) ;
#351 = VERTEX_POINT ( 'NONE', #258 ) ;
#352 = EDGE_LOOP ( 'NONE', ( #139, #288, #168, #316 ) ) ;
#353 =( NAMED_UNIT ( * ) SI_UNIT ( $, .STERADIAN. ) SOLID_ANGLE_UNIT ( ) );
#354 = VERTEX_POINT ( 'NONE', #101 ) ;
#355 = MECHANICAL_DESIGN_GEOMETRIC_PRESENTATION_REPRESENTATION (  '', ( #40 ), #252 ) ;
#356 = DIRECTION ( 'NONE',  ( 0.000000000000000000, 0.000000000000000000, -1.000000000000000000 ) ) ;
#357 = DIRECTION ( 'NONE',  ( -0.000000000000000000, -1.000000000000000000, -0.000000000000000000 ) ) ;
#358 = CARTESIAN_POINT ( 'NONE',  ( 0.000000000000000000, 15.00000000000000000, 0.000000000000000000 ) ) ;
#359 = FILL_AREA_STYLE_COLOUR ( '', #41 ) ;
#360 = SURFACE_STYLE_FILL_AREA ( #362 ) ;
#361 = CIRCLE ( 'NONE', #247, 4.500000000000000888 ) ;
#362 = FILL_AREA_STYLE ('',( #299 ) ) ;
#363 = TOROIDAL_SURFACE ( 'NONE', #189, 4.500000000000000888, 0.4999999999999997780 ) ;
#364 = DIRECTION ( 'NONE',  ( -1.000000000000000000, 0.000000000000000000, 0.000000000000000000 ) ) ;
#365 = EDGE_CURVE ( 'NONE', #165, #28, #292, .T. ) ;
#366 = SURFACE_STYLE_FILL_AREA ( #19 ) ;
#367 = APPLICATION_PROTOCOL_DEFINITION ( 'draft international standard', 'automotive_design', 1998, #342 ) ;
#368 = CARTESIAN_POINT ( 'NONE',  ( 5.854691731421723944E-15, 15.00000000000000000, 0.000000000000000000 ) ) ;
#369 = CARTESIAN_POINT ( 'NONE',  ( 0.000000000000000000, 0.5000000000000000000, -4.500000000000000888 ) ) ;
#370 = CIRCLE ( 'NONE', #66, 4.500000000000000888 ) ;
ENDSEC;
END-ISO-10303-21;
