ISO-10303-21;
HEADER;
FILE_DESCRIPTION (( 'STEP AP214' ),
    '1' );
FILE_NAME ('Micro_SFAM-040020.STEP',
    '2021-09-02T04:11:50',
    ( '' ),
    ( '' ),
    'SwSTEP 2.0',
    'SolidWorks 2020',
    '' );
FILE_SCHEMA (( 'AUTOMOTIVE_DESIGN' ));
ENDSEC;

DATA;
#1 = ADVANCED_FACE ( 'NONE', ( #137 ), #117, .F. ) ;
#2 = CYLINDRICAL_SURFACE ( 'NONE', #189, 0.1181100000000000066 ) ;
#3 = VERTEX_POINT ( 'NONE', #90 ) ;
#4 = DIRECTION ( 'NONE',  ( 0.7071067811865358044, 8.659560562354788645E-17, -0.7071067811865590080 ) ) ;
#5 = ORIENTED_EDGE ( 'NONE', *, *, #120, .T. ) ;
#6 = CYLINDRICAL_SURFACE ( 'NONE', #224, 0.07866126000000001062 ) ;
#7 = FACE_OUTER_BOUND ( 'NONE', #144, .T. ) ;
#8 = EDGE_CURVE ( 'NONE', #168, #3, #272, .T. ) ;
#9 = PLANE ( 'NONE',  #174 ) ;
#10 = AXIS2_PLACEMENT_3D ( 'NONE', #216, #193, #237 ) ;
#11 = DIRECTION ( 'NONE',  ( -1.224646799147353207E-16, -0.0000000000000000000, -1.000000000000000000 ) ) ;
#12 = DIRECTION ( 'NONE',  ( -1.000000000000000000, 0.0000000000000000000, 0.0000000000000000000 ) ) ;
#13 =( GEOMETRIC_REPRESENTATION_CONTEXT ( 3 ) GLOBAL_UNCERTAINTY_ASSIGNED_CONTEXT ( ( #98 ) ) GLOBAL_UNIT_ASSIGNED_CONTEXT ( ( #21, #250, #208 ) ) REPRESENTATION_CONTEXT ( 'NONE', 'WORKASPACE' ) );
#14 = DIRECTION ( 'NONE',  ( 1.000000000000000000, 0.0000000000000000000, 0.0000000000000000000 ) ) ;
#15 =( NAMED_UNIT ( * ) SI_UNIT ( $, .STERADIAN. ) SOLID_ANGLE_UNIT ( ) );
#16 = EDGE_CURVE ( 'NONE', #271, #23, #214, .T. ) ;
#17 = ORIENTED_EDGE ( 'NONE', *, *, #72, .F. ) ;
#18 =( LENGTH_UNIT ( ) NAMED_UNIT ( * ) SI_UNIT ( $, .METRE. ) );
#19 = EDGE_CURVE ( 'NONE', #65, #134, #138, .T. ) ;
#20 = ORIENTED_EDGE ( 'NONE', *, *, #269, .F. ) ;
#21 =( CONVERSION_BASED_UNIT ( 'INCH', #295 ) LENGTH_UNIT ( ) NAMED_UNIT ( #126 ) );
#22 = AXIS2_PLACEMENT_3D ( 'NONE', #266, #35, #12 ) ;
#23 = VERTEX_POINT ( 'NONE', #66 ) ;
#24 = MANIFOLD_SOLID_BREP ( 'Cut-Revolve1', #156 ) ;
#25 = CARTESIAN_POINT ( 'NONE',  ( -0.1181100000000000066, 0.0000000000000000000, 2.229093999999999465 ) ) ;
#26 = DIRECTION ( 'NONE',  ( -1.224646799147353207E-16, -0.0000000000000000000, -1.000000000000000000 ) ) ;
#27 = ORIENTED_EDGE ( 'NONE', *, *, #8, .T. ) ;
#28 = CYLINDRICAL_SURFACE ( 'NONE', #59, 0.07866126000000001062 ) ;
#29 = ORIENTED_EDGE ( 'NONE', *, *, #8, .F. ) ;
#30 = AXIS2_PLACEMENT_3D ( 'NONE', #282, #143, #103 ) ;
#31 = LINE ( 'NONE', #165, #34 ) ;
#32 = FACE_OUTER_BOUND ( 'NONE', #283, .T. ) ;
#33 = COLOUR_RGB ( '',0.7921568627450980005, 0.8196078431372548767, 0.9333333333333333481 ) ;
#34 = VECTOR ( 'NONE', #4, 39.37007874015748854 ) ;
#35 = DIRECTION ( 'NONE',  ( -0.0000000000000000000, -0.0000000000000000000, -1.000000000000000000 ) ) ;
#36 = FACE_OUTER_BOUND ( 'NONE', #77, .T. ) ;
#37 = DIRECTION ( 'NONE',  ( -1.224646799147353207E-16, -0.0000000000000000000, -1.000000000000000000 ) ) ;
#38 = STYLED_ITEM ( 'NONE', ( #297 ), #42 ) ;
#39 = EDGE_LOOP ( 'NONE', ( #257, #201 ) ) ;
#40 = DIRECTION ( 'NONE',  ( -1.224646799147353207E-16, -0.0000000000000000000, -1.000000000000000000 ) ) ;
#41 = PRESENTATION_LAYER_ASSIGNMENT (  '', '', ( #105 ) ) ;
#42 = ADVANCED_BREP_SHAPE_REPRESENTATION ( 'Micro_SFAM-040020', ( #24, #286 ), #114 ) ;
#43 = PRESENTATION_STYLE_ASSIGNMENT (( #230 ) ) ;
#44 =( NAMED_UNIT ( * ) PLANE_ANGLE_UNIT ( ) SI_UNIT ( $, .RADIAN. ) );
#45 = SURFACE_STYLE_FILL_AREA ( #68 ) ;
#46 = CARTESIAN_POINT ( 'NONE',  ( -0.1031100000000002570, 0.0000000000000000000, 2.244094000000000033 ) ) ;
#47 = PRODUCT_DEFINITION_CONTEXT ( 'detailed design', #121, 'design' ) ;
#48 = VERTEX_POINT ( 'NONE', #128 ) ;
#49 = DIRECTION ( 'NONE',  ( -1.000000000000000000, 0.0000000000000000000, 0.0000000000000000000 ) ) ;
#50 = ORIENTED_EDGE ( 'NONE', *, *, #16, .F. ) ;
#51 = FACE_OUTER_BOUND ( 'NONE', #211, .T. ) ;
#52 = ORIENTED_EDGE ( 'NONE', *, *, #80, .T. ) ;
#53 = EDGE_CURVE ( 'NONE', #3, #231, #157, .T. ) ;
#54 = CARTESIAN_POINT ( 'NONE',  ( -0.1031100000000002570, 0.0000000000000000000, 2.244094000000000033 ) ) ;
#55 = AXIS2_PLACEMENT_3D ( 'NONE', #119, #246, #155 ) ;
#56 = VECTOR ( 'NONE', #192, 39.37007874015748143 ) ;
#57 = DIRECTION ( 'NONE',  ( -1.000000000000000000, 0.0000000000000000000, 0.0000000000000000000 ) ) ;
#58 = DIRECTION ( 'NONE',  ( -1.224646799147353207E-16, -0.0000000000000000000, -1.000000000000000000 ) ) ;
#59 = AXIS2_PLACEMENT_3D ( 'NONE', #78, #26, #124 ) ;
#60 = DIRECTION ( 'NONE',  ( 1.000000000000000000, 0.0000000000000000000, 0.0000000000000000000 ) ) ;
#61 = CARTESIAN_POINT ( 'NONE',  ( 0.1181100000000001177, 1.446430334472940317E-17, 0.8536459219688246058 ) ) ;
#62 = ADVANCED_FACE ( 'NONE', ( #184 ), #76, .T. ) ;
#63 = MECHANICAL_DESIGN_GEOMETRIC_PRESENTATION_REPRESENTATION (  '', ( #105 ), #13 ) ;
#64 = ORIENTED_EDGE ( 'NONE', *, *, #159, .F. ) ;
#65 = VERTEX_POINT ( 'NONE', #54 ) ;
#66 = CARTESIAN_POINT ( 'NONE',  ( -0.07866125999999999674, 0.0000000000000000000, 1.926645205517954173E-17 ) ) ;
#67 = AXIS2_PLACEMENT_3D ( 'NONE', #107, #222, #104 ) ;
#68 = FILL_AREA_STYLE ('',( #251 ) ) ;
#69 = DIRECTION ( 'NONE',  ( 1.000000000000000000, 0.0000000000000000000, 0.0000000000000000000 ) ) ;
#70 = ORIENTED_EDGE ( 'NONE', *, *, #213, .F. ) ;
#71 = CARTESIAN_POINT ( 'NONE',  ( 0.0000000000000000000, 0.0000000000000000000, 0.0000000000000000000 ) ) ;
#72 = EDGE_CURVE ( 'NONE', #48, #23, #141, .T. ) ;
#73 = ORIENTED_EDGE ( 'NONE', *, *, #84, .T. ) ;
#74 = DIRECTION ( 'NONE',  ( 1.000000000000000000, 0.0000000000000000000, 0.0000000000000000000 ) ) ;
#75 = AXIS2_PLACEMENT_3D ( 'NONE', #238, #210, #74 ) ;
#76 = CONICAL_SURFACE ( 'NONE', #75, 0.07866126000000001062, 0.1745329251994338915 ) ;
#77 = EDGE_LOOP ( 'NONE', ( #183, #102 ) ) ;
#78 = CARTESIAN_POINT ( 'NONE',  ( 0.0000000000000000000, 0.0000000000000000000, 0.0000000000000000000 ) ) ;
#79 = ORIENTED_EDGE ( 'NONE', *, *, #72, .T. ) ;
#80 = EDGE_CURVE ( 'NONE', #134, #3, #31, .T. ) ;
#81 = APPLICATION_CONTEXT ( 'automotive_design' ) ;
#82 = DIRECTION ( 'NONE',  ( -1.224646799147353207E-16, -0.0000000000000000000, -1.000000000000000000 ) ) ;
#83 = DIRECTION ( 'NONE',  ( -1.224646799147353207E-16, -0.0000000000000000000, -1.000000000000000000 ) ) ;
#84 = EDGE_CURVE ( 'NONE', #3, #168, #267, .T. ) ;
#85 =( LENGTH_UNIT ( ) NAMED_UNIT ( * ) SI_UNIT ( $, .METRE. ) );
#86 =( NAMED_UNIT ( * ) PLANE_ANGLE_UNIT ( ) SI_UNIT ( $, .RADIAN. ) );
#87 = ORIENTED_EDGE ( 'NONE', *, *, #53, .T. ) ;
#88 = VECTOR ( 'NONE', #11, 39.37007874015748143 ) ;
#89 = APPLICATION_PROTOCOL_DEFINITION ( 'draft international standard', 'automotive_design', 1998, #121 ) ;
#90 = CARTESIAN_POINT ( 'NONE',  ( 0.1181100000000000066, 1.446430334472939084E-17, 2.229093999999999465 ) ) ;
#91 = ORIENTED_EDGE ( 'NONE', *, *, #239, .T. ) ;
#92 = FILL_AREA_STYLE ('',( #247 ) ) ;
#93 = DIMENSIONAL_EXPONENTS ( 1.000000000000000000, 0.0000000000000000000, 0.0000000000000000000, 0.0000000000000000000, 0.0000000000000000000, 0.0000000000000000000, 0.0000000000000000000 ) ;
#94 = CARTESIAN_POINT ( 'NONE',  ( 0.0000000000000000000, 0.0000000000000000000, 2.244094000000000033 ) ) ;
#95 =( CONVERSION_BASED_UNIT ( 'INCH', #225 ) LENGTH_UNIT ( ) NAMED_UNIT ( #186 ) );
#96 = CIRCLE ( 'NONE', #131, 0.07866126000000001062 ) ;
#97 = ORIENTED_EDGE ( 'NONE', *, *, #227, .T. ) ;
#98 = UNCERTAINTY_MEASURE_WITH_UNIT (LENGTH_MEASURE( 1.000000000000000082E-05 ), #21, 'distance_accuracy_value', 'NONE');
#99 = ORIENTED_EDGE ( 'NONE', *, *, #227, .F. ) ;
#100 = CARTESIAN_POINT ( 'NONE',  ( 0.0000000000000000000, 0.0000000000000000000, 2.244094000000000033 ) ) ;
#101 = FACE_OUTER_BOUND ( 'NONE', #280, .T. ) ;
#102 = ORIENTED_EDGE ( 'NONE', *, *, #197, .T. ) ;
#103 = DIRECTION ( 'NONE',  ( -1.000000000000000000, 0.0000000000000000000, 0.0000000000000000000 ) ) ;
#104 = DIRECTION ( 'NONE',  ( 1.000000000000000000, 0.0000000000000000000, 0.0000000000000000000 ) ) ;
#105 = STYLED_ITEM ( 'NONE', ( #43 ), #24 ) ;
#106 = PRODUCT_DEFINITION_FORMATION_WITH_SPECIFIED_SOURCE ( 'ANY', '', #130, .NOT_KNOWN. ) ;
#107 = CARTESIAN_POINT ( 'NONE',  ( 7.714307363656999460E-17, 0.0000000000000000000, 0.6299209999999999532 ) ) ;
#108 = AXIS2_PLACEMENT_3D ( 'NONE', #226, #113, #292 ) ;
#109 = CARTESIAN_POINT ( 'NONE',  ( 7.714307363656999460E-17, 0.0000000000000000000, 0.6299209999999999532 ) ) ;
#110 = PRODUCT_DEFINITION ( 'UNKNOWN', '', #106, #47 ) ;
#111 = DIRECTION ( 'NONE',  ( 1.000000000000000000, 0.0000000000000000000, -0.0000000000000000000 ) ) ;
#112 = ADVANCED_FACE ( 'NONE', ( #32 ), #6, .T. ) ;
#113 = DIRECTION ( 'NONE',  ( 0.0000000000000000000, 0.0000000000000000000, 1.000000000000000000 ) ) ;
#114 =( GEOMETRIC_REPRESENTATION_CONTEXT ( 3 ) GLOBAL_UNCERTAINTY_ASSIGNED_CONTEXT ( ( #188 ) ) GLOBAL_UNIT_ASSIGNED_CONTEXT ( ( #288, #86, #287 ) ) REPRESENTATION_CONTEXT ( 'NONE', 'WORKASPACE' ) );
#115 = ORIENTED_EDGE ( 'NONE', *, *, #197, .F. ) ;
#116 =( LENGTH_UNIT ( ) NAMED_UNIT ( * ) SI_UNIT ( $, .METRE. ) );
#117 = PLANE ( 'NONE',  #108 ) ;
#118 = PRODUCT_CONTEXT ( 'NONE', #81, 'mechanical' ) ;
#119 = CARTESIAN_POINT ( 'NONE',  ( 0.0000000000000000000, 0.0000000000000000000, 2.229093999999999465 ) ) ;
#120 = EDGE_CURVE ( 'NONE', #65, #168, #254, .T. ) ;
#121 = APPLICATION_CONTEXT ( 'automotive_design' ) ;
#122 = CONICAL_SURFACE ( 'NONE', #30, 0.1031100000000002570, 0.7853981633974318477 ) ;
#123 = CARTESIAN_POINT ( 'NONE',  ( 0.0000000000000000000, 0.0000000000000000000, 2.244094000000000033 ) ) ;
#124 = DIRECTION ( 'NONE',  ( -1.000000000000000000, 0.0000000000000000000, 1.224646799147353207E-16 ) ) ;
#125 = CONICAL_SURFACE ( 'NONE', #241, 0.1031100000000002570, 0.7853981633974318477 ) ;
#126 = DIMENSIONAL_EXPONENTS ( 1.000000000000000000, 0.0000000000000000000, 0.0000000000000000000, 0.0000000000000000000, 0.0000000000000000000, 0.0000000000000000000, 0.0000000000000000000 ) ;
#127 = FACE_OUTER_BOUND ( 'NONE', #153, .T. ) ;
#128 = CARTESIAN_POINT ( 'NONE',  ( -0.07866125999999992735, 1.204876468615957931E-17, 0.6299209999999999532 ) ) ;
#129 = DIRECTION ( 'NONE',  ( -1.000000000000000000, 0.0000000000000000000, 0.0000000000000000000 ) ) ;
#130 = PRODUCT ( 'Micro_SFAM-040020', 'Micro_SFAM-040020', '', ( #118 ) ) ;
#131 = AXIS2_PLACEMENT_3D ( 'NONE', #132, #240, #196 ) ;
#132 = CARTESIAN_POINT ( 'NONE',  ( 7.714307363656999460E-17, 0.0000000000000000000, 0.6299209999999999532 ) ) ;
#133 = EDGE_CURVE ( 'NONE', #48, #228, #187, .T. ) ;
#134 = VERTEX_POINT ( 'NONE', #233 ) ;
#135 = DIRECTION ( 'NONE',  ( -1.000000000000000000, 0.0000000000000000000, 1.224646799147352961E-16 ) ) ;
#136 = EDGE_LOOP ( 'NONE', ( #20, #299, #97, #64 ) ) ;
#137 = FACE_OUTER_BOUND ( 'NONE', #39, .T. ) ;
#138 = CIRCLE ( 'NONE', #177, 0.1031100000000002570 ) ;
#139 = AXIS2_PLACEMENT_3D ( 'NONE', #243, #37, #149 ) ;
#140 = DIRECTION ( 'NONE',  ( -0.7071067811865358044, 0.0000000000000000000, -0.7071067811865590080 ) ) ;
#141 = LINE ( 'NONE', #147, #182 ) ;
#142 = ORIENTED_EDGE ( 'NONE', *, *, #269, .T. ) ;
#143 = DIRECTION ( 'NONE',  ( 0.0000000000000000000, 0.0000000000000000000, -1.000000000000000000 ) ) ;
#144 = EDGE_LOOP ( 'NONE', ( #115, #52, #29, #204 ) ) ;
#145 = CARTESIAN_POINT ( 'NONE',  ( 0.0000000000000000000, 0.0000000000000000000, 2.244094000000000033 ) ) ;
#146 = AXIS2_PLACEMENT_3D ( 'NONE', #220, #58, #14 ) ;
#147 = CARTESIAN_POINT ( 'NONE',  ( -0.07866126000000001062, 0.0000000000000000000, 9.633226027589773945E-18 ) ) ;
#148 = ADVANCED_FACE ( 'NONE', ( #127 ), #125, .T. ) ;
#149 = DIRECTION ( 'NONE',  ( -1.000000000000000000, 0.0000000000000000000, 1.224646799147352961E-16 ) ) ;
#150 = CARTESIAN_POINT ( 'NONE',  ( 0.0000000000000000000, 0.0000000000000000000, 2.244094000000000033 ) ) ;
#151 = PRESENTATION_LAYER_ASSIGNMENT (  '', '', ( #38 ) ) ;
#152 = DIRECTION ( 'NONE',  ( -1.224646799147353207E-16, -0.0000000000000000000, -1.000000000000000000 ) ) ;
#153 = EDGE_LOOP ( 'NONE', ( #293, #277, #5, #275 ) ) ;
#154 = PRODUCT_RELATED_PRODUCT_CATEGORY ( 'part', '', ( #130 ) ) ;
#155 = DIRECTION ( 'NONE',  ( 1.000000000000000000, 0.0000000000000000000, 0.0000000000000000000 ) ) ;
#156 = CLOSED_SHELL ( 'NONE', ( #181, #62, #217, #296, #170, #294, #148, #290, #112, #1 ) ) ;
#157 = LINE ( 'NONE', #278, #273 ) ;
#158 = CIRCLE ( 'NONE', #298, 0.1181100000000000066 ) ;
#159 = EDGE_CURVE ( 'NONE', #236, #231, #261, .T. ) ;
#160 = APPLICATION_PROTOCOL_DEFINITION ( 'draft international standard', 'automotive_design', 1998, #81 ) ;
#161 = DIRECTION ( 'NONE',  ( 1.000000000000000000, 0.0000000000000000000, 0.0000000000000000000 ) ) ;
#162 = DIRECTION ( 'NONE',  ( -1.000000000000000000, 0.0000000000000000000, 1.224646799147353207E-16 ) ) ;
#163 = UNCERTAINTY_MEASURE_WITH_UNIT (LENGTH_MEASURE( 1.000000000000000082E-05 ), #95, 'distance_accuracy_value', 'NONE');
#164 = ORIENTED_EDGE ( 'NONE', *, *, #239, .F. ) ;
#165 = CARTESIAN_POINT ( 'NONE',  ( 0.1031100000000002570, 1.262733314600838667E-17, 2.244094000000000033 ) ) ;
#166 = ORIENTED_EDGE ( 'NONE', *, *, #279, .T. ) ;
#167 = DIRECTION ( 'NONE',  ( 1.000000000000000000, 0.0000000000000000000, 0.0000000000000000000 ) ) ;
#168 = VERTEX_POINT ( 'NONE', #25 ) ;
#169 = LINE ( 'NONE', #212, #195 ) ;
#170 = ADVANCED_FACE ( 'NONE', ( #51 ), #2, .T. ) ;
#171 = DIRECTION ( 'NONE',  ( -0.1736481776669311916, 2.126576849575783316E-17, 0.9848077530122080203 ) ) ;
#172 = CARTESIAN_POINT ( 'NONE',  ( -0.1181099999999999095, 0.0000000000000000000, 0.8536459219688246058 ) ) ;
#173 = LINE ( 'NONE', #219, #88 ) ;
#174 = AXIS2_PLACEMENT_3D ( 'NONE', #150, #175, #111 ) ;
#175 = DIRECTION ( 'NONE',  ( 0.0000000000000000000, 0.0000000000000000000, 1.000000000000000000 ) ) ;
#176 = SHAPE_DEFINITION_REPRESENTATION ( #289, #42 ) ;
#177 = AXIS2_PLACEMENT_3D ( 'NONE', #94, #268, #161 ) ;
#178 = VECTOR ( 'NONE', #171, 39.37007874015747433 ) ;
#179 = ORIENTED_EDGE ( 'NONE', *, *, #213, .T. ) ;
#180 = ORIENTED_EDGE ( 'NONE', *, *, #279, .F. ) ;
#181 = ADVANCED_FACE ( 'NONE', ( #101 ), #28, .T. ) ;
#182 = VECTOR ( 'NONE', #276, 39.37007874015748143 ) ;
#183 = ORIENTED_EDGE ( 'NONE', *, *, #19, .T. ) ;
#184 = FACE_OUTER_BOUND ( 'NONE', #136, .T. ) ;
#185 = ORIENTED_EDGE ( 'NONE', *, *, #133, .F. ) ;
#186 = DIMENSIONAL_EXPONENTS ( 1.000000000000000000, 0.0000000000000000000, 0.0000000000000000000, 0.0000000000000000000, 0.0000000000000000000, 0.0000000000000000000, 0.0000000000000000000 ) ;
#187 = LINE ( 'NONE', #218, #178 ) ;
#188 = UNCERTAINTY_MEASURE_WITH_UNIT (LENGTH_MEASURE( 1.000000000000000082E-05 ), #288, 'distance_accuracy_value', 'NONE');
#189 = AXIS2_PLACEMENT_3D ( 'NONE', #100, #256, #49 ) ;
#190 = DIRECTION ( 'NONE',  ( -0.0000000000000000000, -0.0000000000000000000, -1.000000000000000000 ) ) ;
#191 = ORIENTED_EDGE ( 'NONE', *, *, #53, .F. ) ;
#192 = DIRECTION ( 'NONE',  ( 0.1736481776669313859, 0.0000000000000000000, 0.9848077530122077983 ) ) ;
#193 = DIRECTION ( 'NONE',  ( 0.0000000000000000000, 0.0000000000000000000, -1.000000000000000000 ) ) ;
#194 = FACE_OUTER_BOUND ( 'NONE', #245, .T. ) ;
#195 = VECTOR ( 'NONE', #190, 39.37007874015748143 ) ;
#196 = DIRECTION ( 'NONE',  ( -1.000000000000000000, 0.0000000000000000000, 0.0000000000000000000 ) ) ;
#197 = EDGE_CURVE ( 'NONE', #134, #65, #281, .T. ) ;
#198 = CARTESIAN_POINT ( 'NONE',  ( 0.07866126000000009388, 0.0000000000000000000, 0.6299209999999999532 ) ) ;
#199 = AXIS2_PLACEMENT_3D ( 'NONE', #109, #152, #129 ) ;
#200 = DIRECTION ( 'NONE',  ( 0.0000000000000000000, 0.0000000000000000000, 1.000000000000000000 ) ) ;
#201 = ORIENTED_EDGE ( 'NONE', *, *, #16, .T. ) ;
#202 = COLOUR_RGB ( '',0.7921568627450980005, 0.8196078431372548767, 0.9333333333333333481 ) ;
#203 = ORIENTED_EDGE ( 'NONE', *, *, #159, .T. ) ;
#204 = ORIENTED_EDGE ( 'NONE', *, *, #120, .F. ) ;
#205 = SURFACE_STYLE_USAGE ( .BOTH. , #249 ) ;
#206 = SURFACE_SIDE_STYLE ('',( #45 ) ) ;
#207 = CIRCLE ( 'NONE', #199, 0.07866126000000001062 ) ;
#208 =( NAMED_UNIT ( * ) SI_UNIT ( $, .STERADIAN. ) SOLID_ANGLE_UNIT ( ) );
#209 = ORIENTED_EDGE ( 'NONE', *, *, #262, .T. ) ;
#210 = DIRECTION ( 'NONE',  ( 1.224646799147353207E-16, 0.0000000000000000000, 1.000000000000000000 ) ) ;
#211 = EDGE_LOOP ( 'NONE', ( #191, #73, #179, #180 ) ) ;
#212 = CARTESIAN_POINT ( 'NONE',  ( -0.1181100000000000066, 0.0000000000000000000, 2.244094000000000033 ) ) ;
#213 = EDGE_CURVE ( 'NONE', #168, #228, #169, .T. ) ;
#214 = CIRCLE ( 'NONE', #223, 0.07866125999999999674 ) ;
#215 =( GEOMETRIC_REPRESENTATION_CONTEXT ( 3 ) GLOBAL_UNCERTAINTY_ASSIGNED_CONTEXT ( ( #163 ) ) GLOBAL_UNIT_ASSIGNED_CONTEXT ( ( #95, #44, #15 ) ) REPRESENTATION_CONTEXT ( 'NONE', 'WORKASPACE' ) );
#216 = CARTESIAN_POINT ( 'NONE',  ( 0.0000000000000000000, 0.0000000000000000000, 2.229093999999999465 ) ) ;
#217 = ADVANCED_FACE ( 'NONE', ( #7 ), #122, .T. ) ;
#218 = CARTESIAN_POINT ( 'NONE',  ( -0.07866125999999992735, 9.633226027589773945E-18, 0.6299209999999999532 ) ) ;
#219 = CARTESIAN_POINT ( 'NONE',  ( 0.07866126000000001062, 9.633226027589773945E-18, -9.633226027589773945E-18 ) ) ;
#220 = CARTESIAN_POINT ( 'NONE',  ( 1.045414745944312376E-16, 0.0000000000000000000, 0.8536459219688246058 ) ) ;
#221 = AXIS2_PLACEMENT_3D ( 'NONE', #123, #259, #167 ) ;
#222 = DIRECTION ( 'NONE',  ( 1.224646799147353207E-16, 0.0000000000000000000, 1.000000000000000000 ) ) ;
#223 = AXIS2_PLACEMENT_3D ( 'NONE', #248, #40, #135 ) ;
#224 = AXIS2_PLACEMENT_3D ( 'NONE', #71, #83, #162 ) ;
#225 = LENGTH_MEASURE_WITH_UNIT ( LENGTH_MEASURE( 0.02539999999999999897 ), #116 );
#226 = CARTESIAN_POINT ( 'NONE',  ( 0.0000000000000000000, 0.0000000000000000000, 0.0000000000000000000 ) ) ;
#227 = EDGE_CURVE ( 'NONE', #228, #231, #158, .T. ) ;
#228 = VERTEX_POINT ( 'NONE', #172 ) ;
#229 = CIRCLE ( 'NONE', #146, 0.1181100000000000066 ) ;
#230 = SURFACE_STYLE_USAGE ( .BOTH. , #206 ) ;
#231 = VERTEX_POINT ( 'NONE', #61 ) ;
#232 = MECHANICAL_DESIGN_GEOMETRIC_PRESENTATION_REPRESENTATION (  '', ( #38 ), #215 ) ;
#233 = CARTESIAN_POINT ( 'NONE',  ( 0.1031100000000002570, 1.354581824536888722E-17, 2.244094000000000033 ) ) ;
#234 = ORIENTED_EDGE ( 'NONE', *, *, #252, .F. ) ;
#235 = DIRECTION ( 'NONE',  ( 0.0000000000000000000, 0.0000000000000000000, -1.000000000000000000 ) ) ;
#236 = VERTEX_POINT ( 'NONE', #198 ) ;
#237 = DIRECTION ( 'NONE',  ( 1.000000000000000000, 0.0000000000000000000, 0.0000000000000000000 ) ) ;
#238 = CARTESIAN_POINT ( 'NONE',  ( 7.714307363656999460E-17, 0.0000000000000000000, 0.6299209999999999532 ) ) ;
#239 = EDGE_CURVE ( 'NONE', #236, #271, #173, .T. ) ;
#240 = DIRECTION ( 'NONE',  ( -1.224646799147353207E-16, -0.0000000000000000000, -1.000000000000000000 ) ) ;
#241 = AXIS2_PLACEMENT_3D ( 'NONE', #145, #235, #57 ) ;
#242 = CYLINDRICAL_SURFACE ( 'NONE', #22, 0.1181100000000000066 ) ;
#243 = CARTESIAN_POINT ( 'NONE',  ( 1.179729942015078748E-33, 0.0000000000000000000, 9.633226027589770864E-18 ) ) ;
#244 = FACE_OUTER_BOUND ( 'NONE', #253, .T. ) ;
#245 = EDGE_LOOP ( 'NONE', ( #27, #87, #99, #70 ) ) ;
#246 = DIRECTION ( 'NONE',  ( 0.0000000000000000000, 0.0000000000000000000, -1.000000000000000000 ) ) ;
#247 = FILL_AREA_STYLE_COLOUR ( '', #202 ) ;
#248 = CARTESIAN_POINT ( 'NONE',  ( 1.179729942015078748E-33, 0.0000000000000000000, 9.633226027589770864E-18 ) ) ;
#249 = SURFACE_SIDE_STYLE ('',( #291 ) ) ;
#250 =( NAMED_UNIT ( * ) PLANE_ANGLE_UNIT ( ) SI_UNIT ( $, .RADIAN. ) );
#251 = FILL_AREA_STYLE_COLOUR ( '', #33 ) ;
#252 = EDGE_CURVE ( 'NONE', #23, #271, #255, .T. ) ;
#253 = EDGE_LOOP ( 'NONE', ( #185, #270, #203, #166 ) ) ;
#254 = LINE ( 'NONE', #46, #264 ) ;
#255 = CIRCLE ( 'NONE', #139, 0.07866125999999999674 ) ;
#256 = DIRECTION ( 'NONE',  ( -0.0000000000000000000, -0.0000000000000000000, -1.000000000000000000 ) ) ;
#257 = ORIENTED_EDGE ( 'NONE', *, *, #252, .T. ) ;
#258 = CARTESIAN_POINT ( 'NONE',  ( 0.07866126000000009388, 0.0000000000000000000, 0.6299209999999999532 ) ) ;
#259 = DIRECTION ( 'NONE',  ( 0.0000000000000000000, 0.0000000000000000000, 1.000000000000000000 ) ) ;
#260 = CONICAL_SURFACE ( 'NONE', #67, 0.07866126000000001062, 0.1745329251994338915 ) ;
#261 = LINE ( 'NONE', #258, #56 ) ;
#262 = EDGE_CURVE ( 'NONE', #236, #48, #96, .T. ) ;
#263 = CARTESIAN_POINT ( 'NONE',  ( 0.07866125999999999674, 9.633226027589770864E-18, -1.895600338963814870E-33 ) ) ;
#264 = VECTOR ( 'NONE', #140, 39.37007874015748854 ) ;
#265 = LENGTH_MEASURE_WITH_UNIT ( LENGTH_MEASURE( 0.02539999999999999897 ), #85 );
#266 = CARTESIAN_POINT ( 'NONE',  ( 0.0000000000000000000, 0.0000000000000000000, 2.244094000000000033 ) ) ;
#267 = CIRCLE ( 'NONE', #10, 0.1181100000000000066 ) ;
#268 = DIRECTION ( 'NONE',  ( 0.0000000000000000000, 0.0000000000000000000, 1.000000000000000000 ) ) ;
#269 = EDGE_CURVE ( 'NONE', #48, #236, #207, .T. ) ;
#270 = ORIENTED_EDGE ( 'NONE', *, *, #262, .F. ) ;
#271 = VERTEX_POINT ( 'NONE', #263 ) ;
#272 = CIRCLE ( 'NONE', #55, 0.1181100000000000066 ) ;
#273 = VECTOR ( 'NONE', #285, 39.37007874015748143 ) ;
#274 = CARTESIAN_POINT ( 'NONE',  ( 0.0000000000000000000, 0.0000000000000000000, 0.0000000000000000000 ) ) ;
#275 = ORIENTED_EDGE ( 'NONE', *, *, #84, .F. ) ;
#276 = DIRECTION ( 'NONE',  ( -1.224646799147353207E-16, -0.0000000000000000000, -1.000000000000000000 ) ) ;
#277 = ORIENTED_EDGE ( 'NONE', *, *, #19, .F. ) ;
#278 = CARTESIAN_POINT ( 'NONE',  ( 0.1181100000000000066, 1.446430334472939084E-17, 2.244094000000000033 ) ) ;
#279 = EDGE_CURVE ( 'NONE', #231, #228, #229, .T. ) ;
#280 = EDGE_LOOP ( 'NONE', ( #142, #91, #234, #17 ) ) ;
#281 = CIRCLE ( 'NONE', #221, 0.1031100000000002570 ) ;
#282 = CARTESIAN_POINT ( 'NONE',  ( 0.0000000000000000000, 0.0000000000000000000, 2.244094000000000033 ) ) ;
#283 = EDGE_LOOP ( 'NONE', ( #164, #209, #79, #50 ) ) ;
#284 = CARTESIAN_POINT ( 'NONE',  ( 1.045414745944312376E-16, 0.0000000000000000000, 0.8536459219688246058 ) ) ;
#285 = DIRECTION ( 'NONE',  ( -0.0000000000000000000, -0.0000000000000000000, -1.000000000000000000 ) ) ;
#286 = AXIS2_PLACEMENT_3D ( 'NONE', #274, #200, #69 ) ;
#287 =( NAMED_UNIT ( * ) SI_UNIT ( $, .STERADIAN. ) SOLID_ANGLE_UNIT ( ) );
#288 =( CONVERSION_BASED_UNIT ( 'INCH', #265 ) LENGTH_UNIT ( ) NAMED_UNIT ( #93 ) );
#289 = PRODUCT_DEFINITION_SHAPE ( 'NONE', 'NONE',  #110 ) ;
#290 = ADVANCED_FACE ( 'NONE', ( #244 ), #260, .T. ) ;
#291 = SURFACE_STYLE_FILL_AREA ( #92 ) ;
#292 = DIRECTION ( 'NONE',  ( 1.000000000000000000, 0.0000000000000000000, -0.0000000000000000000 ) ) ;
#293 = ORIENTED_EDGE ( 'NONE', *, *, #80, .F. ) ;
#294 = ADVANCED_FACE ( 'NONE', ( #36 ), #9, .T. ) ;
#295 = LENGTH_MEASURE_WITH_UNIT ( LENGTH_MEASURE( 0.02539999999999999897 ), #18 );
#296 = ADVANCED_FACE ( 'NONE', ( #194 ), #242, .T. ) ;
#297 = PRESENTATION_STYLE_ASSIGNMENT (( #205 ) ) ;
#298 = AXIS2_PLACEMENT_3D ( 'NONE', #284, #82, #60 ) ;
#299 = ORIENTED_EDGE ( 'NONE', *, *, #133, .T. ) ;
ENDSEC;
END-ISO-10303-21;
