ISO-10303-21;
HEADER;
FILE_DESCRIPTION (( 'STEP AP214' ),
    '1' );
FILE_NAME ('Micro_GEMM-060-2.STEP',
    '2021-09-01T21:40:24',
    ( '' ),
    ( '' ),
    'SwSTEP 2.0',
    'SolidWorks 2020',
    '' );
FILE_SCHEMA (( 'AUTOMOTIVE_DESIGN' ));
ENDSEC;

DATA;
#1 = FACE_OUTER_BOUND ( 'NONE', #184, .T. ) ;
#2 = DIRECTION ( 'NONE',  ( 1.000000000000000000, 0.0000000000000000000, 0.0000000000000000000 ) ) ;
#3 = CIRCLE ( 'NONE', #217, 0.1181100000000000066 ) ;
#4 =( GEOMETRIC_REPRESENTATION_CONTEXT ( 3 ) GLOBAL_UNCERTAINTY_ASSIGNED_CONTEXT ( ( #243 ) ) GLOBAL_UNIT_ASSIGNED_CONTEXT ( ( #82, #58, #34 ) ) REPRESENTATION_CONTEXT ( 'NONE', 'WORKASPACE' ) );
#5 = ORIENTED_EDGE ( 'NONE', *, *, #210, .F. ) ;
#6 = PLANE ( 'NONE',  #256 ) ;
#7 = CARTESIAN_POINT ( 'NONE',  ( 4.821446694711121291E-17, 0.0000000000000000000, 0.3937009999999999676 ) ) ;
#8 = DIRECTION ( 'NONE',  ( -1.224646799147353207E-16, -0.0000000000000000000, -1.000000000000000000 ) ) ;
#9 = CARTESIAN_POINT ( 'NONE',  ( 0.0000000000000000000, 0.0000000000000000000, 2.244094000000000033 ) ) ;
#10 = CARTESIAN_POINT ( 'NONE',  ( -0.1179918899999999604, 1.445707119305702357E-17, 0.3937009999999999676 ) ) ;
#11 = ORIENTED_EDGE ( 'NONE', *, *, #275, .F. ) ;
#12 = ADVANCED_FACE ( 'NONE', ( #164 ), #236, .T. ) ;
#13 = AXIS2_PLACEMENT_3D ( 'NONE', #203, #264, #120 ) ;
#14 = LENGTH_MEASURE_WITH_UNIT ( LENGTH_MEASURE( 0.02539999999999999897 ), #35 );
#15 = AXIS2_PLACEMENT_3D ( 'NONE', #7, #162, #228 ) ;
#16 = CYLINDRICAL_SURFACE ( 'NONE', #176, 0.1179918900000000159 ) ;
#17 = LINE ( 'NONE', #107, #89 ) ;
#18 = DIRECTION ( 'NONE',  ( 1.224646799147353207E-16, 0.0000000000000000000, 1.000000000000000000 ) ) ;
#19 = DIRECTION ( 'NONE',  ( 0.0000000000000000000, 0.0000000000000000000, -1.000000000000000000 ) ) ;
#20 = EDGE_CURVE ( 'NONE', #68, #54, #229, .T. ) ;
#21 = FILL_AREA_STYLE ('',( #66 ) ) ;
#22 = STYLED_ITEM ( 'NONE', ( #149 ), #192 ) ;
#23 = CARTESIAN_POINT ( 'NONE',  ( 0.0000000000000000000, 0.0000000000000000000, 0.0000000000000000000 ) ) ;
#24 = ORIENTED_EDGE ( 'NONE', *, *, #174, .F. ) ;
#25 = ORIENTED_EDGE ( 'NONE', *, *, #153, .T. ) ;
#26 = APPLICATION_CONTEXT ( 'automotive_design' ) ;
#27 = DIRECTION ( 'NONE',  ( -0.0000000000000000000, -0.0000000000000000000, -1.000000000000000000 ) ) ;
#28 = CARTESIAN_POINT ( 'NONE',  ( 0.0000000000000000000, 0.0000000000000000000, 0.0000000000000000000 ) ) ;
#29 = ORIENTED_EDGE ( 'NONE', *, *, #20, .F. ) ;
#30 = ORIENTED_EDGE ( 'NONE', *, *, #216, .T. ) ;
#31 = EDGE_CURVE ( 'NONE', #136, #126, #171, .T. ) ;
#32 = CARTESIAN_POINT ( 'NONE',  ( 1.769594913022618037E-33, 0.0000000000000000000, 1.444983904138465938E-17 ) ) ;
#33 = AXIS2_PLACEMENT_3D ( 'NONE', #282, #18, #2 ) ;
#34 =( NAMED_UNIT ( * ) SI_UNIT ( $, .STERADIAN. ) SOLID_ANGLE_UNIT ( ) );
#35 =( LENGTH_UNIT ( ) NAMED_UNIT ( * ) SI_UNIT ( $, .METRE. ) );
#36 = CLOSED_SHELL ( 'NONE', ( #60, #80, #263, #12, #129, #249, #191, #253, #77, #283 ) ) ;
#37 = DIRECTION ( 'NONE',  ( -1.224646799147353207E-16, -0.0000000000000000000, -1.000000000000000000 ) ) ;
#38 = PRODUCT_CONTEXT ( 'NONE', #26, 'mechanical' ) ;
#39 = LENGTH_MEASURE_WITH_UNIT ( LENGTH_MEASURE( 0.02539999999999999897 ), #157 );
#40 = DIRECTION ( 'NONE',  ( -0.0000000000000000000, -0.0000000000000000000, -1.000000000000000000 ) ) ;
#41 = EDGE_CURVE ( 'NONE', #239, #258, #86, .T. ) ;
#42 = CARTESIAN_POINT ( 'NONE',  ( -0.1181100000000000066, 0.0000000000000000000, 2.229093999999999465 ) ) ;
#43 = PRESENTATION_LAYER_ASSIGNMENT (  '', '', ( #22 ) ) ;
#44 = DIRECTION ( 'NONE',  ( 1.000000000000000000, 0.0000000000000000000, 0.0000000000000000000 ) ) ;
#45 = LINE ( 'NONE', #205, #278 ) ;
#46 = CARTESIAN_POINT ( 'NONE',  ( -0.1181100000000000066, 0.0000000000000000000, 2.244094000000000033 ) ) ;
#47 = EDGE_CURVE ( 'NONE', #239, #136, #63, .T. ) ;
#48 = CARTESIAN_POINT ( 'NONE',  ( 0.1031100000000002570, 1.262733314600838667E-17, 2.244094000000000033 ) ) ;
#49 = DIRECTION ( 'NONE',  ( -1.000000000000000000, 0.0000000000000000000, 0.0000000000000000000 ) ) ;
#50 = CARTESIAN_POINT ( 'NONE',  ( 0.0000000000000000000, 0.0000000000000000000, 2.244094000000000033 ) ) ;
#51 = ORIENTED_EDGE ( 'NONE', *, *, #277, .T. ) ;
#52 = EDGE_LOOP ( 'NONE', ( #272, #223, #25, #5 ) ) ;
#53 = ORIENTED_EDGE ( 'NONE', *, *, #193, .T. ) ;
#54 = VERTEX_POINT ( 'NONE', #273 ) ;
#55 =( NAMED_UNIT ( * ) SI_UNIT ( $, .STERADIAN. ) SOLID_ANGLE_UNIT ( ) );
#56 = ORIENTED_EDGE ( 'NONE', *, *, #98, .F. ) ;
#57 = AXIS2_PLACEMENT_3D ( 'NONE', #198, #40, #94 ) ;
#58 =( NAMED_UNIT ( * ) PLANE_ANGLE_UNIT ( ) SI_UNIT ( $, .RADIAN. ) );
#59 = UNCERTAINTY_MEASURE_WITH_UNIT (LENGTH_MEASURE( 1.000000000000000082E-05 ), #221, 'distance_accuracy_value', 'NONE');
#60 = ADVANCED_FACE ( 'NONE', ( #173 ), #16, .T. ) ;
#61 = EDGE_CURVE ( 'NONE', #78, #167, #3, .T. ) ;
#62 = ORIENTED_EDGE ( 'NONE', *, *, #188, .F. ) ;
#63 = LINE ( 'NONE', #244, #222 ) ;
#64 = SURFACE_STYLE_FILL_AREA ( #21 ) ;
#65 = PRESENTATION_LAYER_ASSIGNMENT (  '', '', ( #97 ) ) ;
#66 = FILL_AREA_STYLE_COLOUR ( '', #204 ) ;
#67 = CARTESIAN_POINT ( 'NONE',  ( 0.0000000000000000000, 0.0000000000000000000, 2.229093999999999465 ) ) ;
#68 = VERTEX_POINT ( 'NONE', #119 ) ;
#69 = CYLINDRICAL_SURFACE ( 'NONE', #255, 0.1179918900000000159 ) ;
#70 = FACE_OUTER_BOUND ( 'NONE', #75, .T. ) ;
#71 = DIRECTION ( 'NONE',  ( -1.224646799147353207E-16, -0.0000000000000000000, -1.000000000000000000 ) ) ;
#72 = DIRECTION ( 'NONE',  ( -1.000000000000000000, 0.0000000000000000000, 1.224646799147352961E-16 ) ) ;
#73 = DIRECTION ( 'NONE',  ( 1.000000000000000000, 0.0000000000000000000, -0.0000000000000000000 ) ) ;
#74 = ORIENTED_EDGE ( 'NONE', *, *, #237, .T. ) ;
#75 = EDGE_LOOP ( 'NONE', ( #209, #51 ) ) ;
#76 = LINE ( 'NONE', #48, #247 ) ;
#77 = ADVANCED_FACE ( 'NONE', ( #1 ), #69, .T. ) ;
#78 = VERTEX_POINT ( 'NONE', #251 ) ;
#79 = ORIENTED_EDGE ( 'NONE', *, *, #216, .F. ) ;
#80 = ADVANCED_FACE ( 'NONE', ( #177 ), #147, .T. ) ;
#81 = DIRECTION ( 'NONE',  ( -0.0000000000000000000, -0.0000000000000000000, -1.000000000000000000 ) ) ;
#82 =( CONVERSION_BASED_UNIT ( 'INCH', #14 ) LENGTH_UNIT ( ) NAMED_UNIT ( #91 ) );
#83 = AXIS2_PLACEMENT_3D ( 'NONE', #252, #280, #257 ) ;
#84 = SHAPE_DEFINITION_REPRESENTATION ( #246, #192 ) ;
#85 = DIRECTION ( 'NONE',  ( -1.000000000000000000, 0.0000000000000000000, 0.0000000000000000000 ) ) ;
#86 = CIRCLE ( 'NONE', #99, 0.1179918900000000159 ) ;
#87 = FACE_OUTER_BOUND ( 'NONE', #118, .T. ) ;
#88 = CYLINDRICAL_SURFACE ( 'NONE', #57, 0.1181100000000000066 ) ;
#89 = VECTOR ( 'NONE', #194, 39.37007874015747433 ) ;
#90 = AXIS2_PLACEMENT_3D ( 'NONE', #23, #250, #113 ) ;
#91 = DIMENSIONAL_EXPONENTS ( 1.000000000000000000, 0.0000000000000000000, 0.0000000000000000000, 0.0000000000000000000, 0.0000000000000000000, 0.0000000000000000000, 0.0000000000000000000 ) ;
#92 = DIRECTION ( 'NONE',  ( -1.000000000000000000, 0.0000000000000000000, 1.224646799147352961E-16 ) ) ;
#93 = CARTESIAN_POINT ( 'NONE',  ( 0.1179918900000000576, 0.0000000000000000000, 0.3937009999999999676 ) ) ;
#94 = DIRECTION ( 'NONE',  ( -1.000000000000000000, 0.0000000000000000000, 0.0000000000000000000 ) ) ;
#95 = DIRECTION ( 'NONE',  ( 0.7071067811865358044, 8.659560562354788645E-17, -0.7071067811865590080 ) ) ;
#96 = DIRECTION ( 'NONE',  ( 0.0000000000000000000, 0.0000000000000000000, -1.000000000000000000 ) ) ;
#97 = STYLED_ITEM ( 'NONE', ( #156 ), #132 ) ;
#98 = EDGE_CURVE ( 'NONE', #167, #78, #190, .T. ) ;
#99 = AXIS2_PLACEMENT_3D ( 'NONE', #160, #8, #85 ) ;
#100 = VECTOR ( 'NONE', #27, 39.37007874015748143 ) ;
#101 = FACE_OUTER_BOUND ( 'NONE', #116, .T. ) ;
#102 = CARTESIAN_POINT ( 'NONE',  ( 0.0000000000000000000, 0.0000000000000000000, 2.244094000000000033 ) ) ;
#103 = DIRECTION ( 'NONE',  ( 0.0000000000000000000, 0.0000000000000000000, 1.000000000000000000 ) ) ;
#104 = CARTESIAN_POINT ( 'NONE',  ( 4.829649808770360457E-17, 0.0000000000000000000, 0.3943708350957150222 ) ) ;
#105 = AXIS2_PLACEMENT_3D ( 'NONE', #50, #295, #238 ) ;
#106 = DIRECTION ( 'NONE',  ( -1.224646799147353207E-16, -0.0000000000000000000, -1.000000000000000000 ) ) ;
#107 = CARTESIAN_POINT ( 'NONE',  ( -0.1179918899999999604, 1.444983904138465938E-17, 0.3937009999999999676 ) ) ;
#108 = APPLICATION_CONTEXT ( 'automotive_design' ) ;
#109 = DIRECTION ( 'NONE',  ( 0.0000000000000000000, 0.0000000000000000000, -1.000000000000000000 ) ) ;
#110 = DIRECTION ( 'NONE',  ( -1.000000000000000000, 0.0000000000000000000, 0.0000000000000000000 ) ) ;
#111 = SURFACE_STYLE_USAGE ( .BOTH. , #114 ) ;
#112 = AXIS2_PLACEMENT_3D ( 'NONE', #9, #103, #44 ) ;
#113 = DIRECTION ( 'NONE',  ( 1.000000000000000000, 0.0000000000000000000, 0.0000000000000000000 ) ) ;
#114 = SURFACE_SIDE_STYLE ('',( #64 ) ) ;
#115 = PRODUCT ( 'Micro_GEMM-060-2', 'Micro_GEMM-060-2', '', ( #38 ) ) ;
#116 = EDGE_LOOP ( 'NONE', ( #30, #53 ) ) ;
#117 = DIRECTION ( 'NONE',  ( -1.224646799147353207E-16, -0.0000000000000000000, -1.000000000000000000 ) ) ;
#118 = EDGE_LOOP ( 'NONE', ( #297, #79, #74, #267 ) ) ;
#119 = CARTESIAN_POINT ( 'NONE',  ( 0.1181100000000000622, 1.446430334472939701E-17, 0.3943708350957150222 ) ) ;
#120 = DIRECTION ( 'NONE',  ( -1.000000000000000000, 0.0000000000000000000, 0.0000000000000000000 ) ) ;
#121 = COLOUR_RGB ( '',0.7921568627450980005, 0.8196078431372548767, 0.9333333333333333481 ) ;
#122 = CARTESIAN_POINT ( 'NONE',  ( 0.1031100000000002570, 1.354581824536888722E-17, 2.244094000000000033 ) ) ;
#123 = ORIENTED_EDGE ( 'NONE', *, *, #47, .F. ) ;
#124 = DIRECTION ( 'NONE',  ( -1.000000000000000000, 0.0000000000000000000, 1.224646799147353454E-16 ) ) ;
#125 = MECHANICAL_DESIGN_GEOMETRIC_PRESENTATION_REPRESENTATION (  '', ( #97 ), #231 ) ;
#126 = VERTEX_POINT ( 'NONE', #175 ) ;
#127 = ORIENTED_EDGE ( 'NONE', *, *, #31, .F. ) ;
#128 = ORIENTED_EDGE ( 'NONE', *, *, #277, .F. ) ;
#129 = ADVANCED_FACE ( 'NONE', ( #195 ), #88, .T. ) ;
#130 = PRODUCT_DEFINITION_CONTEXT ( 'detailed design', #108, 'design' ) ;
#131 = AXIS2_PLACEMENT_3D ( 'NONE', #32, #117, #124 ) ;
#132 = MANIFOLD_SOLID_BREP ( 'Cut-Revolve1', #36 ) ;
#133 =( NAMED_UNIT ( * ) PLANE_ANGLE_UNIT ( ) SI_UNIT ( $, .RADIAN. ) );
#134 = CARTESIAN_POINT ( 'NONE',  ( -0.1031100000000002570, 0.0000000000000000000, 2.244094000000000033 ) ) ;
#135 = CIRCLE ( 'NONE', #83, 0.1181100000000000066 ) ;
#136 = VERTEX_POINT ( 'NONE', #179 ) ;
#137 = DIRECTION ( 'NONE',  ( 1.000000000000000000, 0.0000000000000000000, -0.0000000000000000000 ) ) ;
#138 = ORIENTED_EDGE ( 'NONE', *, *, #234, .T. ) ;
#139 = PLANE ( 'NONE',  #172 ) ;
#140 = CARTESIAN_POINT ( 'NONE',  ( -0.1031100000000002570, 0.0000000000000000000, 2.244094000000000033 ) ) ;
#141 = ORIENTED_EDGE ( 'NONE', *, *, #47, .T. ) ;
#142 = CONICAL_SURFACE ( 'NONE', #15, 0.1179918900000000159, 0.1745329251994338637 ) ;
#143 = LENGTH_MEASURE_WITH_UNIT ( LENGTH_MEASURE( 0.02539999999999999897 ), #226 );
#144 = ORIENTED_EDGE ( 'NONE', *, *, #234, .F. ) ;
#145 = DIRECTION ( 'NONE',  ( 0.0000000000000000000, 0.0000000000000000000, 1.000000000000000000 ) ) ;
#146 = ORIENTED_EDGE ( 'NONE', *, *, #237, .F. ) ;
#147 = CONICAL_SURFACE ( 'NONE', #33, 0.1179918900000000159, 0.1745329251994338637 ) ;
#148 = PRODUCT_RELATED_PRODUCT_CATEGORY ( 'part', '', ( #115 ) ) ;
#149 = PRESENTATION_STYLE_ASSIGNMENT (( #270 ) ) ;
#150 = EDGE_LOOP ( 'NONE', ( #293, #185, #127, #123 ) ) ;
#151 = UNCERTAINTY_MEASURE_WITH_UNIT (LENGTH_MEASURE( 1.000000000000000082E-05 ), #261, 'distance_accuracy_value', 'NONE');
#152 = CARTESIAN_POINT ( 'NONE',  ( 0.0000000000000000000, 0.0000000000000000000, 0.0000000000000000000 ) ) ;
#153 = EDGE_CURVE ( 'NONE', #54, #68, #135, .T. ) ;
#154 = ORIENTED_EDGE ( 'NONE', *, *, #210, .T. ) ;
#155 = DIRECTION ( 'NONE',  ( -1.224646799147353207E-16, -0.0000000000000000000, -1.000000000000000000 ) ) ;
#156 = PRESENTATION_STYLE_ASSIGNMENT (( #111 ) ) ;
#157 =( LENGTH_UNIT ( ) NAMED_UNIT ( * ) SI_UNIT ( $, .METRE. ) );
#158 = DIRECTION ( 'NONE',  ( 1.000000000000000000, 0.0000000000000000000, 0.0000000000000000000 ) ) ;
#159 = CONICAL_SURFACE ( 'NONE', #242, 0.1031100000000002570, 0.7853981633974318477 ) ;
#161 = ORIENTED_EDGE ( 'NONE', *, *, #61, .T. ) ;
#160 = CARTESIAN_POINT ( 'NONE',  ( 4.821446694711121291E-17, 0.0000000000000000000, 0.3937009999999999676 ) ) ;
#162 = DIRECTION ( 'NONE',  ( 1.224646799147353207E-16, 0.0000000000000000000, 1.000000000000000000 ) ) ;
#163 = DIRECTION ( 'NONE',  ( 1.000000000000000000, 0.0000000000000000000, 0.0000000000000000000 ) ) ;
#164 = FACE_OUTER_BOUND ( 'NONE', #230, .T. ) ;
#165 = CARTESIAN_POINT ( 'NONE',  ( 0.1179918900000000576, 0.0000000000000000000, 0.3937009999999999676 ) ) ;
#166 = ORIENTED_EDGE ( 'NONE', *, *, #153, .F. ) ;
#167 = VERTEX_POINT ( 'NONE', #42 ) ;
#168 = LINE ( 'NONE', #178, #100 ) ;
#169 = ORIENTED_EDGE ( 'NONE', *, *, #20, .T. ) ;
#170 = VERTEX_POINT ( 'NONE', #134 ) ;
#171 = CIRCLE ( 'NONE', #211, 0.1179918899999999882 ) ;
#172 = AXIS2_PLACEMENT_3D ( 'NONE', #102, #186, #137 ) ;
#173 = FACE_OUTER_BOUND ( 'NONE', #150, .T. ) ;
#174 = EDGE_CURVE ( 'NONE', #258, #126, #45, .T. ) ;
#175 = CARTESIAN_POINT ( 'NONE',  ( 0.1179918899999999882, 1.444983904138465938E-17, -1.895600338963814870E-33 ) ) ;
#176 = AXIS2_PLACEMENT_3D ( 'NONE', #152, #106, #92 ) ;
#177 = FACE_OUTER_BOUND ( 'NONE', #52, .T. ) ;
#178 = CARTESIAN_POINT ( 'NONE',  ( 0.1181100000000000066, 1.446430334472939084E-17, 2.244094000000000033 ) ) ;
#179 = CARTESIAN_POINT ( 'NONE',  ( -0.1179918899999999882, 0.0000000000000000000, 2.889967808276931875E-17 ) ) ;
#180 = DIRECTION ( 'NONE',  ( -1.000000000000000000, 0.0000000000000000000, 1.224646799147353454E-16 ) ) ;
#181 = ORIENTED_EDGE ( 'NONE', *, *, #98, .T. ) ;
#182 = AXIS2_PLACEMENT_3D ( 'NONE', #227, #145, #158 ) ;
#183 = CARTESIAN_POINT ( 'NONE',  ( 0.0000000000000000000, 0.0000000000000000000, 0.0000000000000000000 ) ) ;
#184 = EDGE_LOOP ( 'NONE', ( #24, #138, #141, #128 ) ) ;
#185 = ORIENTED_EDGE ( 'NONE', *, *, #174, .T. ) ;
#186 = DIRECTION ( 'NONE',  ( 0.0000000000000000000, 0.0000000000000000000, 1.000000000000000000 ) ) ;
#187 = CARTESIAN_POINT ( 'NONE',  ( 1.769594913022618037E-33, 0.0000000000000000000, 1.444983904138465938E-17 ) ) ;
#188 = EDGE_CURVE ( 'NONE', #239, #54, #17, .T. ) ;
#189 = SURFACE_STYLE_FILL_AREA ( #212 ) ;
#190 = CIRCLE ( 'NONE', #271, 0.1181100000000000066 ) ;
#191 = ADVANCED_FACE ( 'NONE', ( #87 ), #159, .T. ) ;
#192 = ADVANCED_BREP_SHAPE_REPRESENTATION ( 'Micro_GEMM-060-2', ( #132, #90 ), #215 ) ;
#193 = EDGE_CURVE ( 'NONE', #199, #170, #281, .T. ) ;
#194 = DIRECTION ( 'NONE',  ( -0.1736481776669311639, 2.126576849575783008E-17, 0.9848077530122080203 ) ) ;
#195 = FACE_OUTER_BOUND ( 'NONE', #290, .T. ) ;
#196 =( NAMED_UNIT ( * ) SI_UNIT ( $, .STERADIAN. ) SOLID_ANGLE_UNIT ( ) );
#197 = VECTOR ( 'NONE', #291, 39.37007874015748143 ) ;
#198 = CARTESIAN_POINT ( 'NONE',  ( 0.0000000000000000000, 0.0000000000000000000, 2.244094000000000033 ) ) ;
#199 = VERTEX_POINT ( 'NONE', #122 ) ;
#200 = DIRECTION ( 'NONE',  ( 1.000000000000000000, 0.0000000000000000000, 0.0000000000000000000 ) ) ;
#201 = DIMENSIONAL_EXPONENTS ( 1.000000000000000000, 0.0000000000000000000, 0.0000000000000000000, 0.0000000000000000000, 0.0000000000000000000, 0.0000000000000000000, 0.0000000000000000000 ) ;
#202 = EDGE_CURVE ( 'NONE', #199, #78, #76, .T. ) ;
#203 = CARTESIAN_POINT ( 'NONE',  ( 4.821446694711121291E-17, 0.0000000000000000000, 0.3937009999999999676 ) ) ;
#204 = COLOUR_RGB ( '',0.7921568627450980005, 0.8196078431372548767, 0.9333333333333333481 ) ;
#205 = CARTESIAN_POINT ( 'NONE',  ( 0.1179918900000000159, 1.444983904138465938E-17, -1.444983904138465938E-17 ) ) ;
#206 = DIRECTION ( 'NONE',  ( 0.1736481776669313581, 0.0000000000000000000, 0.9848077530122077983 ) ) ;
#207 = EDGE_LOOP ( 'NONE', ( #241, #233, #56, #146 ) ) ;
#208 = FACE_OUTER_BOUND ( 'NONE', #207, .T. ) ;
#209 = ORIENTED_EDGE ( 'NONE', *, *, #31, .T. ) ;
#210 = EDGE_CURVE ( 'NONE', #258, #68, #224, .T. ) ;
#211 = AXIS2_PLACEMENT_3D ( 'NONE', #187, #260, #180 ) ;
#212 = FILL_AREA_STYLE ('',( #240 ) ) ;
#213 = EDGE_LOOP ( 'NONE', ( #62, #144, #154, #169 ) ) ;
#214 = VECTOR ( 'NONE', #206, 39.37007874015748143 ) ;
#215 =( GEOMETRIC_REPRESENTATION_CONTEXT ( 3 ) GLOBAL_UNCERTAINTY_ASSIGNED_CONTEXT ( ( #151 ) ) GLOBAL_UNIT_ASSIGNED_CONTEXT ( ( #261, #235, #55 ) ) REPRESENTATION_CONTEXT ( 'NONE', 'WORKASPACE' ) );
#216 = EDGE_CURVE ( 'NONE', #170, #199, #266, .T. ) ;
#217 = AXIS2_PLACEMENT_3D ( 'NONE', #219, #96, #200 ) ;
#218 = CONICAL_SURFACE ( 'NONE', #105, 0.1031100000000002570, 0.7853981633974318477 ) ;
#219 = CARTESIAN_POINT ( 'NONE',  ( 0.0000000000000000000, 0.0000000000000000000, 2.229093999999999465 ) ) ;
#220 = CARTESIAN_POINT ( 'NONE',  ( 0.0000000000000000000, 0.0000000000000000000, 2.244094000000000033 ) ) ;
#221 =( CONVERSION_BASED_UNIT ( 'INCH', #39 ) LENGTH_UNIT ( ) NAMED_UNIT ( #201 ) );
#222 = VECTOR ( 'NONE', #155, 39.37007874015748143 ) ;
#223 = ORIENTED_EDGE ( 'NONE', *, *, #188, .T. ) ;
#224 = LINE ( 'NONE', #165, #214 ) ;
#225 = DIMENSIONAL_EXPONENTS ( 1.000000000000000000, 0.0000000000000000000, 0.0000000000000000000, 0.0000000000000000000, 0.0000000000000000000, 0.0000000000000000000, 0.0000000000000000000 ) ;
#226 =( LENGTH_UNIT ( ) NAMED_UNIT ( * ) SI_UNIT ( $, .METRE. ) );
#227 = CARTESIAN_POINT ( 'NONE',  ( 0.0000000000000000000, 0.0000000000000000000, 2.244094000000000033 ) ) ;
#228 = DIRECTION ( 'NONE',  ( 1.000000000000000000, 0.0000000000000000000, 0.0000000000000000000 ) ) ;
#229 = CIRCLE ( 'NONE', #289, 0.1181100000000000066 ) ;
#230 = EDGE_LOOP ( 'NONE', ( #181, #292, #166, #294 ) ) ;
#231 =( GEOMETRIC_REPRESENTATION_CONTEXT ( 3 ) GLOBAL_UNCERTAINTY_ASSIGNED_CONTEXT ( ( #59 ) ) GLOBAL_UNIT_ASSIGNED_CONTEXT ( ( #221, #133, #196 ) ) REPRESENTATION_CONTEXT ( 'NONE', 'WORKASPACE' ) );
#232 = MECHANICAL_DESIGN_GEOMETRIC_PRESENTATION_REPRESENTATION (  '', ( #22 ), #4 ) ;
#233 = ORIENTED_EDGE ( 'NONE', *, *, #202, .T. ) ;
#234 = EDGE_CURVE ( 'NONE', #258, #239, #296, .T. ) ;
#235 =( NAMED_UNIT ( * ) PLANE_ANGLE_UNIT ( ) SI_UNIT ( $, .RADIAN. ) );
#236 = CYLINDRICAL_SURFACE ( 'NONE', #265, 0.1181100000000000066 ) ;
#237 = EDGE_CURVE ( 'NONE', #170, #167, #254, .T. ) ;
#238 = DIRECTION ( 'NONE',  ( -1.000000000000000000, 0.0000000000000000000, 0.0000000000000000000 ) ) ;
#239 = VERTEX_POINT ( 'NONE', #10 ) ;
#240 = FILL_AREA_STYLE_COLOUR ( '', #121 ) ;
#241 = ORIENTED_EDGE ( 'NONE', *, *, #193, .F. ) ;
#242 = AXIS2_PLACEMENT_3D ( 'NONE', #220, #19, #110 ) ;
#243 = UNCERTAINTY_MEASURE_WITH_UNIT (LENGTH_MEASURE( 1.000000000000000082E-05 ), #82, 'distance_accuracy_value', 'NONE');
#244 = CARTESIAN_POINT ( 'NONE',  ( -0.1179918900000000159, 0.0000000000000000000, 1.444983904138465938E-17 ) ) ;
#245 = PRODUCT_DEFINITION ( 'UNKNOWN', '', #279, #130 ) ;
#246 = PRODUCT_DEFINITION_SHAPE ( 'NONE', 'NONE',  #245 ) ;
#247 = VECTOR ( 'NONE', #95, 39.37007874015748854 ) ;
#248 = CIRCLE ( 'NONE', #131, 0.1179918899999999882 ) ;
#249 = ADVANCED_FACE ( 'NONE', ( #101 ), #139, .T. ) ;
#250 = DIRECTION ( 'NONE',  ( 0.0000000000000000000, 0.0000000000000000000, 1.000000000000000000 ) ) ;
#251 = CARTESIAN_POINT ( 'NONE',  ( 0.1181100000000000066, 1.446430334472939084E-17, 2.229093999999999465 ) ) ;
#252 = CARTESIAN_POINT ( 'NONE',  ( 4.829649808770360457E-17, 0.0000000000000000000, 0.3943708350957150222 ) ) ;
#253 = ADVANCED_FACE ( 'NONE', ( #268 ), #142, .T. ) ;
#254 = LINE ( 'NONE', #140, #299 ) ;
#255 = AXIS2_PLACEMENT_3D ( 'NONE', #28, #284, #72 ) ;
#256 = AXIS2_PLACEMENT_3D ( 'NONE', #183, #285, #73 ) ;
#257 = DIRECTION ( 'NONE',  ( 1.000000000000000000, 0.0000000000000000000, 0.0000000000000000000 ) ) ;
#258 = VERTEX_POINT ( 'NONE', #93 ) ;
#259 = LINE ( 'NONE', #46, #197 ) ;
#260 = DIRECTION ( 'NONE',  ( -1.224646799147353207E-16, -0.0000000000000000000, -1.000000000000000000 ) ) ;
#261 =( CONVERSION_BASED_UNIT ( 'INCH', #143 ) LENGTH_UNIT ( ) NAMED_UNIT ( #225 ) );
#262 = CARTESIAN_POINT ( 'NONE',  ( 0.0000000000000000000, 0.0000000000000000000, 2.244094000000000033 ) ) ;
#263 = ADVANCED_FACE ( 'NONE', ( #208 ), #218, .T. ) ;
#264 = DIRECTION ( 'NONE',  ( -1.224646799147353207E-16, -0.0000000000000000000, -1.000000000000000000 ) ) ;
#265 = AXIS2_PLACEMENT_3D ( 'NONE', #262, #81, #49 ) ;
#266 = CIRCLE ( 'NONE', #112, 0.1031100000000002570 ) ;
#267 = ORIENTED_EDGE ( 'NONE', *, *, #61, .F. ) ;
#268 = FACE_OUTER_BOUND ( 'NONE', #213, .T. ) ;
#269 = ORIENTED_EDGE ( 'NONE', *, *, #287, .T. ) ;
#270 = SURFACE_STYLE_USAGE ( .BOTH. , #298 ) ;
#271 = AXIS2_PLACEMENT_3D ( 'NONE', #67, #109, #286 ) ;
#272 = ORIENTED_EDGE ( 'NONE', *, *, #41, .F. ) ;
#273 = CARTESIAN_POINT ( 'NONE',  ( -0.1181099999999999650, 0.0000000000000000000, 0.3943708350957150222 ) ) ;
#274 = APPLICATION_PROTOCOL_DEFINITION ( 'draft international standard', 'automotive_design', 1998, #26 ) ;
#275 = EDGE_CURVE ( 'NONE', #78, #68, #168, .T. ) ;
#276 = APPLICATION_PROTOCOL_DEFINITION ( 'draft international standard', 'automotive_design', 1998, #108 ) ;
#277 = EDGE_CURVE ( 'NONE', #126, #136, #248, .T. ) ;
#278 = VECTOR ( 'NONE', #37, 39.37007874015748143 ) ;
#279 = PRODUCT_DEFINITION_FORMATION_WITH_SPECIFIED_SOURCE ( 'ANY', '', #115, .NOT_KNOWN. ) ;
#280 = DIRECTION ( 'NONE',  ( -1.224646799147353207E-16, -0.0000000000000000000, -1.000000000000000000 ) ) ;
#281 = CIRCLE ( 'NONE', #182, 0.1031100000000002570 ) ;
#282 = CARTESIAN_POINT ( 'NONE',  ( 4.821446694711121291E-17, 0.0000000000000000000, 0.3937009999999999676 ) ) ;
#283 = ADVANCED_FACE ( 'NONE', ( #70 ), #6, .F. ) ;
#284 = DIRECTION ( 'NONE',  ( -1.224646799147353207E-16, -0.0000000000000000000, -1.000000000000000000 ) ) ;
#285 = DIRECTION ( 'NONE',  ( 0.0000000000000000000, 0.0000000000000000000, 1.000000000000000000 ) ) ;
#286 = DIRECTION ( 'NONE',  ( 1.000000000000000000, 0.0000000000000000000, 0.0000000000000000000 ) ) ;
#287 = EDGE_CURVE ( 'NONE', #167, #54, #259, .T. ) ;
#288 = DIRECTION ( 'NONE',  ( -0.7071067811865358044, 0.0000000000000000000, -0.7071067811865590080 ) ) ;
#289 = AXIS2_PLACEMENT_3D ( 'NONE', #104, #71, #163 ) ;
#290 = EDGE_LOOP ( 'NONE', ( #11, #161, #269, #29 ) ) ;
#291 = DIRECTION ( 'NONE',  ( -0.0000000000000000000, -0.0000000000000000000, -1.000000000000000000 ) ) ;
#292 = ORIENTED_EDGE ( 'NONE', *, *, #275, .T. ) ;
#293 = ORIENTED_EDGE ( 'NONE', *, *, #41, .T. ) ;
#294 = ORIENTED_EDGE ( 'NONE', *, *, #287, .F. ) ;
#295 = DIRECTION ( 'NONE',  ( 0.0000000000000000000, 0.0000000000000000000, -1.000000000000000000 ) ) ;
#296 = CIRCLE ( 'NONE', #13, 0.1179918900000000159 ) ;
#297 = ORIENTED_EDGE ( 'NONE', *, *, #202, .F. ) ;
#298 = SURFACE_SIDE_STYLE ('',( #189 ) ) ;
#299 = VECTOR ( 'NONE', #288, 39.37007874015748854 ) ;
ENDSEC;
END-ISO-10303-21;
