ISO-10303-21;
HEADER;
FILE_DESCRIPTION (( 'STEP AP214' ),
    '1' );
FILE_NAME ('Micro_GEMM-140-4.STEP',
    '2021-09-01T22:03:27',
    ( '' ),
    ( '' ),
    'SwSTEP 2.0',
    'SolidWorks 2020',
    '' );
FILE_SCHEMA (( 'AUTOMOTIVE_DESIGN' ));
ENDSEC;

DATA;
#1 = AXIS2_PLACEMENT_3D ( 'NONE', #257, #207, #299 ) ;
#2 = CARTESIAN_POINT ( 'NONE',  ( 0.0000000000000000000, 0.0000000000000000000, 0.0000000000000000000 ) ) ;
#3 = VECTOR ( 'NONE', #238, 39.37007874015748143 ) ;
#4 = SURFACE_STYLE_FILL_AREA ( #34 ) ;
#5 = EDGE_LOOP ( 'NONE', ( #40, #62 ) ) ;
#6 = CARTESIAN_POINT ( 'NONE',  ( -0.2605905000000014460, 0.0000000000000000000, 3.267717000000000649 ) ) ;
#7 = EDGE_LOOP ( 'NONE', ( #199, #222, #47, #83 ) ) ;
#8 = EDGE_CURVE ( 'NONE', #156, #31, #130, .T. ) ;
#9 = STYLED_ITEM ( 'NONE', ( #80 ), #90 ) ;
#10 = APPLICATION_PROTOCOL_DEFINITION ( 'draft international standard', 'automotive_design', 1998, #50 ) ;
#11 = DIRECTION ( 'NONE',  ( 1.000000000000000000, 0.0000000000000000000, 0.0000000000000000000 ) ) ;
#12 = DIMENSIONAL_EXPONENTS ( 1.000000000000000000, 0.0000000000000000000, 0.0000000000000000000, 0.0000000000000000000, 0.0000000000000000000, 0.0000000000000000000, 0.0000000000000000000 ) ;
#13 =( LENGTH_UNIT ( ) NAMED_UNIT ( * ) SI_UNIT ( $, .METRE. ) );
#14 = PRODUCT ( 'Micro_GEMM-140-4', 'Micro_GEMM-140-4', '', ( #127 ) ) ;
#15 = MANIFOLD_SOLID_BREP ( 'Cut-Revolve1', #150 ) ;
#16 = PRODUCT_DEFINITION ( 'UNKNOWN', '', #236, #265 ) ;
#17 = LINE ( 'NONE', #33, #245 ) ;
#18 = CARTESIAN_POINT ( 'NONE',  ( 4.129062288352891690E-33, 0.0000000000000000000, 3.371635226767182256E-17 ) ) ;
#19 = DIRECTION ( 'NONE',  ( -1.224646799147353454E-16, -0.0000000000000000000, -1.000000000000000000 ) ) ;
#20 = EDGE_CURVE ( 'NONE', #59, #190, #171, .T. ) ;
#21 = CIRCLE ( 'NONE', #96, 0.2753149094999999824 ) ;
#22 = PLANE ( 'NONE',  #187 ) ;
#23 = UNCERTAINTY_MEASURE_WITH_UNIT (LENGTH_MEASURE( 1.000000000000000082E-05 ), #196, 'distance_accuracy_value', 'NONE');
#24 = AXIS2_PLACEMENT_3D ( 'NONE', #101, #159, #246 ) ;
#25 = ORIENTED_EDGE ( 'NONE', *, *, #237, .T. ) ;
#26 = ORIENTED_EDGE ( 'NONE', *, *, #161, .F. ) ;
#27 = EDGE_CURVE ( 'NONE', #59, #156, #255, .T. ) ;
#28 = EDGE_CURVE ( 'NONE', #190, #111, #92, .T. ) ;
#29 = CARTESIAN_POINT ( 'NONE',  ( 0.0000000000000000000, 0.0000000000000000000, 3.267717000000000649 ) ) ;
#30 = SURFACE_STYLE_USAGE ( .BOTH. , #177 ) ;
#31 = VERTEX_POINT ( 'NONE', #275 ) ;
#32 = CYLINDRICAL_SURFACE ( 'NONE', #279, 0.2755905000000000715 ) ;
#33 = CARTESIAN_POINT ( 'NONE',  ( -0.2753149094999998159, 3.371635226767182256E-17, 1.023622000000000032 ) ) ;
#34 = FILL_AREA_STYLE ('',( #286 ) ) ;
#35 = ORIENTED_EDGE ( 'NONE', *, *, #28, .T. ) ;
#36 = SURFACE_STYLE_USAGE ( .BOTH. , #270 ) ;
#37 = AXIS2_PLACEMENT_3D ( 'NONE', #102, #175, #51 ) ;
#38 =( NAMED_UNIT ( * ) SI_UNIT ( $, .STERADIAN. ) SOLID_ANGLE_UNIT ( ) );
#39 = ADVANCED_FACE ( 'NONE', ( #169 ), #179, .T. ) ;
#40 = ORIENTED_EDGE ( 'NONE', *, *, #118, .T. ) ;
#41 = ORIENTED_EDGE ( 'NONE', *, *, #170, .F. ) ;
#42 = CARTESIAN_POINT ( 'NONE',  ( 0.0000000000000000000, 0.0000000000000000000, 3.267717000000000649 ) ) ;
#43 = CARTESIAN_POINT ( 'NONE',  ( 0.2755905000000000715, 3.375010237004186497E-17, 3.267717000000000649 ) ) ;
#44 = AXIS2_PLACEMENT_3D ( 'NONE', #58, #138, #103 ) ;
#45 = DIRECTION ( 'NONE',  ( -1.000000000000000000, 0.0000000000000000000, 1.224646799147353207E-16 ) ) ;
#46 = DIRECTION ( 'NONE',  ( 1.000000000000000000, 0.0000000000000000000, 0.0000000000000000000 ) ) ;
#47 = ORIENTED_EDGE ( 'NONE', *, *, #8, .F. ) ;
#48 = VECTOR ( 'NONE', #168, 39.37007874015748143 ) ;
#49 = CIRCLE ( 'NONE', #37, 0.2755905000000000715 ) ;
#50 = APPLICATION_CONTEXT ( 'automotive_design' ) ;
#51 = DIRECTION ( 'NONE',  ( 1.000000000000000000, 0.0000000000000000000, 0.0000000000000000000 ) ) ;
#52 = CARTESIAN_POINT ( 'NONE',  ( 0.2753149095000000934, 0.0000000000000000000, 1.023622000000000032 ) ) ;
#53 = ORIENTED_EDGE ( 'NONE', *, *, #263, .F. ) ;
#54 = ORIENTED_EDGE ( 'NONE', *, *, #8, .T. ) ;
#55 = EDGE_LOOP ( 'NONE', ( #54, #25 ) ) ;
#56 =( GEOMETRIC_REPRESENTATION_CONTEXT ( 3 ) GLOBAL_UNCERTAINTY_ASSIGNED_CONTEXT ( ( #256 ) ) GLOBAL_UNIT_ASSIGNED_CONTEXT ( ( #81, #239, #125 ) ) REPRESENTATION_CONTEXT ( 'NONE', 'WORKASPACE' ) );
#57 = DIRECTION ( 'NONE',  ( -0.1736481776669312194, 2.126576849575783625E-17, 0.9848077530122077983 ) ) ;
#58 = CARTESIAN_POINT ( 'NONE',  ( 0.0000000000000000000, 0.0000000000000000000, 3.252717000000001857 ) ) ;
#59 = VERTEX_POINT ( 'NONE', #262 ) ;
#60 = FACE_OUTER_BOUND ( 'NONE', #5, .T. ) ;
#61 = CARTESIAN_POINT ( 'NONE',  ( 0.2755905000000001825, 3.375010237004187729E-17, 1.025184951392309696 ) ) ;
#62 = ORIENTED_EDGE ( 'NONE', *, *, #167, .T. ) ;
#63 = DIRECTION ( 'NONE',  ( -1.224646799147353454E-16, -0.0000000000000000000, -1.000000000000000000 ) ) ;
#64 = DIRECTION ( 'NONE',  ( -1.000000000000000000, 0.0000000000000000000, 0.0000000000000000000 ) ) ;
#65 = PRESENTATION_LAYER_ASSIGNMENT (  '', '', ( #232 ) ) ;
#66 = LINE ( 'NONE', #253, #48 ) ;
#67 = CARTESIAN_POINT ( 'NONE',  ( 0.2605905000000014460, 3.283161727068144454E-17, 3.267717000000000649 ) ) ;
#68 = EDGE_LOOP ( 'NONE', ( #219, #180, #249, #141 ) ) ;
#69 = EDGE_CURVE ( 'NONE', #111, #284, #70, .T. ) ;
#70 = CIRCLE ( 'NONE', #285, 0.2755905000000000715 ) ;
#71 = CARTESIAN_POINT ( 'NONE',  ( -0.2755904999999999050, 0.0000000000000000000, 1.025184951392309696 ) ) ;
#72 = ORIENTED_EDGE ( 'NONE', *, *, #75, .F. ) ;
#73 = EDGE_LOOP ( 'NONE', ( #53, #223, #108, #189 ) ) ;
#74 = CARTESIAN_POINT ( 'NONE',  ( 0.2755905000000000715, 3.375010237004186497E-17, 3.252717000000001857 ) ) ;
#75 = EDGE_CURVE ( 'NONE', #235, #291, #174, .T. ) ;
#76 =( LENGTH_UNIT ( ) NAMED_UNIT ( * ) SI_UNIT ( $, .METRE. ) );
#77 = ORIENTED_EDGE ( 'NONE', *, *, #161, .T. ) ;
#78 = FACE_OUTER_BOUND ( 'NONE', #73, .T. ) ;
#79 = DIRECTION ( 'NONE',  ( -0.0000000000000000000, -0.0000000000000000000, -1.000000000000000000 ) ) ;
#80 = PRESENTATION_STYLE_ASSIGNMENT (( #30 ) ) ;
#81 =( CONVERSION_BASED_UNIT ( 'INCH', #157 ) LENGTH_UNIT ( ) NAMED_UNIT ( #203 ) );
#82 = DIRECTION ( 'NONE',  ( 1.000000000000000000, 0.0000000000000000000, 0.0000000000000000000 ) ) ;
#83 = ORIENTED_EDGE ( 'NONE', *, *, #27, .F. ) ;
#84 = CARTESIAN_POINT ( 'NONE',  ( 0.0000000000000000000, 0.0000000000000000000, 3.267717000000000649 ) ) ;
#85 = ORIENTED_EDGE ( 'NONE', *, *, #69, .T. ) ;
#86 = FILL_AREA_STYLE ('',( #194 ) ) ;
#87 = EDGE_CURVE ( 'NONE', #190, #59, #165, .T. ) ;
#88 = DIRECTION ( 'NONE',  ( 1.000000000000000000, 0.0000000000000000000, -0.0000000000000000000 ) ) ;
#89 = CARTESIAN_POINT ( 'NONE',  ( 1.255489469256627242E-16, 0.0000000000000000000, 1.025184951392309696 ) ) ;
#90 = ADVANCED_BREP_SHAPE_REPRESENTATION ( 'Micro_GEMM-140-4', ( #15, #144 ), #297 ) ;
#91 = DIRECTION ( 'NONE',  ( 1.224646799147353454E-16, 0.0000000000000000000, 1.000000000000000000 ) ) ;
#92 = LINE ( 'NONE', #185, #206 ) ;
#93 = AXIS2_PLACEMENT_3D ( 'NONE', #2, #240, #88 ) ;
#94 = CARTESIAN_POINT ( 'NONE',  ( 4.129062288352891690E-33, 0.0000000000000000000, 3.371635226767182256E-17 ) ) ;
#95 = PLANE ( 'NONE',  #93 ) ;
#96 = AXIS2_PLACEMENT_3D ( 'NONE', #94, #19, #45 ) ;
#97 = ORIENTED_EDGE ( 'NONE', *, *, #123, .F. ) ;
#98 = MECHANICAL_DESIGN_GEOMETRIC_PRESENTATION_REPRESENTATION (  '', ( #9 ), #56 ) ;
#99 = EDGE_LOOP ( 'NONE', ( #282, #211, #72, #26 ) ) ;
#100 = AXIS2_PLACEMENT_3D ( 'NONE', #132, #283, #105 ) ;
#101 = CARTESIAN_POINT ( 'NONE',  ( 0.0000000000000000000, 0.0000000000000000000, 0.0000000000000000000 ) ) ;
#102 = CARTESIAN_POINT ( 'NONE',  ( 0.0000000000000000000, 0.0000000000000000000, 3.252717000000001857 ) ) ;
#103 = DIRECTION ( 'NONE',  ( 1.000000000000000000, 0.0000000000000000000, 0.0000000000000000000 ) ) ;
#104 = LENGTH_MEASURE_WITH_UNIT ( LENGTH_MEASURE( 0.02539999999999999897 ), #254 );
#105 = DIRECTION ( 'NONE',  ( -1.000000000000000000, 0.0000000000000000000, 0.0000000000000000000 ) ) ;
#106 = DIRECTION ( 'NONE',  ( 1.224646799147353454E-16, 0.0000000000000000000, 1.000000000000000000 ) ) ;
#107 = CARTESIAN_POINT ( 'NONE',  ( 1.253575405836812198E-16, 0.0000000000000000000, 1.023622000000000032 ) ) ;
#108 = ORIENTED_EDGE ( 'NONE', *, *, #27, .T. ) ;
#109 = LENGTH_MEASURE_WITH_UNIT ( LENGTH_MEASURE( 0.02539999999999999897 ), #13 );
#110 = DIRECTION ( 'NONE',  ( 0.0000000000000000000, 0.0000000000000000000, -1.000000000000000000 ) ) ;
#111 = VERTEX_POINT ( 'NONE', #61 ) ;
#112 = CONICAL_SURFACE ( 'NONE', #296, 0.2605905000000014460, 0.7853981633974471688 ) ;
#113 = LINE ( 'NONE', #147, #266 ) ;
#114 = DIRECTION ( 'NONE',  ( -1.224646799147353454E-16, -0.0000000000000000000, -1.000000000000000000 ) ) ;
#115 = AXIS2_PLACEMENT_3D ( 'NONE', #218, #126, #281 ) ;
#116 = DIRECTION ( 'NONE',  ( 0.0000000000000000000, 0.0000000000000000000, 1.000000000000000000 ) ) ;
#117 = DIRECTION ( 'NONE',  ( 0.1736481776669314414, 0.0000000000000000000, 0.9848077530122077983 ) ) ;
#118 = EDGE_CURVE ( 'NONE', #134, #215, #158, .T. ) ;
#119 = CIRCLE ( 'NONE', #217, 0.2755905000000000715 ) ;
#120 = ORIENTED_EDGE ( 'NONE', *, *, #278, .T. ) ;
#121 = DIRECTION ( 'NONE',  ( -1.224646799147353454E-16, -0.0000000000000000000, -1.000000000000000000 ) ) ;
#122 = DIRECTION ( 'NONE',  ( -1.224646799147353454E-16, -0.0000000000000000000, -1.000000000000000000 ) ) ;
#123 = EDGE_CURVE ( 'NONE', #59, #284, #17, .T. ) ;
#124 = VECTOR ( 'NONE', #114, 39.37007874015748143 ) ;
#125 =( NAMED_UNIT ( * ) SI_UNIT ( $, .STERADIAN. ) SOLID_ANGLE_UNIT ( ) );
#126 = DIRECTION ( 'NONE',  ( -1.224646799147353454E-16, -0.0000000000000000000, -1.000000000000000000 ) ) ;
#127 = PRODUCT_CONTEXT ( 'NONE', #50, 'mechanical' ) ;
#128 = EDGE_LOOP ( 'NONE', ( #160, #195, #77, #41 ) ) ;
#129 = CARTESIAN_POINT ( 'NONE',  ( 0.0000000000000000000, 0.0000000000000000000, 3.267717000000000649 ) ) ;
#130 = CIRCLE ( 'NONE', #230, 0.2753149094999999824 ) ;
#131 = ORIENTED_EDGE ( 'NONE', *, *, #20, .F. ) ;
#132 = CARTESIAN_POINT ( 'NONE',  ( 1.253575405836812198E-16, 0.0000000000000000000, 1.023622000000000032 ) ) ;
#133 = PRESENTATION_LAYER_ASSIGNMENT (  '', '', ( #9 ) ) ;
#134 = VERTEX_POINT ( 'NONE', #248 ) ;
#135 = CARTESIAN_POINT ( 'NONE',  ( 1.253575405836812198E-16, 0.0000000000000000000, 1.023622000000000032 ) ) ;
#136 = APPLICATION_CONTEXT ( 'automotive_design' ) ;
#137 = FACE_OUTER_BOUND ( 'NONE', #7, .T. ) ;
#138 = DIRECTION ( 'NONE',  ( 0.0000000000000000000, 0.0000000000000000000, -1.000000000000000000 ) ) ;
#139 = ORIENTED_EDGE ( 'NONE', *, *, #234, .F. ) ;
#140 = DIRECTION ( 'NONE',  ( -1.000000000000000000, 0.0000000000000000000, 0.0000000000000000000 ) ) ;
#141 = ORIENTED_EDGE ( 'NONE', *, *, #197, .F. ) ;
#142 =( NAMED_UNIT ( * ) SI_UNIT ( $, .STERADIAN. ) SOLID_ANGLE_UNIT ( ) );
#143 = ADVANCED_FACE ( 'NONE', ( #267 ), #112, .T. ) ;
#144 = AXIS2_PLACEMENT_3D ( 'NONE', #155, #247, #269 ) ;
#145 = CARTESIAN_POINT ( 'NONE',  ( 1.253575405836812198E-16, 0.0000000000000000000, 1.023622000000000032 ) ) ;
#146 = PRODUCT_DEFINITION_SHAPE ( 'NONE', 'NONE',  #16 ) ;
#147 = CARTESIAN_POINT ( 'NONE',  ( 0.2753149094999999824, 3.371635226767182256E-17, -3.371635226767182256E-17 ) ) ;
#148 = ADVANCED_FACE ( 'NONE', ( #78 ), #225, .T. ) ;
#149 = FACE_OUTER_BOUND ( 'NONE', #181, .T. ) ;
#150 = CLOSED_SHELL ( 'NONE', ( #154, #294, #39, #272, #173, #243, #143, #212, #148, #287 ) ) ;
#151 =( GEOMETRIC_REPRESENTATION_CONTEXT ( 3 ) GLOBAL_UNCERTAINTY_ASSIGNED_CONTEXT ( ( #23 ) ) GLOBAL_UNIT_ASSIGNED_CONTEXT ( ( #196, #200, #142 ) ) REPRESENTATION_CONTEXT ( 'NONE', 'WORKASPACE' ) );
#152 = AXIS2_PLACEMENT_3D ( 'NONE', #135, #182, #64 ) ;
#153 = CARTESIAN_POINT ( 'NONE',  ( -0.2753149094999999824, 0.0000000000000000000, 6.743270453534364513E-17 ) ) ;
#154 = ADVANCED_FACE ( 'NONE', ( #137 ), #188, .T. ) ;
#155 = CARTESIAN_POINT ( 'NONE',  ( 0.0000000000000000000, 0.0000000000000000000, 0.0000000000000000000 ) ) ;
#156 = VERTEX_POINT ( 'NONE', #153 ) ;
#157 = LENGTH_MEASURE_WITH_UNIT ( LENGTH_MEASURE( 0.02539999999999999897 ), #76 );
#158 = CIRCLE ( 'NONE', #184, 0.2605905000000014460 ) ;
#159 = DIRECTION ( 'NONE',  ( -1.224646799147353454E-16, -0.0000000000000000000, -1.000000000000000000 ) ) ;
#160 = ORIENTED_EDGE ( 'NONE', *, *, #220, .F. ) ;
#161 = EDGE_CURVE ( 'NONE', #134, #235, #221, .T. ) ;
#162 = DIRECTION ( 'NONE',  ( -0.0000000000000000000, -0.0000000000000000000, -1.000000000000000000 ) ) ;
#163 = EDGE_LOOP ( 'NONE', ( #139, #214, #242, #192 ) ) ;
#164 = SURFACE_STYLE_FILL_AREA ( #86 ) ;
#165 = CIRCLE ( 'NONE', #100, 0.2753149094999999824 ) ;
#166 = DIRECTION ( 'NONE',  ( -0.0000000000000000000, -0.0000000000000000000, -1.000000000000000000 ) ) ;
#167 = EDGE_CURVE ( 'NONE', #215, #134, #193, .T. ) ;
#168 = DIRECTION ( 'NONE',  ( 0.7071067811865466846, 8.659560562354922997E-17, -0.7071067811865483499 ) ) ;
#169 = FACE_OUTER_BOUND ( 'NONE', #99, .T. ) ;
#170 = EDGE_CURVE ( 'NONE', #291, #235, #49, .T. ) ;
#171 = CIRCLE ( 'NONE', #152, 0.2753149094999999824 ) ;
#172 = COLOUR_RGB ( '',0.7921568627450980005, 0.8196078431372548767, 0.9333333333333333481 ) ;
#173 = ADVANCED_FACE ( 'NONE', ( #241 ), #32, .T. ) ;
#174 = CIRCLE ( 'NONE', #44, 0.2755905000000000715 ) ;
#175 = DIRECTION ( 'NONE',  ( 0.0000000000000000000, 0.0000000000000000000, -1.000000000000000000 ) ) ;
#176 = DIRECTION ( 'NONE',  ( -1.000000000000000000, 0.0000000000000000000, 0.0000000000000000000 ) ) ;
#177 = SURFACE_SIDE_STYLE ('',( #4 ) ) ;
#178 =( NAMED_UNIT ( * ) PLANE_ANGLE_UNIT ( ) SI_UNIT ( $, .RADIAN. ) );
#179 = CONICAL_SURFACE ( 'NONE', #1, 0.2605905000000014460, 0.7853981633974471688 ) ;
#180 = ORIENTED_EDGE ( 'NONE', *, *, #234, .T. ) ;
#181 = EDGE_LOOP ( 'NONE', ( #131, #216, #120, #201 ) ) ;
#182 = DIRECTION ( 'NONE',  ( -1.224646799147353454E-16, -0.0000000000000000000, -1.000000000000000000 ) ) ;
#183 = AXIS2_PLACEMENT_3D ( 'NONE', #107, #106, #205 ) ;
#184 = AXIS2_PLACEMENT_3D ( 'NONE', #268, #198, #82 ) ;
#185 = CARTESIAN_POINT ( 'NONE',  ( 0.2753149095000000934, 0.0000000000000000000, 1.023622000000000032 ) ) ;
#186 = AXIS2_PLACEMENT_3D ( 'NONE', #145, #91, #273 ) ;
#187 = AXIS2_PLACEMENT_3D ( 'NONE', #42, #116, #227 ) ;
#188 = CYLINDRICAL_SURFACE ( 'NONE', #115, 0.2753149094999999824 ) ;
#189 = ORIENTED_EDGE ( 'NONE', *, *, #237, .F. ) ;
#190 = VERTEX_POINT ( 'NONE', #52 ) ;
#191 = EDGE_LOOP ( 'NONE', ( #97, #293, #35, #85 ) ) ;
#192 = ORIENTED_EDGE ( 'NONE', *, *, #69, .F. ) ;
#193 = CIRCLE ( 'NONE', #213, 0.2605905000000014460 ) ;
#194 = FILL_AREA_STYLE_COLOUR ( '', #274 ) ;
#195 = ORIENTED_EDGE ( 'NONE', *, *, #118, .F. ) ;
#196 =( CONVERSION_BASED_UNIT ( 'INCH', #109 ) LENGTH_UNIT ( ) NAMED_UNIT ( #276 ) );
#197 = EDGE_CURVE ( 'NONE', #235, #284, #277, .T. ) ;
#198 = DIRECTION ( 'NONE',  ( 0.0000000000000000000, 0.0000000000000000000, 1.000000000000000000 ) ) ;
#199 = ORIENTED_EDGE ( 'NONE', *, *, #20, .T. ) ;
#200 =( NAMED_UNIT ( * ) PLANE_ANGLE_UNIT ( ) SI_UNIT ( $, .RADIAN. ) );
#201 = ORIENTED_EDGE ( 'NONE', *, *, #28, .F. ) ;
#202 = FACE_OUTER_BOUND ( 'NONE', #191, .T. ) ;
#203 = DIMENSIONAL_EXPONENTS ( 1.000000000000000000, 0.0000000000000000000, 0.0000000000000000000, 0.0000000000000000000, 0.0000000000000000000, 0.0000000000000000000, 0.0000000000000000000 ) ;
#204 = CARTESIAN_POINT ( 'NONE',  ( -0.2755905000000000715, 0.0000000000000000000, 3.267717000000000649 ) ) ;
#205 = DIRECTION ( 'NONE',  ( 1.000000000000000000, 0.0000000000000000000, 0.0000000000000000000 ) ) ;
#206 = VECTOR ( 'NONE', #117, 39.37007874015748143 ) ;
#207 = DIRECTION ( 'NONE',  ( 0.0000000000000000000, 0.0000000000000000000, -1.000000000000000000 ) ) ;
#208 = UNCERTAINTY_MEASURE_WITH_UNIT (LENGTH_MEASURE( 1.000000000000000082E-05 ), #289, 'distance_accuracy_value', 'NONE');
#209 = PRODUCT_RELATED_PRODUCT_CATEGORY ( 'part', '', ( #14 ) ) ;
#210 = DIRECTION ( 'NONE',  ( 1.000000000000000000, 0.0000000000000000000, 0.0000000000000000000 ) ) ;
#211 = ORIENTED_EDGE ( 'NONE', *, *, #220, .T. ) ;
#212 = ADVANCED_FACE ( 'NONE', ( #202 ), #259, .T. ) ;
#213 = AXIS2_PLACEMENT_3D ( 'NONE', #29, #288, #11 ) ;
#214 = ORIENTED_EDGE ( 'NONE', *, *, #170, .T. ) ;
#215 = VERTEX_POINT ( 'NONE', #67 ) ;
#216 = ORIENTED_EDGE ( 'NONE', *, *, #123, .T. ) ;
#217 = AXIS2_PLACEMENT_3D ( 'NONE', #89, #121, #46 ) ;
#218 = CARTESIAN_POINT ( 'NONE',  ( 0.0000000000000000000, 0.0000000000000000000, 0.0000000000000000000 ) ) ;
#219 = ORIENTED_EDGE ( 'NONE', *, *, #75, .T. ) ;
#220 = EDGE_CURVE ( 'NONE', #215, #291, #66, .T. ) ;
#221 = LINE ( 'NONE', #6, #3 ) ;
#222 = ORIENTED_EDGE ( 'NONE', *, *, #263, .T. ) ;
#223 = ORIENTED_EDGE ( 'NONE', *, *, #87, .T. ) ;
#224 = SHAPE_DEFINITION_REPRESENTATION ( #146, #90 ) ;
#225 = CYLINDRICAL_SURFACE ( 'NONE', #24, 0.2753149094999999824 ) ;
#226 = VECTOR ( 'NONE', #231, 39.37007874015748143 ) ;
#227 = DIRECTION ( 'NONE',  ( 1.000000000000000000, 0.0000000000000000000, -0.0000000000000000000 ) ) ;
#228 = CARTESIAN_POINT ( 'NONE',  ( -0.2755905000000000715, 0.0000000000000000000, 3.252717000000001857 ) ) ;
#229 = CARTESIAN_POINT ( 'NONE',  ( -0.2753149094999999824, 0.0000000000000000000, 3.371635226767182256E-17 ) ) ;
#230 = AXIS2_PLACEMENT_3D ( 'NONE', #18, #63, #244 ) ;
#231 = DIRECTION ( 'NONE',  ( -0.0000000000000000000, -0.0000000000000000000, -1.000000000000000000 ) ) ;
#232 = STYLED_ITEM ( 'NONE', ( #251 ), #15 ) ;
#233 = FACE_OUTER_BOUND ( 'NONE', #55, .T. ) ;
#234 = EDGE_CURVE ( 'NONE', #291, #111, #298, .T. ) ;
#235 = VERTEX_POINT ( 'NONE', #228 ) ;
#236 = PRODUCT_DEFINITION_FORMATION_WITH_SPECIFIED_SOURCE ( 'ANY', '', #14, .NOT_KNOWN. ) ;
#237 = EDGE_CURVE ( 'NONE', #31, #156, #21, .T. ) ;
#238 = DIRECTION ( 'NONE',  ( -0.7071067811865466846, 0.0000000000000000000, -0.7071067811865483499 ) ) ;
#239 =( NAMED_UNIT ( * ) PLANE_ANGLE_UNIT ( ) SI_UNIT ( $, .RADIAN. ) );
#240 = DIRECTION ( 'NONE',  ( 0.0000000000000000000, 0.0000000000000000000, 1.000000000000000000 ) ) ;
#241 = FACE_OUTER_BOUND ( 'NONE', #163, .T. ) ;
#242 = ORIENTED_EDGE ( 'NONE', *, *, #197, .T. ) ;
#243 = ADVANCED_FACE ( 'NONE', ( #60 ), #22, .T. ) ;
#244 = DIRECTION ( 'NONE',  ( -1.000000000000000000, 0.0000000000000000000, 1.224646799147353207E-16 ) ) ;
#245 = VECTOR ( 'NONE', #57, 39.37007874015748143 ) ;
#246 = DIRECTION ( 'NONE',  ( -1.000000000000000000, 0.0000000000000000000, 1.224646799147353207E-16 ) ) ;
#247 = DIRECTION ( 'NONE',  ( 0.0000000000000000000, 0.0000000000000000000, 1.000000000000000000 ) ) ;
#248 = CARTESIAN_POINT ( 'NONE',  ( -0.2605905000000014460, 0.0000000000000000000, 3.267717000000000649 ) ) ;
#249 = ORIENTED_EDGE ( 'NONE', *, *, #278, .F. ) ;
#250 = DIRECTION ( 'NONE',  ( -1.224646799147353454E-16, -0.0000000000000000000, -1.000000000000000000 ) ) ;
#251 = PRESENTATION_STYLE_ASSIGNMENT (( #36 ) ) ;
#252 = AXIS2_PLACEMENT_3D ( 'NONE', #84, #166, #258 ) ;
#253 = CARTESIAN_POINT ( 'NONE',  ( 0.2605905000000014460, 3.191313217132101795E-17, 3.267717000000000649 ) ) ;
#254 =( LENGTH_UNIT ( ) NAMED_UNIT ( * ) SI_UNIT ( $, .METRE. ) );
#255 = LINE ( 'NONE', #229, #124 ) ;
#256 = UNCERTAINTY_MEASURE_WITH_UNIT (LENGTH_MEASURE( 1.000000000000000082E-05 ), #81, 'distance_accuracy_value', 'NONE');
#257 = CARTESIAN_POINT ( 'NONE',  ( 0.0000000000000000000, 0.0000000000000000000, 3.267717000000000649 ) ) ;
#258 = DIRECTION ( 'NONE',  ( -1.000000000000000000, 0.0000000000000000000, 0.0000000000000000000 ) ) ;
#259 = CONICAL_SURFACE ( 'NONE', #186, 0.2753149094999999824, 0.1745329251994339470 ) ;
#260 = CARTESIAN_POINT ( 'NONE',  ( 1.255489469256627242E-16, 0.0000000000000000000, 1.025184951392309696 ) ) ;
#261 = MECHANICAL_DESIGN_GEOMETRIC_PRESENTATION_REPRESENTATION (  '', ( #232 ), #151 ) ;
#262 = CARTESIAN_POINT ( 'NONE',  ( -0.2753149094999998159, 3.373322731885684685E-17, 1.023622000000000032 ) ) ;
#263 = EDGE_CURVE ( 'NONE', #190, #31, #113, .T. ) ;
#264 = APPLICATION_PROTOCOL_DEFINITION ( 'draft international standard', 'automotive_design', 1998, #136 ) ;
#265 = PRODUCT_DEFINITION_CONTEXT ( 'detailed design', #136, 'design' ) ;
#266 = VECTOR ( 'NONE', #250, 39.37007874015748143 ) ;
#267 = FACE_OUTER_BOUND ( 'NONE', #128, .T. ) ;
#268 = CARTESIAN_POINT ( 'NONE',  ( 0.0000000000000000000, 0.0000000000000000000, 3.267717000000000649 ) ) ;
#269 = DIRECTION ( 'NONE',  ( 1.000000000000000000, 0.0000000000000000000, 0.0000000000000000000 ) ) ;
#270 = SURFACE_SIDE_STYLE ('',( #164 ) ) ;
#271 = CONICAL_SURFACE ( 'NONE', #183, 0.2753149094999999824, 0.1745329251994339470 ) ;
#272 = ADVANCED_FACE ( 'NONE', ( #292 ), #295, .T. ) ;
#273 = DIRECTION ( 'NONE',  ( 1.000000000000000000, 0.0000000000000000000, 0.0000000000000000000 ) ) ;
#274 = COLOUR_RGB ( '',0.7921568627450980005, 0.8196078431372548767, 0.9333333333333333481 ) ;
#275 = CARTESIAN_POINT ( 'NONE',  ( 0.2753149094999999824, 3.371635226767182256E-17, 0.0000000000000000000 ) ) ;
#276 = DIMENSIONAL_EXPONENTS ( 1.000000000000000000, 0.0000000000000000000, 0.0000000000000000000, 0.0000000000000000000, 0.0000000000000000000, 0.0000000000000000000, 0.0000000000000000000 ) ;
#277 = LINE ( 'NONE', #204, #280 ) ;
#278 = EDGE_CURVE ( 'NONE', #284, #111, #119, .T. ) ;
#279 = AXIS2_PLACEMENT_3D ( 'NONE', #129, #79, #176 ) ;
#280 = VECTOR ( 'NONE', #162, 39.37007874015748143 ) ;
#281 = DIRECTION ( 'NONE',  ( -1.000000000000000000, 0.0000000000000000000, 1.224646799147353207E-16 ) ) ;
#282 = ORIENTED_EDGE ( 'NONE', *, *, #167, .F. ) ;
#283 = DIRECTION ( 'NONE',  ( -1.224646799147353454E-16, -0.0000000000000000000, -1.000000000000000000 ) ) ;
#284 = VERTEX_POINT ( 'NONE', #71 ) ;
#285 = AXIS2_PLACEMENT_3D ( 'NONE', #260, #122, #210 ) ;
#286 = FILL_AREA_STYLE_COLOUR ( '', #172 ) ;
#287 = ADVANCED_FACE ( 'NONE', ( #233 ), #95, .F. ) ;
#288 = DIRECTION ( 'NONE',  ( 0.0000000000000000000, 0.0000000000000000000, 1.000000000000000000 ) ) ;
#289 =( CONVERSION_BASED_UNIT ( 'INCH', #104 ) LENGTH_UNIT ( ) NAMED_UNIT ( #12 ) );
#290 = CARTESIAN_POINT ( 'NONE',  ( 0.0000000000000000000, 0.0000000000000000000, 3.267717000000000649 ) ) ;
#291 = VERTEX_POINT ( 'NONE', #74 ) ;
#292 = FACE_OUTER_BOUND ( 'NONE', #68, .T. ) ;
#293 = ORIENTED_EDGE ( 'NONE', *, *, #87, .F. ) ;
#294 = ADVANCED_FACE ( 'NONE', ( #149 ), #271, .T. ) ;
#295 = CYLINDRICAL_SURFACE ( 'NONE', #252, 0.2755905000000000715 ) ;
#296 = AXIS2_PLACEMENT_3D ( 'NONE', #290, #110, #140 ) ;
#297 =( GEOMETRIC_REPRESENTATION_CONTEXT ( 3 ) GLOBAL_UNCERTAINTY_ASSIGNED_CONTEXT ( ( #208 ) ) GLOBAL_UNIT_ASSIGNED_CONTEXT ( ( #289, #178, #38 ) ) REPRESENTATION_CONTEXT ( 'NONE', 'WORKASPACE' ) );
#298 = LINE ( 'NONE', #43, #226 ) ;
#299 = DIRECTION ( 'NONE',  ( -1.000000000000000000, 0.0000000000000000000, 0.0000000000000000000 ) ) ;
ENDSEC;
END-ISO-10303-21;
