ISO-10303-21;
HEADER;
FILE_DESCRIPTION (( 'STEP AP214' ),
    '1' );
FILE_NAME ('56407.STEP',
    '2023-06-30T22:08:31',
    ( '' ),
    ( '' ),
    'SwSTEP 2.0',
    'SolidWorks 2023',
    '' );
FILE_SCHEMA (( 'AUTOMOTIVE_DESIGN' ));
ENDSEC;

DATA;
#1 = ORIENTED_EDGE ( 'NONE', *, *, #164, .T. ) ;
#2 =( LENGTH_UNIT ( ) NAMED_UNIT ( * ) SI_UNIT ( $, .METRE. ) );
#3 = COLOUR_RGB ( '',1.000000000000000000, 0.000000000000000000, 0.000000000000000000 ) ;
#4 =( NAMED_UNIT ( * ) SI_UNIT ( $, .STERADIAN. ) SOLID_ANGLE_UNIT ( ) );
#5 = CLOSED_SHELL ( 'NONE', ( #33, #316, #85, #322, #176 ) ) ;
#6 =( CONVERSION_BASED_UNIT ( 'INCH', #111 ) LENGTH_UNIT ( ) NAMED_UNIT ( #24 ) );
#7 = PRODUCT_CONTEXT ( 'NONE', #103, 'mechanical' ) ;
#8 = CARTESIAN_POINT ( 'NONE',  ( -2.678914873134835064E-17, 0.2187500000000000000, 0.000000000000000000 ) ) ;
#9 = EDGE_CURVE ( 'NONE', #308, #246, #135, .T. ) ;
#10 = FILL_AREA_STYLE ('',( #213 ) ) ;
#11 = UNCERTAINTY_MEASURE_WITH_UNIT (LENGTH_MEASURE( 1.000000000000000082E-05 ), #226, 'distance_accuracy_value', 'NONE');
#12 = APPLICATION_PROTOCOL_DEFINITION ( 'draft international standard', 'automotive_design', 1998, #103 ) ;
#13 = CARTESIAN_POINT ( 'NONE',  ( 3.061616997868392262E-17, 2.750000000000000000, 0.000000000000000000 ) ) ;
#14 = ADVANCED_FACE ( 'NONE', ( #199 ), #23, .T. ) ;
#15 = DIRECTION ( 'NONE',  ( -1.000000000000000000, 0.000000000000000000, 0.000000000000000000 ) ) ;
#16 = VERTEX_POINT ( 'NONE', #165 ) ;
#17 = DIMENSIONAL_EXPONENTS ( 1.000000000000000000, 0.000000000000000000, 0.000000000000000000, 0.000000000000000000, 0.000000000000000000, 0.000000000000000000, 0.000000000000000000 ) ;
#18 =( GEOMETRIC_REPRESENTATION_CONTEXT ( 3 ) GLOBAL_UNCERTAINTY_ASSIGNED_CONTEXT ( ( #11 ) ) GLOBAL_UNIT_ASSIGNED_CONTEXT ( ( #226, #191, #161 ) ) REPRESENTATION_CONTEXT ( 'NONE', 'WORKASPACE' ) );
#19 = ORIENTED_EDGE ( 'NONE', *, *, #270, .F. ) ;
#20 = ORIENTED_EDGE ( 'NONE', *, *, #258, .F. ) ;
#21 = EDGE_LOOP ( 'NONE', ( #189, #133, #108, #99 ) ) ;
#22 = LINE ( 'NONE', #131, #238 ) ;
#23 = CYLINDRICAL_SURFACE ( 'NONE', #286, 0.2187499999999997502 ) ;
#24 = DIMENSIONAL_EXPONENTS ( 1.000000000000000000, 0.000000000000000000, 0.000000000000000000, 0.000000000000000000, 0.000000000000000000, 0.000000000000000000, 0.000000000000000000 ) ;
#25 = SURFACE_STYLE_FILL_AREA ( #58 ) ;
#26 =( NAMED_UNIT ( * ) SI_UNIT ( $, .STERADIAN. ) SOLID_ANGLE_UNIT ( ) );
#27 = SURFACE_SIDE_STYLE ('',( #25 ) ) ;
#28 = CYLINDRICAL_SURFACE ( 'NONE', #307, 0.2187499999999999445 ) ;
#29 = CIRCLE ( 'NONE', #368, 0.2187499999999999167 ) ;
#30 =( GEOMETRIC_REPRESENTATION_CONTEXT ( 3 ) GLOBAL_UNCERTAINTY_ASSIGNED_CONTEXT ( ( #240 ) ) GLOBAL_UNIT_ASSIGNED_CONTEXT ( ( #60, #166, #26 ) ) REPRESENTATION_CONTEXT ( 'NONE', 'WORKASPACE' ) );
#31 = PRESENTATION_STYLE_ASSIGNMENT (( #198 ) ) ;
#32 = DIRECTION ( 'NONE',  ( -1.000000000000000000, 0.000000000000000000, 0.000000000000000000 ) ) ;
#33 = ADVANCED_FACE ( 'NONE', ( #51 ), #193, .T. ) ;
#34 = DIRECTION ( 'NONE',  ( 0.000000000000000000, -0.000000000000000000, 1.000000000000000000 ) ) ;
#35 = PRESENTATION_LAYER_ASSIGNMENT (  '', '', ( #138 ) ) ;
#36 = CARTESIAN_POINT ( 'NONE',  ( 0.000000000000000000, 0.000000000000000000, 0.000000000000000000 ) ) ;
#37 = ADVANCED_FACE ( 'NONE', ( #278 ), #196, .F. ) ;
#38 = FACE_OUTER_BOUND ( 'NONE', #300, .T. ) ;
#39 = SURFACE_SIDE_STYLE ('',( #289 ) ) ;
#40 = PRESENTATION_LAYER_ASSIGNMENT (  '', '', ( #179 ) ) ;
#41 = DIRECTION ( 'NONE',  ( 1.000000000000000000, 0.000000000000000000, 0.000000000000000000 ) ) ;
#42 = STYLED_ITEM ( 'NONE', ( #321 ), #316 ) ;
#43 = CARTESIAN_POINT ( 'NONE',  ( 2.678914873134834756E-17, 0.2187500000000000278, 0.2187499999999999445 ) ) ;
#44 = FILL_AREA_STYLE ('',( #242 ) ) ;
#45 = UNCERTAINTY_MEASURE_WITH_UNIT (LENGTH_MEASURE( 1.000000000000000082E-05 ), #172, 'distance_accuracy_value', 'NONE');
#46 = EDGE_LOOP ( 'NONE', ( #1, #156, #332, #123 ) ) ;
#47 = AXIS2_PLACEMENT_3D ( 'NONE', #121, #271, #52 ) ;
#48 = EDGE_CURVE ( 'NONE', #79, #366, #268, .T. ) ;
#49 = EDGE_LOOP ( 'NONE', ( #305, #363, #257, #185 ) ) ;
#50 = ORIENTED_EDGE ( 'NONE', *, *, #76, .F. ) ;
#51 = FACE_OUTER_BOUND ( 'NONE', #46, .T. ) ;
#52 = DIRECTION ( 'NONE',  ( 0.000000000000000000, 0.000000000000000000, -1.000000000000000000 ) ) ;
#53 = COLOUR_RGB ( '',1.000000000000000000, 0.000000000000000000, 0.000000000000000000 ) ;
#54 = DIMENSIONAL_EXPONENTS ( 1.000000000000000000, 0.000000000000000000, 0.000000000000000000, 0.000000000000000000, 0.000000000000000000, 0.000000000000000000, 0.000000000000000000 ) ;
#55 = DIRECTION ( 'NONE',  ( 1.000000000000000000, 0.000000000000000000, 0.000000000000000000 ) ) ;
#56 = SURFACE_STYLE_FILL_AREA ( #349 ) ;
#57 = AXIS2_PLACEMENT_3D ( 'NONE', #224, #106, #230 ) ;
#58 = FILL_AREA_STYLE ('',( #167 ) ) ;
#59 = LENGTH_MEASURE_WITH_UNIT ( LENGTH_MEASURE( 0.02539999999999999897 ), #327 );
#60 =( CONVERSION_BASED_UNIT ( 'INCH', #282 ) LENGTH_UNIT ( ) NAMED_UNIT ( #54 ) );
#61 = FILL_AREA_STYLE ('',( #114 ) ) ;
#62 = CARTESIAN_POINT ( 'NONE',  ( 0.2187499999999999445, 0.2187500000000000278, 0.000000000000000000 ) ) ;
#63 = PRESENTATION_LAYER_ASSIGNMENT (  '', '', ( #128 ) ) ;
#64 = LENGTH_MEASURE_WITH_UNIT ( LENGTH_MEASURE( 0.02539999999999999897 ), #217 );
#65 = DIRECTION ( 'NONE',  ( -1.226024680912519237E-16, 1.000000000000000000, 0.000000000000000000 ) ) ;
#66 = CARTESIAN_POINT ( 'NONE',  ( 0.000000000000000000, 0.2187500000000000278, -0.2187499999999999445 ) ) ;
#67 = CARTESIAN_POINT ( 'NONE',  ( 2.911464146725942389E-16, 0.6250000000000000000, 0.000000000000000000 ) ) ;
#68 = CARTESIAN_POINT ( 'NONE',  ( 0.000000000000000000, 0.000000000000000000, 0.000000000000000000 ) ) ;
#69 = CARTESIAN_POINT ( 'NONE',  ( 0.2187499999999998890, 2.750000000000000000, 2.678914873134832907E-17 ) ) ;
#70 =( GEOMETRIC_REPRESENTATION_CONTEXT ( 3 ) GLOBAL_UNCERTAINTY_ASSIGNED_CONTEXT ( ( #260 ) ) GLOBAL_UNIT_ASSIGNED_CONTEXT ( ( #104, #362, #337 ) ) REPRESENTATION_CONTEXT ( 'NONE', 'WORKASPACE' ) );
#71 = PRODUCT_RELATED_PRODUCT_CATEGORY ( 'part', '', ( #359 ) ) ;
#72 = ORIENTED_EDGE ( 'NONE', *, *, #270, .T. ) ;
#73 = AXIS2_PLACEMENT_3D ( 'NONE', #149, #183, #277 ) ;
#74 = UNCERTAINTY_MEASURE_WITH_UNIT (LENGTH_MEASURE( 1.000000000000000082E-05 ), #6, 'distance_accuracy_value', 'NONE');
#75 = CARTESIAN_POINT ( 'NONE',  ( 0.000000000000000000, 0.6250000000000000000, -0.2187499999999999167 ) ) ;
#76 = EDGE_CURVE ( 'NONE', #308, #221, #181, .T. ) ;
#77 = ORIENTED_EDGE ( 'NONE', *, *, #304, .F. ) ;
#78 = VECTOR ( 'NONE', #323, 39.37007874015748143 ) ;
#79 = VERTEX_POINT ( 'NONE', #89 ) ;
#80 = SURFACE_SIDE_STYLE ('',( #309 ) ) ;
#81 =( GEOMETRIC_REPRESENTATION_CONTEXT ( 3 ) GLOBAL_UNCERTAINTY_ASSIGNED_CONTEXT ( ( #74 ) ) GLOBAL_UNIT_ASSIGNED_CONTEXT ( ( #6, #326, #4 ) ) REPRESENTATION_CONTEXT ( 'NONE', 'WORKASPACE' ) );
#82 = CARTESIAN_POINT ( 'NONE',  ( 2.678914873134834447E-17, 0.6250000000000000000, 0.2187499999999999167 ) ) ;
#83 = DIRECTION ( 'NONE',  ( -0.000000000000000000, -1.000000000000000000, -0.000000000000000000 ) ) ;
#84 = FILL_AREA_STYLE_COLOUR ( '', #203 ) ;
#85 = ADVANCED_FACE ( 'NONE', ( #236 ), #146, .T. ) ;
#86 = SURFACE_STYLE_USAGE ( .BOTH. , #168 ) ;
#87 = DIRECTION ( 'NONE',  ( 0.000000000000000000, 0.000000000000000000, -1.000000000000000000 ) ) ;
#88 = DIRECTION ( 'NONE',  ( -0.000000000000000000, -1.000000000000000000, -0.000000000000000000 ) ) ;
#89 = CARTESIAN_POINT ( 'NONE',  ( -0.2187500000000000000, 0.2187500000000000278, 2.678914873134834756E-17 ) ) ;
#90 = CYLINDRICAL_SURFACE ( 'NONE', #335, 0.2187499999999997502 ) ;
#91 = CARTESIAN_POINT ( 'NONE',  ( 0.000000000000000000, 0.6250000000000000000, 0.000000000000000000 ) ) ;
#92 = STYLED_ITEM ( 'NONE', ( #209 ), #85 ) ;
#93 =( NAMED_UNIT ( * ) PLANE_ANGLE_UNIT ( ) SI_UNIT ( $, .RADIAN. ) );
#94 = SURFACE_SIDE_STYLE ('',( #295 ) ) ;
#95 = SURFACE_STYLE_FILL_AREA ( #225 ) ;
#96 = LINE ( 'NONE', #314, #202 ) ;
#97 = CIRCLE ( 'NONE', #298, 0.2187499999999998890 ) ;
#98 = ORIENTED_EDGE ( 'NONE', *, *, #351, .F. ) ;
#99 = ORIENTED_EDGE ( 'NONE', *, *, #144, .T. ) ;
#100 = VERTEX_POINT ( 'NONE', #62 ) ;
#101 = CIRCLE ( 'NONE', #57, 0.2187499999999998890 ) ;
#102 = LENGTH_MEASURE_WITH_UNIT ( LENGTH_MEASURE( 0.02539999999999999897 ), #371 );
#103 = APPLICATION_CONTEXT ( 'automotive_design' ) ;
#104 =( CONVERSION_BASED_UNIT ( 'INCH', #340 ) LENGTH_UNIT ( ) NAMED_UNIT ( #364 ) );
#105 = DIRECTION ( 'NONE',  ( -1.226024680912519237E-16, 1.000000000000000000, -0.000000000000000000 ) ) ;
#106 = DIRECTION ( 'NONE',  ( -1.226024680912519237E-16, 1.000000000000000000, -0.000000000000000000 ) ) ;
#107 = AXIS2_PLACEMENT_3D ( 'NONE', #8, #294, #237 ) ;
#108 = ORIENTED_EDGE ( 'NONE', *, *, #275, .T. ) ;
#109 =( NAMED_UNIT ( * ) PLANE_ANGLE_UNIT ( ) SI_UNIT ( $, .RADIAN. ) );
#110 = PRESENTATION_LAYER_ASSIGNMENT (  '', '', ( #92 ) ) ;
#111 = LENGTH_MEASURE_WITH_UNIT ( LENGTH_MEASURE( 0.02539999999999999897 ), #173 );
#112 = CARTESIAN_POINT ( 'NONE',  ( 0.000000000000000000, 0.6250000000000000000, 0.000000000000000000 ) ) ;
#113 = DIRECTION ( 'NONE',  ( -0.000000000000000000, -1.000000000000000000, -0.000000000000000000 ) ) ;
#114 = FILL_AREA_STYLE_COLOUR ( '', #53 ) ;
#115 = UNCERTAINTY_MEASURE_WITH_UNIT (LENGTH_MEASURE( 1.000000000000000082E-05 ), #320, 'distance_accuracy_value', 'NONE');
#116 = DIRECTION ( 'NONE',  ( -1.000000000000000000, 0.000000000000000000, 0.000000000000000000 ) ) ;
#117 = PRESENTATION_STYLE_ASSIGNMENT (( #259 ) ) ;
#118 = AXIS2_PLACEMENT_3D ( 'NONE', #315, #229, #317 ) ;
#119 = AXIS2_PLACEMENT_3D ( 'NONE', #214, #178, #116 ) ;
#120 = DIRECTION ( 'NONE',  ( 0.000000000000000000, 0.000000000000000000, 1.000000000000000000 ) ) ;
#121 = CARTESIAN_POINT ( 'NONE',  ( 0.000000000000000000, 0.2187500000000000278, 0.000000000000000000 ) ) ;
#122 = DIRECTION ( 'NONE',  ( -1.226024680912519237E-16, 1.000000000000000000, -0.000000000000000000 ) ) ;
#123 = ORIENTED_EDGE ( 'NONE', *, *, #211, .T. ) ;
#124 = SURFACE_STYLE_USAGE ( .BOTH. , #80 ) ;
#125 = ORIENTED_EDGE ( 'NONE', *, *, #275, .F. ) ;
#126 = ORIENTED_EDGE ( 'NONE', *, *, #188, .T. ) ;
#127 = MECHANICAL_DESIGN_GEOMETRIC_PRESENTATION_REPRESENTATION (  '', ( #319 ), #367 ) ;
#128 = STYLED_ITEM ( 'NONE', ( #254 ), #33 ) ;
#129 = AXIS2_PLACEMENT_3D ( 'NONE', #68, #120, #41 ) ;
#130 = PRODUCT_DEFINITION ( 'UNKNOWN', '', #170, #206 ) ;
#131 = CARTESIAN_POINT ( 'NONE',  ( 0.000000000000000000, 0.000000000000000000, -0.2187499999999999445 ) ) ;
#132 = ORIENTED_EDGE ( 'NONE', *, *, #9, .F. ) ;
#133 = ORIENTED_EDGE ( 'NONE', *, *, #48, .T. ) ;
#134 = FILL_AREA_STYLE ('',( #84 ) ) ;
#135 = LINE ( 'NONE', #339, #145 ) ;
#136 = EDGE_CURVE ( 'NONE', #79, #231, #293, .T. ) ;
#137 = SURFACE_STYLE_FILL_AREA ( #134 ) ;
#138 = STYLED_ITEM ( 'NONE', ( #251 ), #283 ) ;
#139 = DIRECTION ( 'NONE',  ( -0.000000000000000000, -1.000000000000000000, -0.000000000000000000 ) ) ;
#140 = SURFACE_STYLE_USAGE ( .BOTH. , #27 ) ;
#141 =( NAMED_UNIT ( * ) PLANE_ANGLE_UNIT ( ) SI_UNIT ( $, .RADIAN. ) );
#142 = CARTESIAN_POINT ( 'NONE',  ( -2.678914873134835064E-17, 0.2187500000000000000, 0.000000000000000000 ) ) ;
#143 = FACE_OUTER_BOUND ( 'NONE', #159, .T. ) ;
#144 = EDGE_CURVE ( 'NONE', #100, #231, #222, .T. ) ;
#145 = VECTOR ( 'NONE', #288, 39.37007874015748143 ) ;
#146 = PLANE ( 'NONE',  #361 ) ;
#147 = ADVANCED_FACE ( 'NONE', ( #38 ), #177, .F. ) ;
#148 = DIRECTION ( 'NONE',  ( -1.000000000000000000, 0.000000000000000000, 0.000000000000000000 ) ) ;
#149 = CARTESIAN_POINT ( 'NONE',  ( 0.000000000000000000, 0.2187500000000000278, 0.000000000000000000 ) ) ;
#150 = MECHANICAL_DESIGN_GEOMETRIC_PRESENTATION_REPRESENTATION (  '', ( #186 ), #325 ) ;
#151 = SHAPE_DEFINITION_REPRESENTATION ( #204, #208 ) ;
#152 = DIRECTION ( 'NONE',  ( 0.000000000000000000, 0.000000000000000000, 1.000000000000000000 ) ) ;
#153 = EDGE_LOOP ( 'NONE', ( #171, #248 ) ) ;
#154 = DIRECTION ( 'NONE',  ( -1.226024680912519237E-16, 1.000000000000000000, -0.000000000000000000 ) ) ;
#155 = ORIENTED_EDGE ( 'NONE', *, *, #211, .F. ) ;
#156 = ORIENTED_EDGE ( 'NONE', *, *, #136, .T. ) ;
#157 = AXIS2_PLACEMENT_3D ( 'NONE', #264, #355, #87 ) ;
#158 = ORIENTED_EDGE ( 'NONE', *, *, #9, .T. ) ;
#159 = EDGE_LOOP ( 'NONE', ( #310, #158, #155, #125, #19 ) ) ;
#160 =( NAMED_UNIT ( * ) SI_UNIT ( $, .STERADIAN. ) SOLID_ANGLE_UNIT ( ) );
#161 =( NAMED_UNIT ( * ) SI_UNIT ( $, .STERADIAN. ) SOLID_ANGLE_UNIT ( ) );
#162 = AXIS2_PLACEMENT_3D ( 'NONE', #142, #205, #235 ) ;
#163 = ORIENTED_EDGE ( 'NONE', *, *, #164, .F. ) ;
#164 = EDGE_CURVE ( 'NONE', #246, #79, #234, .T. ) ;
#165 = CARTESIAN_POINT ( 'NONE',  ( -0.2187499999999993061, 0.6250000000000000000, 0.000000000000000000 ) ) ;
#166 =( NAMED_UNIT ( * ) PLANE_ANGLE_UNIT ( ) SI_UNIT ( $, .RADIAN. ) );
#167 = FILL_AREA_STYLE_COLOUR ( '', #169 ) ;
#168 = SURFACE_SIDE_STYLE ('',( #56 ) ) ;
#169 = COLOUR_RGB ( '',1.000000000000000000, 0.000000000000000000, 0.000000000000000000 ) ;
#170 = PRODUCT_DEFINITION_FORMATION_WITH_SPECIFIED_SOURCE ( 'ANY', '', #359, .NOT_KNOWN. ) ;
#171 = ORIENTED_EDGE ( 'NONE', *, *, #252, .T. ) ;
#172 =( CONVERSION_BASED_UNIT ( 'INCH', #232 ) LENGTH_UNIT ( ) NAMED_UNIT ( #223 ) );
#173 =( LENGTH_UNIT ( ) NAMED_UNIT ( * ) SI_UNIT ( $, .METRE. ) );
#174 = DIRECTION ( 'NONE',  ( 0.000000000000000000, 1.000000000000000000, 0.000000000000000000 ) ) ;
#175 = APPLICATION_PROTOCOL_DEFINITION ( 'draft international standard', 'automotive_design', 1998, #302 ) ;
#176 = ADVANCED_FACE ( 'NONE', ( #265 ), #180, .T. ) ;
#177 = PLANE ( 'NONE',  #347 ) ;
#178 = DIRECTION ( 'NONE',  ( -1.226024680912519237E-16, 1.000000000000000000, -0.000000000000000000 ) ) ;
#179 = STYLED_ITEM ( 'NONE', ( #31 ), #322 ) ;
#180 = SPHERICAL_SURFACE ( 'NONE', #262, 0.2187500000000000000 ) ;
#181 = CIRCLE ( 'NONE', #227, 0.2187499999999999167 ) ;
#182 = EDGE_LOOP ( 'NONE', ( #329, #50 ) ) ;
#183 = DIRECTION ( 'NONE',  ( -0.000000000000000000, -1.000000000000000000, -0.000000000000000000 ) ) ;
#184 = EDGE_CURVE ( 'NONE', #221, #308, #29, .T. ) ;
#185 = ORIENTED_EDGE ( 'NONE', *, *, #188, .F. ) ;
#186 = STYLED_ITEM ( 'NONE', ( #117 ), #176 ) ;
#187 = DIMENSIONAL_EXPONENTS ( 1.000000000000000000, 0.000000000000000000, 0.000000000000000000, 0.000000000000000000, 0.000000000000000000, 0.000000000000000000, 0.000000000000000000 ) ;
#188 = EDGE_CURVE ( 'NONE', #16, #365, #96, .T. ) ;
#189 = ORIENTED_EDGE ( 'NONE', *, *, #136, .F. ) ;
#190 = DIRECTION ( 'NONE',  ( -0.000000000000000000, -1.000000000000000000, -0.000000000000000000 ) ) ;
#191 =( NAMED_UNIT ( * ) PLANE_ANGLE_UNIT ( ) SI_UNIT ( $, .RADIAN. ) );
#192 = CARTESIAN_POINT ( 'NONE',  ( -1.339457436567417532E-17, 0.000000000000000000, 0.000000000000000000 ) ) ;
#193 = SPHERICAL_SURFACE ( 'NONE', #212, 0.2187500000000000000 ) ;
#194 = PRESENTATION_LAYER_ASSIGNMENT (  '', '', ( #186 ) ) ;
#195 = SURFACE_STYLE_USAGE ( .BOTH. , #215 ) ;
#196 = PLANE ( 'NONE',  #118 ) ;
#197 = DIRECTION ( 'NONE',  ( 0.000000000000000000, 0.000000000000000000, -1.000000000000000000 ) ) ;
#198 = SURFACE_STYLE_USAGE ( .BOTH. , #253 ) ;
#199 = FACE_OUTER_BOUND ( 'NONE', #49, .T. ) ;
#200 = COLOUR_RGB ( '',0.7921568627450980005, 0.8196078431372548767, 0.9333333333333333481 ) ;
#201 = FACE_OUTER_BOUND ( 'NONE', #216, .T. ) ;
#202 = VECTOR ( 'NONE', #341, 39.37007874015748143 ) ;
#203 = COLOUR_RGB ( '',1.000000000000000000, 0.000000000000000000, 0.000000000000000000 ) ;
#204 = PRODUCT_DEFINITION_SHAPE ( 'NONE', 'NONE',  #130 ) ;
#205 = DIRECTION ( 'NONE',  ( 0.000000000000000000, 0.000000000000000000, -1.000000000000000000 ) ) ;
#206 = PRODUCT_DEFINITION_CONTEXT ( 'detailed design', #302, 'design' ) ;
#207 =( LENGTH_UNIT ( ) NAMED_UNIT ( * ) SI_UNIT ( $, .METRE. ) );
#208 = ADVANCED_BREP_SHAPE_REPRESENTATION ( '56407', ( #290, #283, #129 ), #287 ) ;
#209 = PRESENTATION_STYLE_ASSIGNMENT (( #263 ) ) ;
#210 = LINE ( 'NONE', #324, #78 ) ;
#211 = EDGE_CURVE ( 'NONE', #100, #246, #372, .T. ) ;
#212 = AXIS2_PLACEMENT_3D ( 'NONE', #342, #312, #55 ) ;
#213 = FILL_AREA_STYLE_COLOUR ( '', #334 ) ;
#214 = CARTESIAN_POINT ( 'NONE',  ( 2.911464146725942389E-16, 0.6250000000000000000, 0.000000000000000000 ) ) ;
#215 = SURFACE_SIDE_STYLE ('',( #95 ) ) ;
#216 = EDGE_LOOP ( 'NONE', ( #132, #370, #72, #220, #163 ) ) ;
#217 =( LENGTH_UNIT ( ) NAMED_UNIT ( * ) SI_UNIT ( $, .METRE. ) );
#218 = AXIS2_PLACEMENT_3D ( 'NONE', #284, #88, #256 ) ;
#219 = MECHANICAL_DESIGN_GEOMETRIC_PRESENTATION_REPRESENTATION (  '', ( #128 ), #18 ) ;
#220 = ORIENTED_EDGE ( 'NONE', *, *, #48, .F. ) ;
#221 = VERTEX_POINT ( 'NONE', #75 ) ;
#222 = CIRCLE ( 'NONE', #162, 0.2187500000000000000 ) ;
#223 = DIMENSIONAL_EXPONENTS ( 1.000000000000000000, 0.000000000000000000, 0.000000000000000000, 0.000000000000000000, 0.000000000000000000, 0.000000000000000000, 0.000000000000000000 ) ;
#224 = CARTESIAN_POINT ( 'NONE',  ( 3.061616997868392262E-17, 2.750000000000000000, 0.000000000000000000 ) ) ;
#225 = FILL_AREA_STYLE ('',( #241 ) ) ;
#226 =( CONVERSION_BASED_UNIT ( 'INCH', #102 ) LENGTH_UNIT ( ) NAMED_UNIT ( #187 ) );
#227 = AXIS2_PLACEMENT_3D ( 'NONE', #285, #139, #353 ) ;
#228 =( LENGTH_UNIT ( ) NAMED_UNIT ( * ) SI_UNIT ( $, .METRE. ) );
#229 = DIRECTION ( 'NONE',  ( 1.226024680912519237E-16, -1.000000000000000000, 0.000000000000000000 ) ) ;
#230 = DIRECTION ( 'NONE',  ( -1.000000000000000000, 0.000000000000000000, 0.000000000000000000 ) ) ;
#231 = VERTEX_POINT ( 'NONE', #192 ) ;
#232 = LENGTH_MEASURE_WITH_UNIT ( LENGTH_MEASURE( 0.02539999999999999897 ), #228 );
#233 = PRESENTATION_LAYER_ASSIGNMENT (  '', '', ( #319 ) ) ;
#234 = CIRCLE ( 'NONE', #157, 0.2187499999999999445 ) ;
#235 = DIRECTION ( 'NONE',  ( -1.000000000000000000, 0.000000000000000000, 0.000000000000000000 ) ) ;
#236 = FACE_OUTER_BOUND ( 'NONE', #182, .T. ) ;
#237 = DIRECTION ( 'NONE',  ( 1.000000000000000000, 0.000000000000000000, -1.224646799147353207E-16 ) ) ;
#238 = VECTOR ( 'NONE', #311, 39.37007874015748143 ) ;
#239 =( GEOMETRIC_REPRESENTATION_CONTEXT ( 3 ) GLOBAL_UNCERTAINTY_ASSIGNED_CONTEXT ( ( #45 ) ) GLOBAL_UNIT_ASSIGNED_CONTEXT ( ( #172, #141, #292 ) ) REPRESENTATION_CONTEXT ( 'NONE', 'WORKASPACE' ) );
#240 = UNCERTAINTY_MEASURE_WITH_UNIT (LENGTH_MEASURE( 1.000000000000000082E-05 ), #60, 'distance_accuracy_value', 'NONE');
#241 = FILL_AREA_STYLE_COLOUR ( '', #200 ) ;
#242 = FILL_AREA_STYLE_COLOUR ( '', #313 ) ;
#243 = ORIENTED_EDGE ( 'NONE', *, *, #338, .T. ) ;
#244 = CARTESIAN_POINT ( 'NONE',  ( 3.061616997868392262E-17, 2.750000000000000000, 0.000000000000000000 ) ) ;
#245 = MECHANICAL_DESIGN_GEOMETRIC_PRESENTATION_REPRESENTATION (  '', ( #138 ), #70 ) ;
#246 = VERTEX_POINT ( 'NONE', #43 ) ;
#247 = EDGE_LOOP ( 'NONE', ( #98, #243, #126, #77 ) ) ;
#248 = ORIENTED_EDGE ( 'NONE', *, *, #304, .T. ) ;
#249 = DIMENSIONAL_EXPONENTS ( 1.000000000000000000, 0.000000000000000000, 0.000000000000000000, 0.000000000000000000, 0.000000000000000000, 0.000000000000000000, 0.000000000000000000 ) ;
#250 = CLOSED_SHELL ( 'NONE', ( #14, #147, #343, #37 ) ) ;
#251 = PRESENTATION_STYLE_ASSIGNMENT (( #124 ) ) ;
#252 = EDGE_CURVE ( 'NONE', #365, #272, #97, .T. ) ;
#253 = SURFACE_SIDE_STYLE ('',( #137 ) ) ;
#254 = PRESENTATION_STYLE_ASSIGNMENT (( #140 ) ) ;
#255 = CIRCLE ( 'NONE', #373, 0.2187499999999996114 ) ;
#256 = DIRECTION ( 'NONE',  ( 0.000000000000000000, 0.000000000000000000, -1.000000000000000000 ) ) ;
#257 = ORIENTED_EDGE ( 'NONE', *, *, #252, .F. ) ;
#258 = EDGE_CURVE ( 'NONE', #16, #276, #255, .T. ) ;
#259 = SURFACE_STYLE_USAGE ( .BOTH. , #94 ) ;
#260 = UNCERTAINTY_MEASURE_WITH_UNIT (LENGTH_MEASURE( 1.000000000000000082E-05 ), #104, 'distance_accuracy_value', 'NONE');
#261 = CYLINDRICAL_SURFACE ( 'NONE', #218, 0.2187499999999999445 ) ;
#262 = AXIS2_PLACEMENT_3D ( 'NONE', #280, #152, #299 ) ;
#263 = SURFACE_STYLE_USAGE ( .BOTH. , #39 ) ;
#264 = CARTESIAN_POINT ( 'NONE',  ( 0.000000000000000000, 0.2187500000000000278, 0.000000000000000000 ) ) ;
#265 = FACE_OUTER_BOUND ( 'NONE', #21, .T. ) ;
#266 = CIRCLE ( 'NONE', #119, 0.2187499999999996114 ) ;
#267 =( CONVERSION_BASED_UNIT ( 'INCH', #64 ) LENGTH_UNIT ( ) NAMED_UNIT ( #249 ) );
#268 = CIRCLE ( 'NONE', #279, 0.2187499999999999445 ) ;
#269 = PRESENTATION_STYLE_ASSIGNMENT (( #195 ) ) ;
#270 = EDGE_CURVE ( 'NONE', #221, #366, #22, .T. ) ;
#271 = DIRECTION ( 'NONE',  ( -0.000000000000000000, -1.000000000000000000, -0.000000000000000000 ) ) ;
#272 = VERTEX_POINT ( 'NONE', #69 ) ;
#273 = UNCERTAINTY_MEASURE_WITH_UNIT (LENGTH_MEASURE( 1.000000000000000082E-05 ), #267, 'distance_accuracy_value', 'NONE');
#274 = MECHANICAL_DESIGN_GEOMETRIC_PRESENTATION_REPRESENTATION (  '', ( #92 ), #81 ) ;
#275 = EDGE_CURVE ( 'NONE', #366, #100, #306, .T. ) ;
#276 = VERTEX_POINT ( 'NONE', #303 ) ;
#277 = DIRECTION ( 'NONE',  ( 0.000000000000000000, 0.000000000000000000, -1.000000000000000000 ) ) ;
#278 = FACE_OUTER_BOUND ( 'NONE', #153, .T. ) ;
#279 = AXIS2_PLACEMENT_3D ( 'NONE', #345, #83, #197 ) ;
#280 = CARTESIAN_POINT ( 'NONE',  ( -2.678914873134835064E-17, 0.2187500000000000000, 0.000000000000000000 ) ) ;
#281 = ORIENTED_EDGE ( 'NONE', *, *, #338, .F. ) ;
#282 = LENGTH_MEASURE_WITH_UNIT ( LENGTH_MEASURE( 0.02539999999999999897 ), #2 );
#283 = MANIFOLD_SOLID_BREP ( 'Revolve - Tool Body (Straight Shanked)', #250 ) ;
#284 = CARTESIAN_POINT ( 'NONE',  ( 0.000000000000000000, 0.000000000000000000, 0.000000000000000000 ) ) ;
#285 = CARTESIAN_POINT ( 'NONE',  ( 0.000000000000000000, 0.6250000000000000000, 0.000000000000000000 ) ) ;
#286 = AXIS2_PLACEMENT_3D ( 'NONE', #346, #105, #32 ) ;
#287 =( GEOMETRIC_REPRESENTATION_CONTEXT ( 3 ) GLOBAL_UNCERTAINTY_ASSIGNED_CONTEXT ( ( #273 ) ) GLOBAL_UNIT_ASSIGNED_CONTEXT ( ( #267, #93, #356 ) ) REPRESENTATION_CONTEXT ( 'NONE', 'WORKASPACE' ) );
#288 = DIRECTION ( 'NONE',  ( -0.000000000000000000, -1.000000000000000000, -0.000000000000000000 ) ) ;
#289 = SURFACE_STYLE_FILL_AREA ( #61 ) ;
#290 = MANIFOLD_SOLID_BREP ( 'Revolve - Cutting Edge', #5 ) ;
#291 = DIRECTION ( 'NONE',  ( -1.000000000000000000, -1.226024680912519237E-16, 0.000000000000000000 ) ) ;
#292 =( NAMED_UNIT ( * ) SI_UNIT ( $, .STERADIAN. ) SOLID_ANGLE_UNIT ( ) );
#293 = CIRCLE ( 'NONE', #107, 0.2187500000000000000 ) ;
#294 = DIRECTION ( 'NONE',  ( 1.224646799147353207E-16, -0.000000000000000000, 1.000000000000000000 ) ) ;
#295 = SURFACE_STYLE_FILL_AREA ( #10 ) ;
#296 = CARTESIAN_POINT ( 'NONE',  ( -0.2187499999999998612, 2.750000000000000000, 0.000000000000000000 ) ) ;
#297 =( CONVERSION_BASED_UNIT ( 'INCH', #59 ) LENGTH_UNIT ( ) NAMED_UNIT ( #336 ) );
#298 = AXIS2_PLACEMENT_3D ( 'NONE', #13, #154, #358 ) ;
#299 = DIRECTION ( 'NONE',  ( 1.000000000000000000, 0.000000000000000000, 0.000000000000000000 ) ) ;
#300 = EDGE_LOOP ( 'NONE', ( #20, #281 ) ) ;
#301 = UNCERTAINTY_MEASURE_WITH_UNIT (LENGTH_MEASURE( 1.000000000000000082E-05 ), #297, 'distance_accuracy_value', 'NONE');
#302 = APPLICATION_CONTEXT ( 'automotive_design' ) ;
#303 = CARTESIAN_POINT ( 'NONE',  ( 0.2187499999999998890, 0.6250000000000000000, 2.678914873134832907E-17 ) ) ;
#304 = EDGE_CURVE ( 'NONE', #272, #365, #101, .T. ) ;
#305 = ORIENTED_EDGE ( 'NONE', *, *, #258, .T. ) ;
#306 = CIRCLE ( 'NONE', #73, 0.2187499999999999445 ) ;
#307 = AXIS2_PLACEMENT_3D ( 'NONE', #36, #113, #354 ) ;
#308 = VERTEX_POINT ( 'NONE', #82 ) ;
#309 = SURFACE_STYLE_FILL_AREA ( #44 ) ;
#310 = ORIENTED_EDGE ( 'NONE', *, *, #184, .T. ) ;
#311 = DIRECTION ( 'NONE',  ( -0.000000000000000000, -1.000000000000000000, -0.000000000000000000 ) ) ;
#312 = DIRECTION ( 'NONE',  ( 0.000000000000000000, 0.000000000000000000, 1.000000000000000000 ) ) ;
#313 = COLOUR_RGB ( '',0.7921568627450980005, 0.8196078431372548767, 0.9333333333333333481 ) ;
#314 = CARTESIAN_POINT ( 'NONE',  ( -0.2187499999999997224, 2.750000000000000000, 0.000000000000000000 ) ) ;
#315 = CARTESIAN_POINT ( 'NONE',  ( 0.2187499999999999167, 2.750000000000000000, 0.000000000000000000 ) ) ;
#316 = ADVANCED_FACE ( 'NONE', ( #143 ), #261, .T. ) ;
#317 = DIRECTION ( 'NONE',  ( 1.000000000000000000, 1.226024680912519237E-16, 0.000000000000000000 ) ) ;
#318 = FILL_AREA_STYLE_COLOUR ( '', #3 ) ;
#319 = STYLED_ITEM ( 'NONE', ( #269 ), #290 ) ;
#320 =( CONVERSION_BASED_UNIT ( 'INCH', #344 ) LENGTH_UNIT ( ) NAMED_UNIT ( #17 ) );
#321 = PRESENTATION_STYLE_ASSIGNMENT (( #86 ) ) ;
#322 = ADVANCED_FACE ( 'NONE', ( #201 ), #28, .T. ) ;
#323 = DIRECTION ( 'NONE',  ( -1.226024680912519237E-16, 1.000000000000000000, -0.000000000000000000 ) ) ;
#324 = CARTESIAN_POINT ( 'NONE',  ( 0.2187499999999997780, 2.750000000000000000, 2.678914873134831982E-17 ) ) ;
#325 =( GEOMETRIC_REPRESENTATION_CONTEXT ( 3 ) GLOBAL_UNCERTAINTY_ASSIGNED_CONTEXT ( ( #301 ) ) GLOBAL_UNIT_ASSIGNED_CONTEXT ( ( #297, #350, #160 ) ) REPRESENTATION_CONTEXT ( 'NONE', 'WORKASPACE' ) );
#326 =( NAMED_UNIT ( * ) PLANE_ANGLE_UNIT ( ) SI_UNIT ( $, .RADIAN. ) );
#327 =( LENGTH_UNIT ( ) NAMED_UNIT ( * ) SI_UNIT ( $, .METRE. ) );
#328 = CARTESIAN_POINT ( 'NONE',  ( 2.911464146725942389E-16, 0.6250000000000000000, 0.000000000000000000 ) ) ;
#329 = ORIENTED_EDGE ( 'NONE', *, *, #184, .F. ) ;
#330 = FACE_OUTER_BOUND ( 'NONE', #247, .T. ) ;
#331 = DIRECTION ( 'NONE',  ( 0.000000000000000000, 0.000000000000000000, -1.000000000000000000 ) ) ;
#332 = ORIENTED_EDGE ( 'NONE', *, *, #144, .F. ) ;
#333 = MECHANICAL_DESIGN_GEOMETRIC_PRESENTATION_REPRESENTATION (  '', ( #42 ), #30 ) ;
#334 = COLOUR_RGB ( '',1.000000000000000000, 0.000000000000000000, 0.000000000000000000 ) ;
#335 = AXIS2_PLACEMENT_3D ( 'NONE', #244, #357, #148 ) ;
#336 = DIMENSIONAL_EXPONENTS ( 1.000000000000000000, 0.000000000000000000, 0.000000000000000000, 0.000000000000000000, 0.000000000000000000, 0.000000000000000000, 0.000000000000000000 ) ;
#337 =( NAMED_UNIT ( * ) SI_UNIT ( $, .STERADIAN. ) SOLID_ANGLE_UNIT ( ) );
#338 = EDGE_CURVE ( 'NONE', #276, #16, #266, .T. ) ;
#339 = CARTESIAN_POINT ( 'NONE',  ( 2.678914873134834756E-17, 0.000000000000000000, 0.2187499999999999445 ) ) ;
#340 = LENGTH_MEASURE_WITH_UNIT ( LENGTH_MEASURE( 0.02539999999999999897 ), #360 );
#341 = DIRECTION ( 'NONE',  ( -1.226024680912519237E-16, 1.000000000000000000, -0.000000000000000000 ) ) ;
#342 = CARTESIAN_POINT ( 'NONE',  ( -2.678914873134835064E-17, 0.2187500000000000000, 0.000000000000000000 ) ) ;
#343 = ADVANCED_FACE ( 'NONE', ( #330 ), #90, .T. ) ;
#344 = LENGTH_MEASURE_WITH_UNIT ( LENGTH_MEASURE( 0.02539999999999999897 ), #207 );
#345 = CARTESIAN_POINT ( 'NONE',  ( 0.000000000000000000, 0.2187500000000000278, 0.000000000000000000 ) ) ;
#346 = CARTESIAN_POINT ( 'NONE',  ( 3.061616997868392262E-17, 2.750000000000000000, 0.000000000000000000 ) ) ;
#347 = AXIS2_PLACEMENT_3D ( 'NONE', #67, #65, #291 ) ;
#348 = MECHANICAL_DESIGN_GEOMETRIC_PRESENTATION_REPRESENTATION (  '', ( #179 ), #239 ) ;
#349 = FILL_AREA_STYLE ('',( #318 ) ) ;
#350 =( NAMED_UNIT ( * ) PLANE_ANGLE_UNIT ( ) SI_UNIT ( $, .RADIAN. ) );
#351 = EDGE_CURVE ( 'NONE', #276, #272, #210, .T. ) ;
#352 =( NAMED_UNIT ( * ) SI_UNIT ( $, .STERADIAN. ) SOLID_ANGLE_UNIT ( ) );
#353 = DIRECTION ( 'NONE',  ( 0.000000000000000000, 0.000000000000000000, -1.000000000000000000 ) ) ;
#354 = DIRECTION ( 'NONE',  ( 0.000000000000000000, 0.000000000000000000, -1.000000000000000000 ) ) ;
#355 = DIRECTION ( 'NONE',  ( -0.000000000000000000, -1.000000000000000000, -0.000000000000000000 ) ) ;
#356 =( NAMED_UNIT ( * ) SI_UNIT ( $, .STERADIAN. ) SOLID_ANGLE_UNIT ( ) );
#357 = DIRECTION ( 'NONE',  ( -1.226024680912519237E-16, 1.000000000000000000, -0.000000000000000000 ) ) ;
#358 = DIRECTION ( 'NONE',  ( -1.000000000000000000, 0.000000000000000000, 0.000000000000000000 ) ) ;
#359 = PRODUCT ( '56407', '56407', '', ( #7 ) ) ;
#360 =( LENGTH_UNIT ( ) NAMED_UNIT ( * ) SI_UNIT ( $, .METRE. ) );
#361 = AXIS2_PLACEMENT_3D ( 'NONE', #112, #174, #34 ) ;
#362 =( NAMED_UNIT ( * ) PLANE_ANGLE_UNIT ( ) SI_UNIT ( $, .RADIAN. ) );
#363 = ORIENTED_EDGE ( 'NONE', *, *, #351, .T. ) ;
#364 = DIMENSIONAL_EXPONENTS ( 1.000000000000000000, 0.000000000000000000, 0.000000000000000000, 0.000000000000000000, 0.000000000000000000, 0.000000000000000000, 0.000000000000000000 ) ;
#365 = VERTEX_POINT ( 'NONE', #296 ) ;
#366 = VERTEX_POINT ( 'NONE', #66 ) ;
#367 =( GEOMETRIC_REPRESENTATION_CONTEXT ( 3 ) GLOBAL_UNCERTAINTY_ASSIGNED_CONTEXT ( ( #115 ) ) GLOBAL_UNIT_ASSIGNED_CONTEXT ( ( #320, #109, #352 ) ) REPRESENTATION_CONTEXT ( 'NONE', 'WORKASPACE' ) );
#368 = AXIS2_PLACEMENT_3D ( 'NONE', #91, #190, #331 ) ;
#369 = PRESENTATION_LAYER_ASSIGNMENT (  '', '', ( #42 ) ) ;
#370 = ORIENTED_EDGE ( 'NONE', *, *, #76, .T. ) ;
#371 =( LENGTH_UNIT ( ) NAMED_UNIT ( * ) SI_UNIT ( $, .METRE. ) );
#372 = CIRCLE ( 'NONE', #47, 0.2187499999999999445 ) ;
#373 = AXIS2_PLACEMENT_3D ( 'NONE', #328, #122, #15 ) ;
ENDSEC;
END-ISO-10303-21;
