ISO-10303-21;
HEADER;
FILE_DESCRIPTION (( 'STEP AP214' ),
    '1' );
FILE_NAME ('Micro_DMM-030-290X.STEP',
    '2021-09-02T16:14:38',
    ( '' ),
    ( '' ),
    'SwSTEP 2.0',
    'SolidWorks 2020',
    '' );
FILE_SCHEMA (( 'AUTOMOTIVE_DESIGN' ));
ENDSEC;

DATA;
#1 = EDGE_CURVE ( 'NONE', #325, #41, #259, .T. ) ;
#2 = DIRECTION ( 'NONE',  ( -0.7071067811865536790, 0.0000000000000000000, -0.7071067811865412445 ) ) ;
#3 = VECTOR ( 'NONE', #283, 39.37007874015748854 ) ;
#4 = CIRCLE ( 'NONE', #25, 0.007499999999999999722 ) ;
#5 = ORIENTED_EDGE ( 'NONE', *, *, #229, .T. ) ;
#6 = DIRECTION ( 'NONE',  ( -0.0000000000000000000, -0.0000000000000000000, -1.000000000000000000 ) ) ;
#7 = CYLINDRICAL_SURFACE ( 'NONE', #144, 0.05905499999999998251 ) ;
#8 =( LENGTH_UNIT ( ) NAMED_UNIT ( * ) SI_UNIT ( $, .METRE. ) );
#9 = LINE ( 'NONE', #165, #150 ) ;
#10 = CARTESIAN_POINT ( 'NONE',  ( 0.0000000000000000000, 0.0000000000000000000, 1.496062999999999921 ) ) ;
#11 = AXIS2_PLACEMENT_3D ( 'NONE', #139, #95, #93 ) ;
#12 = PRESENTATION_STYLE_ASSIGNMENT (( #203 ) ) ;
#13 =( LENGTH_UNIT ( ) NAMED_UNIT ( * ) SI_UNIT ( $, .METRE. ) );
#14 = ORIENTED_EDGE ( 'NONE', *, *, #30, .T. ) ;
#15 = EDGE_CURVE ( 'NONE', #172, #319, #43, .T. ) ;
#16 = VECTOR ( 'NONE', #266, 39.37007874015748143 ) ;
#17 = CARTESIAN_POINT ( 'NONE',  ( 0.0000000000000000000, 0.0000000000000000000, 0.0000000000000000000 ) ) ;
#18 = ORIENTED_EDGE ( 'NONE', *, *, #30, .F. ) ;
#19 =( CONVERSION_BASED_UNIT ( 'INCH', #296 ) LENGTH_UNIT ( ) NAMED_UNIT ( #134 ) );
#20 = UNCERTAINTY_MEASURE_WITH_UNIT (LENGTH_MEASURE( 1.000000000000000082E-05 ), #317, 'distance_accuracy_value', 'NONE');
#21 = ORIENTED_EDGE ( 'NONE', *, *, #189, .F. ) ;
#22 = FACE_OUTER_BOUND ( 'NONE', #209, .T. ) ;
#23 = ORIENTED_EDGE ( 'NONE', *, *, #288, .T. ) ;
#24 = AXIS2_PLACEMENT_3D ( 'NONE', #75, #151, #251 ) ;
#25 = AXIS2_PLACEMENT_3D ( 'NONE', #187, #301, #37 ) ;
#26 = PRODUCT_DEFINITION ( 'UNKNOWN', '', #46, #177 ) ;
#27 = CARTESIAN_POINT ( 'NONE',  ( 0.05900500000000007822, 7.226028438368966682E-18, 0.3149610000000000465 ) ) ;
#28 = CARTESIAN_POINT ( 'NONE',  ( 0.007499999999999999722, 0.0000000000000000000, 1.707404996040164512E-17 ) ) ;
#29 = ORIENTED_EDGE ( 'NONE', *, *, #224, .F. ) ;
#30 = EDGE_CURVE ( 'NONE', #70, #41, #105, .T. ) ;
#31 = AXIS2_PLACEMENT_3D ( 'NONE', #145, #34, #89 ) ;
#32 = ORIENTED_EDGE ( 'NONE', *, *, #168, .F. ) ;
#33 = CARTESIAN_POINT ( 'NONE',  ( -0.04405500000000001082, 0.0000000000000000000, 1.496062999999999921 ) ) ;
#34 = DIRECTION ( 'NONE',  ( -0.0000000000000000000, -0.0000000000000000000, -1.000000000000000000 ) ) ;
#35 = DIRECTION ( 'NONE',  ( -0.0000000000000000000, -0.0000000000000000000, -1.000000000000000000 ) ) ;
#36 = CARTESIAN_POINT ( 'NONE',  ( 0.0000000000000000000, 0.0000000000000000000, 1.496062999999999921 ) ) ;
#37 = DIRECTION ( 'NONE',  ( -1.000000000000000000, 0.0000000000000000000, 0.0000000000000000000 ) ) ;
#38 = DIRECTION ( 'NONE',  ( 1.000000000000000000, 0.0000000000000000000, 0.0000000000000000000 ) ) ;
#39 = SURFACE_STYLE_USAGE ( .BOTH. , #286 ) ;
#40 = EDGE_LOOP ( 'NONE', ( #123, #323, #269, #318 ) ) ;
#41 = VERTEX_POINT ( 'NONE', #277 ) ;
#42 = CARTESIAN_POINT ( 'NONE',  ( 0.0000000000000000000, 0.0000000000000000000, 1.481063000000000240 ) ) ;
#43 = CIRCLE ( 'NONE', #88, 0.04405500000000001082 ) ;
#44 = CIRCLE ( 'NONE', #11, 0.05905499999999998251 ) ;
#45 = DIRECTION ( 'NONE',  ( -1.000000000000000000, 0.0000000000000000000, 0.0000000000000000000 ) ) ;
#46 = PRODUCT_DEFINITION_FORMATION_WITH_SPECIFIED_SOURCE ( 'ANY', '', #100, .NOT_KNOWN. ) ;
#47 = DIRECTION ( 'NONE',  ( -1.000000000000000000, 0.0000000000000000000, 0.0000000000000000000 ) ) ;
#48 = ORIENTED_EDGE ( 'NONE', *, *, #15, .F. ) ;
#49 = CONICAL_SURFACE ( 'NONE', #195, 0.04405500000000001082, 0.7853981633974570498 ) ;
#50 = AXIS2_PLACEMENT_3D ( 'NONE', #178, #234, #52 ) ;
#51 = FACE_OUTER_BOUND ( 'NONE', #186, .T. ) ;
#52 = DIRECTION ( 'NONE',  ( -1.000000000000000000, 0.0000000000000000000, 0.0000000000000000000 ) ) ;
#53 = EDGE_CURVE ( 'NONE', #319, #172, #299, .T. ) ;
#54 = CARTESIAN_POINT ( 'NONE',  ( -0.007499999999999999722, 4.072256768864737466E-18, 1.707404996040164512E-17 ) ) ;
#55 = ORIENTED_EDGE ( 'NONE', *, *, #133, .F. ) ;
#56 = LINE ( 'NONE', #210, #279 ) ;
#57 = ORIENTED_EDGE ( 'NONE', *, *, #252, .F. ) ;
#58 =( GEOMETRIC_REPRESENTATION_CONTEXT ( 3 ) GLOBAL_UNCERTAINTY_ASSIGNED_CONTEXT ( ( #174 ) ) GLOBAL_UNIT_ASSIGNED_CONTEXT ( ( #267, #241, #212 ) ) REPRESENTATION_CONTEXT ( 'NONE', 'WORKASPACE' ) );
#59 = ORIENTED_EDGE ( 'NONE', *, *, #53, .T. ) ;
#60 = CARTESIAN_POINT ( 'NONE',  ( 0.0000000000000000000, 0.0000000000000000000, 0.0000000000000000000 ) ) ;
#61 = CARTESIAN_POINT ( 'NONE',  ( 0.0000000000000000000, 0.0000000000000000000, 0.05150499999999980788 ) ) ;
#62 = PLANE ( 'NONE',  #90 ) ;
#63 = ADVANCED_FACE ( 'NONE', ( #228 ), #200, .T. ) ;
#64 = ORIENTED_EDGE ( 'NONE', *, *, #15, .T. ) ;
#65 = CARTESIAN_POINT ( 'NONE',  ( 0.04405500000000001082, 6.313666573004179469E-18, 1.496062999999999921 ) ) ;
#66 = ADVANCED_FACE ( 'NONE', ( #148 ), #160, .T. ) ;
#67 = PLANE ( 'NONE',  #191 ) ;
#68 = LINE ( 'NONE', #268, #245 ) ;
#69 = CARTESIAN_POINT ( 'NONE',  ( 0.05905499999999998251, 7.232151672364692341E-18, 1.481063000000000240 ) ) ;
#70 = VERTEX_POINT ( 'NONE', #27 ) ;
#71 = PRESENTATION_LAYER_ASSIGNMENT (  '', '', ( #289 ) ) ;
#72 = EDGE_CURVE ( 'NONE', #172, #284, #152, .T. ) ;
#73 = SHAPE_DEFINITION_REPRESENTATION ( #216, #249 ) ;
#74 = ORIENTED_EDGE ( 'NONE', *, *, #72, .F. ) ;
#75 = CARTESIAN_POINT ( 'NONE',  ( 0.0000000000000000000, 0.0000000000000000000, 1.707404996040164512E-17 ) ) ;
#76 = AXIS2_PLACEMENT_3D ( 'NONE', #308, #193, #45 ) ;
#77 = ORIENTED_EDGE ( 'NONE', *, *, #168, .T. ) ;
#78 = FACE_OUTER_BOUND ( 'NONE', #207, .T. ) ;
#79 = DIRECTION ( 'NONE',  ( 1.000000000000000000, 0.0000000000000000000, 0.0000000000000000000 ) ) ;
#80 = DIRECTION ( 'NONE',  ( -0.0000000000000000000, -0.0000000000000000000, -1.000000000000000000 ) ) ;
#81 =( NAMED_UNIT ( * ) PLANE_ANGLE_UNIT ( ) SI_UNIT ( $, .RADIAN. ) );
#82 = LINE ( 'NONE', #322, #226 ) ;
#83 = DIRECTION ( 'NONE',  ( -1.000000000000000000, 0.0000000000000000000, 0.0000000000000000000 ) ) ;
#84 = DIRECTION ( 'NONE',  ( 0.0000000000000000000, 0.0000000000000000000, -1.000000000000000000 ) ) ;
#85 = ORIENTED_EDGE ( 'NONE', *, *, #293, .F. ) ;
#86 = CARTESIAN_POINT ( 'NONE',  ( -0.05905499999999998251, 0.0000000000000000000, 1.481063000000000240 ) ) ;
#87 = ADVANCED_FACE ( 'NONE', ( #250 ), #154, .T. ) ;
#88 = AXIS2_PLACEMENT_3D ( 'NONE', #255, #198, #233 ) ;
#89 = DIRECTION ( 'NONE',  ( -1.000000000000000000, 0.0000000000000000000, 0.0000000000000000000 ) ) ;
#90 = AXIS2_PLACEMENT_3D ( 'NONE', #225, #146, #102 ) ;
#91 = CYLINDRICAL_SURFACE ( 'NONE', #236, 0.05905499999999998251 ) ;
#92 =( LENGTH_UNIT ( ) NAMED_UNIT ( * ) SI_UNIT ( $, .METRE. ) );
#93 = DIRECTION ( 'NONE',  ( -1.000000000000000000, 0.0000000000000000000, 0.0000000000000000000 ) ) ;
#94 = FACE_BOUND ( 'NONE', #291, .T. ) ;
#95 = DIRECTION ( 'NONE',  ( -0.0000000000000000000, -0.0000000000000000000, -1.000000000000000000 ) ) ;
#96 = EDGE_LOOP ( 'NONE', ( #59, #64 ) ) ;
#97 = VERTEX_POINT ( 'NONE', #281 ) ;
#98 = APPLICATION_PROTOCOL_DEFINITION ( 'draft international standard', 'automotive_design', 1998, #169 ) ;
#99 = DIRECTION ( 'NONE',  ( -1.000000000000000000, 0.0000000000000000000, 0.0000000000000000000 ) ) ;
#100 = PRODUCT ( 'Micro_DMM-030-290X', 'Micro_DMM-030-290X', '', ( #307 ) ) ;
#101 = CIRCLE ( 'NONE', #220, 0.007499999999999999722 ) ;
#102 = DIRECTION ( 'NONE',  ( 1.000000000000000000, 0.0000000000000000000, -0.0000000000000000000 ) ) ;
#103 = ADVANCED_FACE ( 'NONE', ( #22 ), #49, .T. ) ;
#104 = DIRECTION ( 'NONE',  ( -0.0000000000000000000, -0.0000000000000000000, -1.000000000000000000 ) ) ;
#105 = LINE ( 'NONE', #199, #274 ) ;
#106 = DIRECTION ( 'NONE',  ( 0.0000000000000000000, 0.0000000000000000000, -1.000000000000000000 ) ) ;
#107 = PRESENTATION_LAYER_ASSIGNMENT (  '', '', ( #170 ) ) ;
#108 = ORIENTED_EDGE ( 'NONE', *, *, #293, .T. ) ;
#109 = DIRECTION ( 'NONE',  ( -0.0000000000000000000, -0.0000000000000000000, -1.000000000000000000 ) ) ;
#110 = CARTESIAN_POINT ( 'NONE',  ( 0.0000000000000000000, 0.0000000000000000000, 0.3149610000000000465 ) ) ;
#111 = AXIS2_PLACEMENT_3D ( 'NONE', #158, #138, #240 ) ;
#112 = DIMENSIONAL_EXPONENTS ( 1.000000000000000000, 0.0000000000000000000, 0.0000000000000000000, 0.0000000000000000000, 0.0000000000000000000, 0.0000000000000000000, 0.0000000000000000000 ) ;
#113 = VERTEX_POINT ( 'NONE', #153 ) ;
#114 = SURFACE_SIDE_STYLE ('',( #143 ) ) ;
#115 = PRESENTATION_STYLE_ASSIGNMENT (( #39 ) ) ;
#116 = DIRECTION ( 'NONE',  ( -0.0000000000000000000, 0.0000000000000000000, -1.000000000000000000 ) ) ;
#117 = EDGE_CURVE ( 'NONE', #97, #41, #242, .T. ) ;
#118 = ORIENTED_EDGE ( 'NONE', *, *, #72, .T. ) ;
#119 = DIRECTION ( 'NONE',  ( 1.000000000000000000, 0.0000000000000000000, 0.0000000000000000000 ) ) ;
#120 = ORIENTED_EDGE ( 'NONE', *, *, #205, .T. ) ;
#121 = DIRECTION ( 'NONE',  ( -1.000000000000000000, 0.0000000000000000000, 0.0000000000000000000 ) ) ;
#122 = CARTESIAN_POINT ( 'NONE',  ( 0.0000000000000000000, 0.0000000000000000000, 1.496062999999999921 ) ) ;
#123 = ORIENTED_EDGE ( 'NONE', *, *, #205, .F. ) ;
#124 = SURFACE_STYLE_FILL_AREA ( #136 ) ;
#125 = CARTESIAN_POINT ( 'NONE',  ( -0.05900500000000007128, 0.0000000000000000000, 0.3149610000000000465 ) ) ;
#126 = EDGE_CURVE ( 'NONE', #235, #325, #56, .T. ) ;
#127 = CIRCLE ( 'NONE', #147, 0.05905499999999998251 ) ;
#128 = DIRECTION ( 'NONE',  ( 0.0000000000000000000, 0.0000000000000000000, 1.000000000000000000 ) ) ;
#129 = AXIS2_PLACEMENT_3D ( 'NONE', #280, #253, #79 ) ;
#130 = AXIS2_PLACEMENT_3D ( 'NONE', #61, #180, #247 ) ;
#131 = AXIS2_PLACEMENT_3D ( 'NONE', #222, #116, #99 ) ;
#132 = DIRECTION ( 'NONE',  ( 0.7071067811865536790, 8.659560562355008046E-17, -0.7071067811865412445 ) ) ;
#133 = EDGE_CURVE ( 'NONE', #319, #197, #82, .T. ) ;
#134 = DIMENSIONAL_EXPONENTS ( 1.000000000000000000, 0.0000000000000000000, 0.0000000000000000000, 0.0000000000000000000, 0.0000000000000000000, 0.0000000000000000000, 0.0000000000000000000 ) ;
#135 = LINE ( 'NONE', #163, #16 ) ;
#136 = FILL_AREA_STYLE ('',( #320 ) ) ;
#137 = MECHANICAL_DESIGN_GEOMETRIC_PRESENTATION_REPRESENTATION (  '', ( #170 ), #184 ) ;
#138 = DIRECTION ( 'NONE',  ( -0.0000000000000000000, -0.0000000000000000000, -1.000000000000000000 ) ) ;
#139 = CARTESIAN_POINT ( 'NONE',  ( 0.0000000000000000000, 0.0000000000000000000, 0.3149610000000000465 ) ) ;
#140 = ADVANCED_FACE ( 'NONE', ( #157 ), #91, .T. ) ;
#141 = DIRECTION ( 'NONE',  ( -1.000000000000000000, 0.0000000000000000000, 0.0000000000000000000 ) ) ;
#142 = ORIENTED_EDGE ( 'NONE', *, *, #53, .F. ) ;
#143 = SURFACE_STYLE_FILL_AREA ( #237 ) ;
#144 = AXIS2_PLACEMENT_3D ( 'NONE', #36, #219, #83 ) ;
#145 = CARTESIAN_POINT ( 'NONE',  ( 0.0000000000000000000, 0.0000000000000000000, 0.3149610000000000465 ) ) ;
#146 = DIRECTION ( 'NONE',  ( 0.0000000000000000000, 0.0000000000000000000, 1.000000000000000000 ) ) ;
#147 = AXIS2_PLACEMENT_3D ( 'NONE', #42, #84, #119 ) ;
#148 = FACE_OUTER_BOUND ( 'NONE', #171, .T. ) ;
#149 = VECTOR ( 'NONE', #132, 39.37007874015748854 ) ;
#150 = VECTOR ( 'NONE', #264, 39.37007874015748143 ) ;
#151 = DIRECTION ( 'NONE',  ( 0.0000000000000000000, 0.0000000000000000000, 1.000000000000000000 ) ) ;
#152 = LINE ( 'NONE', #313, #149 ) ;
#153 = CARTESIAN_POINT ( 'NONE',  ( -0.05905499999999998251, 0.0000000000000000000, 0.3149610000000000465 ) ) ;
#154 = CONICAL_SURFACE ( 'NONE', #190, 0.007499999999999999722, 0.7853981633974504994 ) ;
#155 = AXIS2_PLACEMENT_3D ( 'NONE', #110, #6, #121 ) ;
#156 = DIRECTION ( 'NONE',  ( -1.000000000000000000, 0.0000000000000000000, 0.0000000000000000000 ) ) ;
#157 = FACE_OUTER_BOUND ( 'NONE', #260, .T. ) ;
#158 = CARTESIAN_POINT ( 'NONE',  ( 0.0000000000000000000, 0.0000000000000000000, 0.3149610000000000465 ) ) ;
#159 =( NAMED_UNIT ( * ) SI_UNIT ( $, .STERADIAN. ) SOLID_ANGLE_UNIT ( ) );
#160 = CONICAL_SURFACE ( 'NONE', #24, 0.007499999999999999722, 0.7853981633974504994 ) ;
#161 = DIRECTION ( 'NONE',  ( 0.0000000000000000000, 0.0000000000000000000, -1.000000000000000000 ) ) ;
#162 = ORIENTED_EDGE ( 'NONE', *, *, #288, .F. ) ;
#163 = CARTESIAN_POINT ( 'NONE',  ( 0.05905499999999998251, 7.232151672364692341E-18, 1.496062999999999921 ) ) ;
#164 = CARTESIAN_POINT ( 'NONE',  ( -0.05900500000000002271, 7.226028438368960519E-18, 0.05150499999999980788 ) ) ;
#165 = CARTESIAN_POINT ( 'NONE',  ( -0.05905499999999998251, 0.0000000000000000000, 1.496062999999999921 ) ) ;
#166 = ADVANCED_FACE ( 'NONE', ( #185 ), #201, .T. ) ;
#167 = CIRCLE ( 'NONE', #300, 0.05905499999999998251 ) ;
#168 = EDGE_CURVE ( 'NONE', #284, #197, #167, .T. ) ;
#169 = APPLICATION_CONTEXT ( 'automotive_design' ) ;
#170 = STYLED_ITEM ( 'NONE', ( #12 ), #194 ) ;
#171 = EDGE_LOOP ( 'NONE', ( #257, #57, #238, #239 ) ) ;
#172 = VERTEX_POINT ( 'NONE', #65 ) ;
#173 = APPLICATION_CONTEXT ( 'automotive_design' ) ;
#174 = UNCERTAINTY_MEASURE_WITH_UNIT (LENGTH_MEASURE( 1.000000000000000082E-05 ), #267, 'distance_accuracy_value', 'NONE');
#175 = COLOUR_RGB ( '',0.7921568627450980005, 0.8196078431372548767, 0.9333333333333333481 ) ;
#176 = ORIENTED_EDGE ( 'NONE', *, *, #183, .T. ) ;
#177 = PRODUCT_DEFINITION_CONTEXT ( 'detailed design', #169, 'design' ) ;
#178 = CARTESIAN_POINT ( 'NONE',  ( 0.0000000000000000000, 0.0000000000000000000, 0.0000000000000000000 ) ) ;
#179 = ADVANCED_FACE ( 'NONE', ( #51 ), #290, .T. ) ;
#180 = DIRECTION ( 'NONE',  ( -0.0000000000000000000, -0.0000000000000000000, -1.000000000000000000 ) ) ;
#181 = CARTESIAN_POINT ( 'NONE',  ( 0.0000000000000000000, 0.0000000000000000000, 1.707404996040164512E-17 ) ) ;
#182 = ORIENTED_EDGE ( 'NONE', *, *, #126, .F. ) ;
#183 = EDGE_CURVE ( 'NONE', #284, #214, #135, .T. ) ;
#184 =( GEOMETRIC_REPRESENTATION_CONTEXT ( 3 ) GLOBAL_UNCERTAINTY_ASSIGNED_CONTEXT ( ( #20 ) ) GLOBAL_UNIT_ASSIGNED_CONTEXT ( ( #317, #81, #159 ) ) REPRESENTATION_CONTEXT ( 'NONE', 'WORKASPACE' ) );
#185 = FACE_OUTER_BOUND ( 'NONE', #261, .T. ) ;
#186 = EDGE_LOOP ( 'NONE', ( #217, #14, #287, #182 ) ) ;
#187 = CARTESIAN_POINT ( 'NONE',  ( 0.0000000000000000000, 0.0000000000000000000, 1.707404996040164512E-17 ) ) ;
#188 = ORIENTED_EDGE ( 'NONE', *, *, #183, .F. ) ;
#189 = EDGE_CURVE ( 'NONE', #235, #70, #270, .T. ) ;
#190 = AXIS2_PLACEMENT_3D ( 'NONE', #227, #128, #326 ) ;
#191 = AXIS2_PLACEMENT_3D ( 'NONE', #122, #262, #215 ) ;
#192 =( NAMED_UNIT ( * ) PLANE_ANGLE_UNIT ( ) SI_UNIT ( $, .RADIAN. ) );
#193 = DIRECTION ( 'NONE',  ( 0.0000000000000000000, 0.0000000000000000000, -1.000000000000000000 ) ) ;
#194 = MANIFOLD_SOLID_BREP ( 'Cut-Revolve4', #305 ) ;
#195 = AXIS2_PLACEMENT_3D ( 'NONE', #327, #106, #47 ) ;
#196 = EDGE_CURVE ( 'NONE', #214, #113, #328, .T. ) ;
#197 = VERTEX_POINT ( 'NONE', #86 ) ;
#198 = DIRECTION ( 'NONE',  ( 0.0000000000000000000, 0.0000000000000000000, 1.000000000000000000 ) ) ;
#199 = CARTESIAN_POINT ( 'NONE',  ( 0.05900500000000003659, 7.226028438368962060E-18, 0.0000000000000000000 ) ) ;
#200 = CONICAL_SURFACE ( 'NONE', #76, 0.04405500000000001082, 0.7853981633974570498 ) ;
#201 = CYLINDRICAL_SURFACE ( 'NONE', #50, 0.05900500000000003659 ) ;
#202 = ORIENTED_EDGE ( 'NONE', *, *, #133, .T. ) ;
#203 = SURFACE_STYLE_USAGE ( .BOTH. , #114 ) ;
#204 = ORIENTED_EDGE ( 'NONE', *, *, #309, .F. ) ;
#205 = EDGE_CURVE ( 'NONE', #321, #97, #101, .T. ) ;
#206 = DIRECTION ( 'NONE',  ( -0.0000000000000000000, -0.0000000000000000000, -1.000000000000000000 ) ) ;
#207 = EDGE_LOOP ( 'NONE', ( #188, #77, #5, #243 ) ) ;
#208 = APPLICATION_PROTOCOL_DEFINITION ( 'draft international standard', 'automotive_design', 1998, #173 ) ;
#209 = EDGE_LOOP ( 'NONE', ( #48, #118, #162, #55 ) ) ;
#210 = CARTESIAN_POINT ( 'NONE',  ( -0.05900500000000003659, 0.0000000000000000000, 0.0000000000000000000 ) ) ;
#211 = COLOUR_RGB ( '',0.7921568627450980005, 0.8196078431372548767, 0.9333333333333333481 ) ;
#212 =( NAMED_UNIT ( * ) SI_UNIT ( $, .STERADIAN. ) SOLID_ANGLE_UNIT ( ) );
#213 = ORIENTED_EDGE ( 'NONE', *, *, #126, .T. ) ;
#214 = VERTEX_POINT ( 'NONE', #272 ) ;
#215 = DIRECTION ( 'NONE',  ( 1.000000000000000000, 0.0000000000000000000, -0.0000000000000000000 ) ) ;
#216 = PRODUCT_DEFINITION_SHAPE ( 'NONE', 'NONE',  #26 ) ;
#217 = ORIENTED_EDGE ( 'NONE', *, *, #189, .T. ) ;
#218 = FACE_OUTER_BOUND ( 'NONE', #282, .T. ) ;
#219 = DIRECTION ( 'NONE',  ( -0.0000000000000000000, -0.0000000000000000000, -1.000000000000000000 ) ) ;
#220 = AXIS2_PLACEMENT_3D ( 'NONE', #181, #35, #141 ) ;
#221 = ADVANCED_FACE ( 'NONE', ( #94, #218 ), #303, .T. ) ;
#222 = CARTESIAN_POINT ( 'NONE',  ( 0.05900500000000007128, 0.0000000000000000000, 0.3149610000000000465 ) ) ;
#223 = DIRECTION ( 'NONE',  ( 0.0000000000000000000, 0.0000000000000000000, 1.000000000000000000 ) ) ;
#224 = EDGE_CURVE ( 'NONE', #113, #214, #44, .T. ) ;
#225 = CARTESIAN_POINT ( 'NONE',  ( 0.0000000000000000000, 0.0000000000000000000, 0.0000000000000000000 ) ) ;
#226 = VECTOR ( 'NONE', #2, 39.37007874015748854 ) ;
#227 = CARTESIAN_POINT ( 'NONE',  ( 0.0000000000000000000, 0.0000000000000000000, 1.707404996040164512E-17 ) ) ;
#228 = FACE_OUTER_BOUND ( 'NONE', #310, .T. ) ;
#229 = EDGE_CURVE ( 'NONE', #197, #113, #9, .T. ) ;
#230 = ORIENTED_EDGE ( 'NONE', *, *, #252, .T. ) ;
#231 = CIRCLE ( 'NONE', #31, 0.05900500000000007128 ) ;
#232 = PRODUCT_RELATED_PRODUCT_CATEGORY ( 'part', '', ( #100 ) ) ;
#233 = DIRECTION ( 'NONE',  ( 1.000000000000000000, 0.0000000000000000000, 0.0000000000000000000 ) ) ;
#234 = DIRECTION ( 'NONE',  ( -0.0000000000000000000, -0.0000000000000000000, -1.000000000000000000 ) ) ;
#235 = VERTEX_POINT ( 'NONE', #125 ) ;
#236 = AXIS2_PLACEMENT_3D ( 'NONE', #10, #206, #285 ) ;
#237 = FILL_AREA_STYLE ('',( #258 ) ) ;
#238 = ORIENTED_EDGE ( 'NONE', *, *, #117, .T. ) ;
#239 = ORIENTED_EDGE ( 'NONE', *, *, #309, .T. ) ;
#240 = DIRECTION ( 'NONE',  ( -1.000000000000000000, 0.0000000000000000000, 0.0000000000000000000 ) ) ;
#241 =( NAMED_UNIT ( * ) PLANE_ANGLE_UNIT ( ) SI_UNIT ( $, .RADIAN. ) );
#242 = LINE ( 'NONE', #28, #3 ) ;
#243 = ORIENTED_EDGE ( 'NONE', *, *, #196, .F. ) ;
#244 = DIRECTION ( 'NONE',  ( -1.000000000000000000, 0.0000000000000000000, 0.0000000000000000000 ) ) ;
#245 = VECTOR ( 'NONE', #271, 39.37007874015748854 ) ;
#246 = LENGTH_MEASURE_WITH_UNIT ( LENGTH_MEASURE( 0.02539999999999999897 ), #13 );
#247 = DIRECTION ( 'NONE',  ( -1.000000000000000000, 0.0000000000000000000, 0.0000000000000000000 ) ) ;
#248 = AXIS2_PLACEMENT_3D ( 'NONE', #278, #109, #156 ) ;
#249 = ADVANCED_BREP_SHAPE_REPRESENTATION ( 'Micro_DMM-030-290X', ( #194, #324 ), #58 ) ;
#250 = FACE_OUTER_BOUND ( 'NONE', #40, .T. ) ;
#251 = DIRECTION ( 'NONE',  ( 1.000000000000000000, 0.0000000000000000000, 0.0000000000000000000 ) ) ;
#252 = EDGE_CURVE ( 'NONE', #97, #321, #4, .T. ) ;
#253 = DIRECTION ( 'NONE',  ( 0.0000000000000000000, 0.0000000000000000000, 1.000000000000000000 ) ) ;
#254 = MECHANICAL_DESIGN_GEOMETRIC_PRESENTATION_REPRESENTATION (  '', ( #289 ), #314 ) ;
#255 = CARTESIAN_POINT ( 'NONE',  ( 0.0000000000000000000, 0.0000000000000000000, 1.496062999999999921 ) ) ;
#256 = LENGTH_MEASURE_WITH_UNIT ( LENGTH_MEASURE( 0.02539999999999999897 ), #8 );
#257 = ORIENTED_EDGE ( 'NONE', *, *, #276, .F. ) ;
#258 = FILL_AREA_STYLE_COLOUR ( '', #175 ) ;
#259 = CIRCLE ( 'NONE', #248, 0.05900500000000000883 ) ;
#260 = EDGE_LOOP ( 'NONE', ( #23, #176, #29, #311 ) ) ;
#261 = EDGE_LOOP ( 'NONE', ( #18, #108, #213, #204 ) ) ;
#262 = DIRECTION ( 'NONE',  ( 0.0000000000000000000, 0.0000000000000000000, 1.000000000000000000 ) ) ;
#263 = DIRECTION ( 'NONE',  ( -0.0000000000000000000, -0.0000000000000000000, -1.000000000000000000 ) ) ;
#264 = DIRECTION ( 'NONE',  ( -0.0000000000000000000, -0.0000000000000000000, -1.000000000000000000 ) ) ;
#265 = ORIENTED_EDGE ( 'NONE', *, *, #224, .T. ) ;
#266 = DIRECTION ( 'NONE',  ( -0.0000000000000000000, -0.0000000000000000000, -1.000000000000000000 ) ) ;
#267 =( CONVERSION_BASED_UNIT ( 'INCH', #246 ) LENGTH_UNIT ( ) NAMED_UNIT ( #112 ) );
#268 = CARTESIAN_POINT ( 'NONE',  ( -0.007499999999999999722, 9.184850993605147975E-19, 1.707404996040164512E-17 ) ) ;
#269 = ORIENTED_EDGE ( 'NONE', *, *, #1, .T. ) ;
#270 = CIRCLE ( 'NONE', #155, 0.05900500000000007128 ) ;
#271 = DIRECTION ( 'NONE',  ( -0.7071067811865490160, 8.659560562354951347E-17, 0.7071067811865459074 ) ) ;
#272 = CARTESIAN_POINT ( 'NONE',  ( 0.05905499999999998251, 7.232151672364692341E-18, 0.3149610000000000465 ) ) ;
#273 =( NAMED_UNIT ( * ) SI_UNIT ( $, .STERADIAN. ) SOLID_ANGLE_UNIT ( ) );
#274 = VECTOR ( 'NONE', #104, 39.37007874015748143 ) ;
#275 = CIRCLE ( 'NONE', #130, 0.05900500000000000883 ) ;
#276 = EDGE_CURVE ( 'NONE', #321, #325, #68, .T. ) ;
#277 = CARTESIAN_POINT ( 'NONE',  ( 0.05900500000000002271, 0.0000000000000000000, 0.05150499999999980788 ) ) ;
#278 = CARTESIAN_POINT ( 'NONE',  ( 0.0000000000000000000, 0.0000000000000000000, 0.05150499999999980788 ) ) ;
#279 = VECTOR ( 'NONE', #80, 39.37007874015748143 ) ;
#280 = CARTESIAN_POINT ( 'NONE',  ( 0.0000000000000000000, 0.0000000000000000000, 1.496062999999999921 ) ) ;
#281 = CARTESIAN_POINT ( 'NONE',  ( 0.007499999999999999722, 0.0000000000000000000, 1.707404996040164512E-17 ) ) ;
#282 = EDGE_LOOP ( 'NONE', ( #265, #297 ) ) ;
#283 = DIRECTION ( 'NONE',  ( 0.7071067811865490160, 0.0000000000000000000, 0.7071067811865459074 ) ) ;
#284 = VERTEX_POINT ( 'NONE', #69 ) ;
#285 = DIRECTION ( 'NONE',  ( -1.000000000000000000, 0.0000000000000000000, 0.0000000000000000000 ) ) ;
#286 = SURFACE_SIDE_STYLE ('',( #124 ) ) ;
#287 = ORIENTED_EDGE ( 'NONE', *, *, #1, .F. ) ;
#288 = EDGE_CURVE ( 'NONE', #197, #284, #127, .T. ) ;
#289 = STYLED_ITEM ( 'NONE', ( #115 ), #249 ) ;
#290 = CYLINDRICAL_SURFACE ( 'NONE', #306, 0.05900500000000003659 ) ;
#291 = EDGE_LOOP ( 'NONE', ( #21, #85 ) ) ;
#292 = FACE_OUTER_BOUND ( 'NONE', #96, .T. ) ;
#293 = EDGE_CURVE ( 'NONE', #70, #235, #231, .T. ) ;
#294 = FACE_OUTER_BOUND ( 'NONE', #329, .T. ) ;
#295 = CARTESIAN_POINT ( 'NONE',  ( 0.0000000000000000000, 0.0000000000000000000, 1.481063000000000240 ) ) ;
#296 = LENGTH_MEASURE_WITH_UNIT ( LENGTH_MEASURE( 0.02539999999999999897 ), #92 );
#297 = ORIENTED_EDGE ( 'NONE', *, *, #196, .T. ) ;
#298 = ADVANCED_FACE ( 'NONE', ( #294 ), #62, .F. ) ;
#299 = CIRCLE ( 'NONE', #129, 0.04405500000000001082 ) ;
#300 = AXIS2_PLACEMENT_3D ( 'NONE', #295, #161, #38 ) ;
#301 = DIRECTION ( 'NONE',  ( -0.0000000000000000000, -0.0000000000000000000, -1.000000000000000000 ) ) ;
#302 = DIRECTION ( 'NONE',  ( 1.000000000000000000, 0.0000000000000000000, 0.0000000000000000000 ) ) ;
#303 = PLANE ( 'NONE',  #131 ) ;
#304 = ADVANCED_FACE ( 'NONE', ( #78 ), #7, .T. ) ;
#305 = CLOSED_SHELL ( 'NONE', ( #179, #87, #103, #140, #304, #312, #63, #221, #66, #166, #298 ) ) ;
#306 = AXIS2_PLACEMENT_3D ( 'NONE', #60, #263, #244 ) ;
#307 = PRODUCT_CONTEXT ( 'NONE', #173, 'mechanical' ) ;
#308 = CARTESIAN_POINT ( 'NONE',  ( 0.0000000000000000000, 0.0000000000000000000, 1.496062999999999921 ) ) ;
#309 = EDGE_CURVE ( 'NONE', #41, #325, #275, .T. ) ;
#310 = EDGE_LOOP ( 'NONE', ( #74, #142, #202, #32 ) ) ;
#311 = ORIENTED_EDGE ( 'NONE', *, *, #229, .F. ) ;
#312 = ADVANCED_FACE ( 'NONE', ( #292 ), #67, .T. ) ;
#313 = CARTESIAN_POINT ( 'NONE',  ( 0.04405500000000001082, 5.395181473643666598E-18, 1.496062999999999921 ) ) ;
#314 =( GEOMETRIC_REPRESENTATION_CONTEXT ( 3 ) GLOBAL_UNCERTAINTY_ASSIGNED_CONTEXT ( ( #315 ) ) GLOBAL_UNIT_ASSIGNED_CONTEXT ( ( #19, #192, #273 ) ) REPRESENTATION_CONTEXT ( 'NONE', 'WORKASPACE' ) );
#315 = UNCERTAINTY_MEASURE_WITH_UNIT (LENGTH_MEASURE( 1.000000000000000082E-05 ), #19, 'distance_accuracy_value', 'NONE');
#316 = DIMENSIONAL_EXPONENTS ( 1.000000000000000000, 0.0000000000000000000, 0.0000000000000000000, 0.0000000000000000000, 0.0000000000000000000, 0.0000000000000000000, 0.0000000000000000000 ) ;
#317 =( CONVERSION_BASED_UNIT ( 'INCH', #256 ) LENGTH_UNIT ( ) NAMED_UNIT ( #316 ) );
#318 = ORIENTED_EDGE ( 'NONE', *, *, #117, .F. ) ;
#319 = VERTEX_POINT ( 'NONE', #33 ) ;
#320 = FILL_AREA_STYLE_COLOUR ( '', #211 ) ;
#321 = VERTEX_POINT ( 'NONE', #54 ) ;
#322 = CARTESIAN_POINT ( 'NONE',  ( -0.04405500000000001082, 0.0000000000000000000, 1.496062999999999921 ) ) ;
#323 = ORIENTED_EDGE ( 'NONE', *, *, #276, .T. ) ;
#324 = AXIS2_PLACEMENT_3D ( 'NONE', #17, #223, #302 ) ;
#325 = VERTEX_POINT ( 'NONE', #164 ) ;
#326 = DIRECTION ( 'NONE',  ( 1.000000000000000000, 0.0000000000000000000, 0.0000000000000000000 ) ) ;
#327 = CARTESIAN_POINT ( 'NONE',  ( 0.0000000000000000000, 0.0000000000000000000, 1.496062999999999921 ) ) ;
#328 = CIRCLE ( 'NONE', #111, 0.05905499999999998251 ) ;
#329 = EDGE_LOOP ( 'NONE', ( #230, #120 ) ) ;
ENDSEC;
END-ISO-10303-21;
