ISO-10303-21;
HEADER;
FILE_DESCRIPTION (( 'STEP AP214' ),
    '1' );
FILE_NAME ('82518.STEP',
    '2023-06-23T05:53:26',
    ( '' ),
    ( '' ),
    'SwSTEP 2.0',
    'SolidWorks 2023',
    '' );
FILE_SCHEMA (( 'AUTOMOTIVE_DESIGN' ));
ENDSEC;

DATA;
#1 = EDGE_LOOP ( 'NONE', ( #152, #208 ) ) ;
#2 = SURFACE_STYLE_FILL_AREA ( #268 ) ;
#3 = ADVANCED_FACE ( 'NONE', ( #84 ), #154, .F. ) ;
#4 =( GEOMETRIC_REPRESENTATION_CONTEXT ( 3 ) GLOBAL_UNCERTAINTY_ASSIGNED_CONTEXT ( ( #87 ) ) GLOBAL_UNIT_ASSIGNED_CONTEXT ( ( #126, #187, #231 ) ) REPRESENTATION_CONTEXT ( 'NONE', 'WORKASPACE' ) );
#5 = CYLINDRICAL_SURFACE ( 'NONE', #91, 0.06249999999999993755 ) ;
#6 = AXIS2_PLACEMENT_3D ( 'NONE', #265, #148, #25 ) ;
#7 =( CONVERSION_BASED_UNIT ( 'INCH', #295 ) LENGTH_UNIT ( ) NAMED_UNIT ( #260 ) );
#8 = AXIS2_PLACEMENT_3D ( 'NONE', #242, #303, #194 ) ;
#9 = CARTESIAN_POINT ( 'NONE',  ( 0.000000000000000000, 0.000000000000000000, 0.000000000000000000 ) ) ;
#10 = EDGE_CURVE ( 'NONE', #57, #33, #65, .T. ) ;
#11 = CLOSED_SHELL ( 'NONE', ( #107, #98, #94, #64 ) ) ;
#12 = CARTESIAN_POINT ( 'NONE',  ( 0.000000000000000000, 0.8750000000000000000, 0.000000000000000000 ) ) ;
#13 = COLOUR_RGB ( '',1.000000000000000000, 0.000000000000000000, 0.000000000000000000 ) ;
#14 = UNCERTAINTY_MEASURE_WITH_UNIT (LENGTH_MEASURE( 1.000000000000000082E-05 ), #304, 'distance_accuracy_value', 'NONE');
#15 = PLANE ( 'NONE',  #169 ) ;
#16 =( LENGTH_UNIT ( ) NAMED_UNIT ( * ) SI_UNIT ( $, .METRE. ) );
#17 = CARTESIAN_POINT ( 'NONE',  ( -0.06249999999999975020, 2.500000000000000000, 0.000000000000000000 ) ) ;
#18 = CARTESIAN_POINT ( 'NONE',  ( 0.000000000000000000, 0.000000000000000000, 0.000000000000000000 ) ) ;
#19 = EDGE_CURVE ( 'NONE', #195, #106, #109, .T. ) ;
#20 = LENGTH_MEASURE_WITH_UNIT ( LENGTH_MEASURE( 0.02539999999999999897 ), #16 );
#21 = VECTOR ( 'NONE', #136, 39.37007874015748143 ) ;
#22 = VECTOR ( 'NONE', #112, 39.37007874015748143 ) ;
#23 = DIRECTION ( 'NONE',  ( -0.000000000000000000, -1.000000000000000000, -0.000000000000000000 ) ) ;
#24 = CARTESIAN_POINT ( 'NONE',  ( 0.000000000000000000, 0.8750000000000000000, -0.06250000000000001388 ) ) ;
#25 = DIRECTION ( 'NONE',  ( 0.000000000000000000, 0.000000000000000000, -1.000000000000000000 ) ) ;
#26 = COLOUR_RGB ( '',1.000000000000000000, 0.000000000000000000, 0.000000000000000000 ) ;
#27 =( LENGTH_UNIT ( ) NAMED_UNIT ( * ) SI_UNIT ( $, .METRE. ) );
#28 = SURFACE_SIDE_STYLE ('',( #229 ) ) ;
#29 = EDGE_CURVE ( 'NONE', #106, #195, #305, .T. ) ;
#30 = ORIENTED_EDGE ( 'NONE', *, *, #88, .F. ) ;
#31 = FILL_AREA_STYLE_COLOUR ( '', #251 ) ;
#32 = AXIS2_PLACEMENT_3D ( 'NONE', #255, #134, #299 ) ;
#33 = VERTEX_POINT ( 'NONE', #271 ) ;
#34 = MECHANICAL_DESIGN_GEOMETRIC_PRESENTATION_REPRESENTATION (  '', ( #162 ), #4 ) ;
#35 = CARTESIAN_POINT ( 'NONE',  ( 0.06250000000000001388, 0.8749999999999997780, 7.654042494670954463E-18 ) ) ;
#36 = PRESENTATION_LAYER_ASSIGNMENT (  '', '', ( #185 ) ) ;
#37 = ADVANCED_FACE ( 'NONE', ( #127 ), #248, .F. ) ;
#38 = LINE ( 'NONE', #236, #21 ) ;
#39 = MECHANICAL_DESIGN_GEOMETRIC_PRESENTATION_REPRESENTATION (  '', ( #230 ), #48 ) ;
#40 =( LENGTH_UNIT ( ) NAMED_UNIT ( * ) SI_UNIT ( $, .METRE. ) );
#41 = ORIENTED_EDGE ( 'NONE', *, *, #10, .T. ) ;
#42 = SURFACE_STYLE_USAGE ( .BOTH. , #144 ) ;
#43 =( CONVERSION_BASED_UNIT ( 'INCH', #203 ) LENGTH_UNIT ( ) NAMED_UNIT ( #201 ) );
#44 =( NAMED_UNIT ( * ) PLANE_ANGLE_UNIT ( ) SI_UNIT ( $, .RADIAN. ) );
#45 = EDGE_CURVE ( 'NONE', #55, #149, #309, .T. ) ;
#46 = ORIENTED_EDGE ( 'NONE', *, *, #103, .T. ) ;
#47 = ADVANCED_BREP_SHAPE_REPRESENTATION ( '82518', ( #172, #166, #49 ), #158 ) ;
#48 =( GEOMETRIC_REPRESENTATION_CONTEXT ( 3 ) GLOBAL_UNCERTAINTY_ASSIGNED_CONTEXT ( ( #301 ) ) GLOBAL_UNIT_ASSIGNED_CONTEXT ( ( #287, #140, #307 ) ) REPRESENTATION_CONTEXT ( 'NONE', 'WORKASPACE' ) );
#49 = AXIS2_PLACEMENT_3D ( 'NONE', #222, #237, #79 ) ;
#50 = DIRECTION ( 'NONE',  ( -1.000000000000000000, 0.000000000000000000, 0.000000000000000000 ) ) ;
#51 = EDGE_LOOP ( 'NONE', ( #266, #292 ) ) ;
#52 = EDGE_CURVE ( 'NONE', #53, #245, #82, .T. ) ;
#53 = VERTEX_POINT ( 'NONE', #150 ) ;
#54 = DIRECTION ( 'NONE',  ( 0.000000000000000000, 0.000000000000000000, -1.000000000000000000 ) ) ;
#55 = VERTEX_POINT ( 'NONE', #35 ) ;
#56 = DIRECTION ( 'NONE',  ( -1.000000000000000000, 0.000000000000000000, 0.000000000000000000 ) ) ;
#57 = VERTEX_POINT ( 'NONE', #180 ) ;
#58 = MECHANICAL_DESIGN_GEOMETRIC_PRESENTATION_REPRESENTATION (  '', ( #185 ), #117 ) ;
#59 = DIRECTION ( 'NONE',  ( -1.000000000000000000, 0.000000000000000000, 0.000000000000000000 ) ) ;
#60 = AXIS2_PLACEMENT_3D ( 'NONE', #171, #71, #50 ) ;
#61 = PRESENTATION_LAYER_ASSIGNMENT (  '', '', ( #159 ) ) ;
#62 = UNCERTAINTY_MEASURE_WITH_UNIT (LENGTH_MEASURE( 1.000000000000000082E-05 ), #193, 'distance_accuracy_value', 'NONE');
#63 = CARTESIAN_POINT ( 'NONE',  ( 1.836970198721029688E-16, 2.500000000000000000, 0.000000000000000000 ) ) ;
#64 = ADVANCED_FACE ( 'NONE', ( #86 ), #184, .T. ) ;
#65 = CIRCLE ( 'NONE', #151, 0.06249999999999986122 ) ;
#66 = SURFACE_STYLE_FILL_AREA ( #257 ) ;
#67 = ORIENTED_EDGE ( 'NONE', *, *, #110, .T. ) ;
#68 = FILL_AREA_STYLE ('',( #95 ) ) ;
#69 = EDGE_LOOP ( 'NONE', ( #212, #41 ) ) ;
#70 = AXIS2_PLACEMENT_3D ( 'NONE', #89, #188, #277 ) ;
#71 = DIRECTION ( 'NONE',  ( 1.130443199212941346E-16, 1.000000000000000000, -0.000000000000000000 ) ) ;
#72 = SURFACE_STYLE_FILL_AREA ( #219 ) ;
#73 = DIMENSIONAL_EXPONENTS ( 1.000000000000000000, 0.000000000000000000, 0.000000000000000000, 0.000000000000000000, 0.000000000000000000, 0.000000000000000000, 0.000000000000000000 ) ;
#74 = ORIENTED_EDGE ( 'NONE', *, *, #103, .F. ) ;
#75 = SURFACE_SIDE_STYLE ('',( #72 ) ) ;
#76 = PRODUCT_RELATED_PRODUCT_CATEGORY ( 'part', '', ( #83 ) ) ;
#77 = VECTOR ( 'NONE', #279, 39.37007874015748143 ) ;
#78 = CIRCLE ( 'NONE', #70, 0.06250000000000001388 ) ;
#79 = DIRECTION ( 'NONE',  ( 1.000000000000000000, 0.000000000000000000, 0.000000000000000000 ) ) ;
#80 = DIRECTION ( 'NONE',  ( -1.000000000000000000, 1.130443199212941346E-16, 0.000000000000000000 ) ) ;
#81 = CARTESIAN_POINT ( 'NONE',  ( 0.06250000000000005551, 2.500000000000000000, 0.000000000000000000 ) ) ;
#82 = CIRCLE ( 'NONE', #234, 0.06250000000000001388 ) ;
#83 = PRODUCT ( '82518', '82518', '', ( #121 ) ) ;
#84 = FACE_OUTER_BOUND ( 'NONE', #51, .T. ) ;
#85 =( LENGTH_UNIT ( ) NAMED_UNIT ( * ) SI_UNIT ( $, .METRE. ) );
#86 = FACE_OUTER_BOUND ( 'NONE', #1, .T. ) ;
#87 = UNCERTAINTY_MEASURE_WITH_UNIT (LENGTH_MEASURE( 1.000000000000000082E-05 ), #126, 'distance_accuracy_value', 'NONE');
#88 = EDGE_CURVE ( 'NONE', #195, #245, #177, .T. ) ;
#89 = CARTESIAN_POINT ( 'NONE',  ( -3.032960542342103792E-32, 0.8749999999999997780, 0.000000000000000000 ) ) ;
#90 = DIRECTION ( 'NONE',  ( -1.000000000000000000, 0.000000000000000000, 0.000000000000000000 ) ) ;
#91 = AXIS2_PLACEMENT_3D ( 'NONE', #63, #164, #90 ) ;
#92 = ORIENTED_EDGE ( 'NONE', *, *, #52, .F. ) ;
#93 = PRESENTATION_STYLE_ASSIGNMENT (( #42 ) ) ;
#94 = ADVANCED_FACE ( 'NONE', ( #259 ), #113, .T. ) ;
#95 = FILL_AREA_STYLE_COLOUR ( '', #111 ) ;
#96 = AXIS2_PLACEMENT_3D ( 'NONE', #18, #122, #54 ) ;
#97 = DIRECTION ( 'NONE',  ( 0.000000000000000000, -1.000000000000000000, -0.000000000000000000 ) ) ;
#98 = ADVANCED_FACE ( 'NONE', ( #235 ), #15, .T. ) ;
#99 = ORIENTED_EDGE ( 'NONE', *, *, #147, .F. ) ;
#100 = CARTESIAN_POINT ( 'NONE',  ( 7.654042494670959086E-18, 0.000000000000000000, 0.06250000000000001388 ) ) ;
#101 = PRESENTATION_LAYER_ASSIGNMENT (  '', '', ( #182 ) ) ;
#102 = ORIENTED_EDGE ( 'NONE', *, *, #29, .T. ) ;
#103 = EDGE_CURVE ( 'NONE', #149, #33, #202, .T. ) ;
#104 = ORIENTED_EDGE ( 'NONE', *, *, #263, .F. ) ;
#105 = PRESENTATION_LAYER_ASSIGNMENT (  '', '', ( #230 ) ) ;
#106 = VERTEX_POINT ( 'NONE', #24 ) ;
#107 = ADVANCED_FACE ( 'NONE', ( #145 ), #221, .T. ) ;
#108 = DIRECTION ( 'NONE',  ( 0.000000000000000000, -0.000000000000000000, 1.000000000000000000 ) ) ;
#109 = CIRCLE ( 'NONE', #6, 0.06250000000000001388 ) ;
#110 = EDGE_CURVE ( 'NONE', #149, #55, #78, .T. ) ;
#111 = COLOUR_RGB ( '',0.7921568627450980005, 0.8196078431372548767, 0.9333333333333333481 ) ;
#112 = DIRECTION ( 'NONE',  ( 1.130443199212941346E-16, 1.000000000000000000, -0.000000000000000000 ) ) ;
#113 = CYLINDRICAL_SURFACE ( 'NONE', #96, 0.06250000000000001388 ) ;
#114 = LENGTH_MEASURE_WITH_UNIT ( LENGTH_MEASURE( 0.02539999999999999897 ), #116 );
#115 = CARTESIAN_POINT ( 'NONE',  ( -0.06250000000000001388, 0.8749999999999997780, 0.000000000000000000 ) ) ;
#116 =( LENGTH_UNIT ( ) NAMED_UNIT ( * ) SI_UNIT ( $, .METRE. ) );
#117 =( GEOMETRIC_REPRESENTATION_CONTEXT ( 3 ) GLOBAL_UNCERTAINTY_ASSIGNED_CONTEXT ( ( #153 ) ) GLOBAL_UNIT_ASSIGNED_CONTEXT ( ( #7, #224, #181 ) ) REPRESENTATION_CONTEXT ( 'NONE', 'WORKASPACE' ) );
#118 =( CONVERSION_BASED_UNIT ( 'INCH', #20 ) LENGTH_UNIT ( ) NAMED_UNIT ( #232 ) );
#119 = FACE_OUTER_BOUND ( 'NONE', #131, .T. ) ;
#120 = PRESENTATION_STYLE_ASSIGNMENT (( #302 ) ) ;
#121 = PRODUCT_CONTEXT ( 'NONE', #244, 'mechanical' ) ;
#122 = DIRECTION ( 'NONE',  ( -0.000000000000000000, -1.000000000000000000, -0.000000000000000000 ) ) ;
#123 = ORIENTED_EDGE ( 'NONE', *, *, #10, .F. ) ;
#124 = PRESENTATION_LAYER_ASSIGNMENT (  '', '', ( #162 ) ) ;
#125 = ORIENTED_EDGE ( 'NONE', *, *, #19, .T. ) ;
#126 =( CONVERSION_BASED_UNIT ( 'INCH', #290 ) LENGTH_UNIT ( ) NAMED_UNIT ( #298 ) );
#127 = FACE_OUTER_BOUND ( 'NONE', #69, .T. ) ;
#128 = DIRECTION ( 'NONE',  ( 1.000000000000000000, -1.130443199212941346E-16, 0.000000000000000000 ) ) ;
#129 =( NAMED_UNIT ( * ) SI_UNIT ( $, .STERADIAN. ) SOLID_ANGLE_UNIT ( ) );
#130 = MECHANICAL_DESIGN_GEOMETRIC_PRESENTATION_REPRESENTATION (  '', ( #226 ), #296 ) ;
#131 = EDGE_LOOP ( 'NONE', ( #179, #199, #46, #123 ) ) ;
#132 = DIRECTION ( 'NONE',  ( -0.000000000000000000, -1.000000000000000000, -0.000000000000000000 ) ) ;
#133 = SURFACE_STYLE_USAGE ( .BOTH. , #253 ) ;
#134 = DIRECTION ( 'NONE',  ( -0.000000000000000000, -1.000000000000000000, -0.000000000000000000 ) ) ;
#135 = DIMENSIONAL_EXPONENTS ( 1.000000000000000000, 0.000000000000000000, 0.000000000000000000, 0.000000000000000000, 0.000000000000000000, 0.000000000000000000, 0.000000000000000000 ) ;
#136 = DIRECTION ( 'NONE',  ( -0.000000000000000000, -1.000000000000000000, -0.000000000000000000 ) ) ;
#137 = DIMENSIONAL_EXPONENTS ( 1.000000000000000000, 0.000000000000000000, 0.000000000000000000, 0.000000000000000000, 0.000000000000000000, 0.000000000000000000, 0.000000000000000000 ) ;
#138 = MECHANICAL_DESIGN_GEOMETRIC_PRESENTATION_REPRESENTATION (  '', ( #159 ), #291 ) ;
#139 = LENGTH_MEASURE_WITH_UNIT ( LENGTH_MEASURE( 0.02539999999999999897 ), #191 );
#140 =( NAMED_UNIT ( * ) PLANE_ANGLE_UNIT ( ) SI_UNIT ( $, .RADIAN. ) );
#141 = APPLICATION_PROTOCOL_DEFINITION ( 'draft international standard', 'automotive_design', 1998, #244 ) ;
#142 =( NAMED_UNIT ( * ) PLANE_ANGLE_UNIT ( ) SI_UNIT ( $, .RADIAN. ) );
#143 = FILL_AREA_STYLE_COLOUR ( '', #26 ) ;
#144 = SURFACE_SIDE_STYLE ('',( #308 ) ) ;
#145 = FACE_OUTER_BOUND ( 'NONE', #223, .T. ) ;
#146 = EDGE_LOOP ( 'NONE', ( #270, #275 ) ) ;
#147 = EDGE_CURVE ( 'NONE', #106, #53, #38, .T. ) ;
#148 = DIRECTION ( 'NONE',  ( -0.000000000000000000, -1.000000000000000000, -0.000000000000000000 ) ) ;
#149 = VERTEX_POINT ( 'NONE', #115 ) ;
#150 = CARTESIAN_POINT ( 'NONE',  ( 0.000000000000000000, 0.000000000000000000, -0.06250000000000001388 ) ) ;
#151 = AXIS2_PLACEMENT_3D ( 'NONE', #294, #183, #59 ) ;
#152 = ORIENTED_EDGE ( 'NONE', *, *, #52, .T. ) ;
#153 = UNCERTAINTY_MEASURE_WITH_UNIT (LENGTH_MEASURE( 1.000000000000000082E-05 ), #7, 'distance_accuracy_value', 'NONE');
#154 = PLANE ( 'NONE',  #189 ) ;
#155 = DIRECTION ( 'NONE',  ( -1.130443199212941346E-16, -1.000000000000000000, 0.000000000000000000 ) ) ;
#156 = EDGE_CURVE ( 'NONE', #245, #53, #283, .T. ) ;
#157 = CARTESIAN_POINT ( 'NONE',  ( 3.993443208271219500E-34, 0.8750000000000000000, 0.000000000000000000 ) ) ;
#158 =( GEOMETRIC_REPRESENTATION_CONTEXT ( 3 ) GLOBAL_UNCERTAINTY_ASSIGNED_CONTEXT ( ( #243 ) ) GLOBAL_UNIT_ASSIGNED_CONTEXT ( ( #43, #168, #258 ) ) REPRESENTATION_CONTEXT ( 'NONE', 'WORKASPACE' ) );
#159 = STYLED_ITEM ( 'NONE', ( #282 ), #166 ) ;
#160 = CARTESIAN_POINT ( 'NONE',  ( -3.032960542342103792E-32, 0.8749999999999997780, 0.000000000000000000 ) ) ;
#161 = FACE_OUTER_BOUND ( 'NONE', #204, .T. ) ;
#162 = STYLED_ITEM ( 'NONE', ( #228 ), #172 ) ;
#163 = MECHANICAL_DESIGN_GEOMETRIC_PRESENTATION_REPRESENTATION (  '', ( #182 ), #175 ) ;
#164 = DIRECTION ( 'NONE',  ( 1.130443199212941346E-16, 1.000000000000000000, -0.000000000000000000 ) ) ;
#165 = VECTOR ( 'NONE', #23, 39.37007874015748143 ) ;
#166 = MANIFOLD_SOLID_BREP ( 'Revolve - Tool Body (Straight Shanked)', #211 ) ;
#167 = SURFACE_STYLE_FILL_AREA ( #68 ) ;
#168 =( NAMED_UNIT ( * ) PLANE_ANGLE_UNIT ( ) SI_UNIT ( $, .RADIAN. ) );
#169 = AXIS2_PLACEMENT_3D ( 'NONE', #12, #278, #108 ) ;
#170 =( NAMED_UNIT ( * ) PLANE_ANGLE_UNIT ( ) SI_UNIT ( $, .RADIAN. ) );
#171 = CARTESIAN_POINT ( 'NONE',  ( 1.836970198721029688E-16, 2.500000000000000000, 0.000000000000000000 ) ) ;
#172 = MANIFOLD_SOLID_BREP ( 'Revolve - Cutting Edge', #11 ) ;
#173 = SURFACE_STYLE_USAGE ( .BOTH. , #198 ) ;
#174 =( NAMED_UNIT ( * ) SI_UNIT ( $, .STERADIAN. ) SOLID_ANGLE_UNIT ( ) );
#175 =( GEOMETRIC_REPRESENTATION_CONTEXT ( 3 ) GLOBAL_UNCERTAINTY_ASSIGNED_CONTEXT ( ( #62 ) ) GLOBAL_UNIT_ASSIGNED_CONTEXT ( ( #193, #170, #129 ) ) REPRESENTATION_CONTEXT ( 'NONE', 'WORKASPACE' ) );
#176 = APPLICATION_PROTOCOL_DEFINITION ( 'draft international standard', 'automotive_design', 1998, #262 ) ;
#177 = LINE ( 'NONE', #100, #165 ) ;
#178 = ADVANCED_FACE ( 'NONE', ( #161 ), #5, .T. ) ;
#179 = ORIENTED_EDGE ( 'NONE', *, *, #186, .F. ) ;
#180 = CARTESIAN_POINT ( 'NONE',  ( 0.06250000000000005551, 2.500000000000000000, 7.654042494670956004E-18 ) ) ;
#181 =( NAMED_UNIT ( * ) SI_UNIT ( $, .STERADIAN. ) SOLID_ANGLE_UNIT ( ) );
#182 = STYLED_ITEM ( 'NONE', ( #218 ), #107 ) ;
#183 = DIRECTION ( 'NONE',  ( 1.130443199212941346E-16, 1.000000000000000000, -0.000000000000000000 ) ) ;
#184 = PLANE ( 'NONE',  #206 ) ;
#185 = STYLED_ITEM ( 'NONE', ( #249 ), #64 ) ;
#186 = EDGE_CURVE ( 'NONE', #55, #57, #217, .T. ) ;
#187 =( NAMED_UNIT ( * ) PLANE_ANGLE_UNIT ( ) SI_UNIT ( $, .RADIAN. ) );
#188 = DIRECTION ( 'NONE',  ( 1.130443199212941346E-16, 1.000000000000000000, -0.000000000000000000 ) ) ;
#189 = AXIS2_PLACEMENT_3D ( 'NONE', #157, #288, #80 ) ;
#190 = PRODUCT_DEFINITION ( 'UNKNOWN', '', #225, #285 ) ;
#191 =( LENGTH_UNIT ( ) NAMED_UNIT ( * ) SI_UNIT ( $, .METRE. ) );
#192 = SURFACE_STYLE_USAGE ( .BOTH. , #256 ) ;
#193 =( CONVERSION_BASED_UNIT ( 'INCH', #139 ) LENGTH_UNIT ( ) NAMED_UNIT ( #135 ) );
#194 = DIRECTION ( 'NONE',  ( -1.000000000000000000, 0.000000000000000000, 0.000000000000000000 ) ) ;
#195 = VERTEX_POINT ( 'NONE', #300 ) ;
#196 = FILL_AREA_STYLE_COLOUR ( '', #247 ) ;
#197 = DIRECTION ( 'NONE',  ( -0.000000000000000000, -1.000000000000000000, -0.000000000000000000 ) ) ;
#198 = SURFACE_SIDE_STYLE ('',( #66 ) ) ;
#199 = ORIENTED_EDGE ( 'NONE', *, *, #45, .T. ) ;
#200 = FILL_AREA_STYLE ('',( #196 ) ) ;
#201 = DIMENSIONAL_EXPONENTS ( 1.000000000000000000, 0.000000000000000000, 0.000000000000000000, 0.000000000000000000, 0.000000000000000000, 0.000000000000000000, 0.000000000000000000 ) ;
#202 = LINE ( 'NONE', #17, #22 ) ;
#203 = LENGTH_MEASURE_WITH_UNIT ( LENGTH_MEASURE( 0.02539999999999999897 ), #40 );
#204 = EDGE_LOOP ( 'NONE', ( #67, #239, #104, #74 ) ) ;
#205 = CARTESIAN_POINT ( 'NONE',  ( 0.000000000000000000, 0.000000000000000000, 0.000000000000000000 ) ) ;
#206 = AXIS2_PLACEMENT_3D ( 'NONE', #205, #97, #289 ) ;
#207 = PRODUCT_DEFINITION_SHAPE ( 'NONE', 'NONE',  #190 ) ;
#208 = ORIENTED_EDGE ( 'NONE', *, *, #156, .T. ) ;
#209 = SURFACE_STYLE_USAGE ( .BOTH. , #28 ) ;
#210 = DIRECTION ( 'NONE',  ( -0.000000000000000000, -1.000000000000000000, -0.000000000000000000 ) ) ;
#211 = CLOSED_SHELL ( 'NONE', ( #178, #3, #297, #37 ) ) ;
#212 = ORIENTED_EDGE ( 'NONE', *, *, #263, .T. ) ;
#213 = ORIENTED_EDGE ( 'NONE', *, *, #156, .F. ) ;
#214 = UNCERTAINTY_MEASURE_WITH_UNIT (LENGTH_MEASURE( 1.000000000000000082E-05 ), #118, 'distance_accuracy_value', 'NONE');
#215 = CARTESIAN_POINT ( 'NONE',  ( 0.06250000000000012490, 2.500000000000000000, 7.654042494670949841E-18 ) ) ;
#216 = AXIS2_PLACEMENT_3D ( 'NONE', #81, #155, #128 ) ;
#217 = LINE ( 'NONE', #215, #77 ) ;
#218 = PRESENTATION_STYLE_ASSIGNMENT (( #173 ) ) ;
#219 = FILL_AREA_STYLE ('',( #284 ) ) ;
#220 = CARTESIAN_POINT ( 'NONE',  ( 7.654042494670959086E-18, 0.000000000000000000, 0.06250000000000001388 ) ) ;
#221 = CYLINDRICAL_SURFACE ( 'NONE', #32, 0.06250000000000001388 ) ;
#222 = CARTESIAN_POINT ( 'NONE',  ( 0.000000000000000000, 0.000000000000000000, 0.000000000000000000 ) ) ;
#223 = EDGE_LOOP ( 'NONE', ( #102, #272, #92, #99 ) ) ;
#224 =( NAMED_UNIT ( * ) PLANE_ANGLE_UNIT ( ) SI_UNIT ( $, .RADIAN. ) );
#225 = PRODUCT_DEFINITION_FORMATION_WITH_SPECIFIED_SOURCE ( 'ANY', '', #83, .NOT_KNOWN. ) ;
#226 = STYLED_ITEM ( 'NONE', ( #120 ), #98 ) ;
#227 = DIRECTION ( 'NONE',  ( 0.000000000000000000, 0.000000000000000000, -1.000000000000000000 ) ) ;
#228 = PRESENTATION_STYLE_ASSIGNMENT (( #133 ) ) ;
#229 = SURFACE_STYLE_FILL_AREA ( #246 ) ;
#230 = STYLED_ITEM ( 'NONE', ( #93 ), #94 ) ;
#231 =( NAMED_UNIT ( * ) SI_UNIT ( $, .STERADIAN. ) SOLID_ANGLE_UNIT ( ) );
#232 = DIMENSIONAL_EXPONENTS ( 1.000000000000000000, 0.000000000000000000, 0.000000000000000000, 0.000000000000000000, 0.000000000000000000, 0.000000000000000000, 0.000000000000000000 ) ;
#233 = DIRECTION ( 'NONE',  ( 0.000000000000000000, 0.000000000000000000, -1.000000000000000000 ) ) ;
#234 = AXIS2_PLACEMENT_3D ( 'NONE', #9, #210, #267 ) ;
#235 = FACE_OUTER_BOUND ( 'NONE', #146, .T. ) ;
#236 = CARTESIAN_POINT ( 'NONE',  ( 0.000000000000000000, 0.000000000000000000, -0.06250000000000001388 ) ) ;
#237 = DIRECTION ( 'NONE',  ( 0.000000000000000000, 0.000000000000000000, 1.000000000000000000 ) ) ;
#238 = SHAPE_DEFINITION_REPRESENTATION ( #207, #47 ) ;
#239 = ORIENTED_EDGE ( 'NONE', *, *, #186, .T. ) ;
#240 = AXIS2_PLACEMENT_3D ( 'NONE', #160, #274, #56 ) ;
#241 =( LENGTH_UNIT ( ) NAMED_UNIT ( * ) SI_UNIT ( $, .METRE. ) );
#242 = CARTESIAN_POINT ( 'NONE',  ( 1.836970198721029688E-16, 2.500000000000000000, 0.000000000000000000 ) ) ;
#243 = UNCERTAINTY_MEASURE_WITH_UNIT (LENGTH_MEASURE( 1.000000000000000082E-05 ), #43, 'distance_accuracy_value', 'NONE');
#244 = APPLICATION_CONTEXT ( 'automotive_design' ) ;
#245 = VERTEX_POINT ( 'NONE', #220 ) ;
#246 = FILL_AREA_STYLE ('',( #273 ) ) ;
#247 = COLOUR_RGB ( '',1.000000000000000000, 0.000000000000000000, 0.000000000000000000 ) ;
#248 = PLANE ( 'NONE',  #216 ) ;
#249 = PRESENTATION_STYLE_ASSIGNMENT (( #209 ) ) ;
#250 =( NAMED_UNIT ( * ) SI_UNIT ( $, .STERADIAN. ) SOLID_ANGLE_UNIT ( ) );
#251 = COLOUR_RGB ( '',0.7921568627450980005, 0.8196078431372548767, 0.9333333333333333481 ) ;
#252 = AXIS2_PLACEMENT_3D ( 'NONE', #280, #197, #233 ) ;
#253 = SURFACE_SIDE_STYLE ('',( #2 ) ) ;
#254 = CARTESIAN_POINT ( 'NONE',  ( 0.000000000000000000, 0.8750000000000000000, 0.000000000000000000 ) ) ;
#255 = CARTESIAN_POINT ( 'NONE',  ( 0.000000000000000000, 0.000000000000000000, 0.000000000000000000 ) ) ;
#256 = SURFACE_SIDE_STYLE ('',( #167 ) ) ;
#257 = FILL_AREA_STYLE ('',( #143 ) ) ;
#258 =( NAMED_UNIT ( * ) SI_UNIT ( $, .STERADIAN. ) SOLID_ANGLE_UNIT ( ) );
#259 = FACE_OUTER_BOUND ( 'NONE', #261, .T. ) ;
#260 = DIMENSIONAL_EXPONENTS ( 1.000000000000000000, 0.000000000000000000, 0.000000000000000000, 0.000000000000000000, 0.000000000000000000, 0.000000000000000000, 0.000000000000000000 ) ;
#261 = EDGE_LOOP ( 'NONE', ( #30, #125, #306, #213 ) ) ;
#262 = APPLICATION_CONTEXT ( 'automotive_design' ) ;
#263 = EDGE_CURVE ( 'NONE', #33, #57, #264, .T. ) ;
#264 = CIRCLE ( 'NONE', #60, 0.06249999999999986122 ) ;
#265 = CARTESIAN_POINT ( 'NONE',  ( 0.000000000000000000, 0.8750000000000000000, 0.000000000000000000 ) ) ;
#266 = ORIENTED_EDGE ( 'NONE', *, *, #110, .F. ) ;
#267 = DIRECTION ( 'NONE',  ( 0.000000000000000000, 0.000000000000000000, -1.000000000000000000 ) ) ;
#268 = FILL_AREA_STYLE ('',( #31 ) ) ;
#269 = COLOUR_RGB ( '',1.000000000000000000, 0.000000000000000000, 0.000000000000000000 ) ;
#270 = ORIENTED_EDGE ( 'NONE', *, *, #29, .F. ) ;
#271 = CARTESIAN_POINT ( 'NONE',  ( -0.06249999999999967387, 2.500000000000000000, 0.000000000000000000 ) ) ;
#272 = ORIENTED_EDGE ( 'NONE', *, *, #88, .T. ) ;
#273 = FILL_AREA_STYLE_COLOUR ( '', #13 ) ;
#274 = DIRECTION ( 'NONE',  ( 1.130443199212941346E-16, 1.000000000000000000, -0.000000000000000000 ) ) ;
#275 = ORIENTED_EDGE ( 'NONE', *, *, #19, .F. ) ;
#276 = PRESENTATION_LAYER_ASSIGNMENT (  '', '', ( #226 ) ) ;
#277 = DIRECTION ( 'NONE',  ( -1.000000000000000000, 0.000000000000000000, 0.000000000000000000 ) ) ;
#278 = DIRECTION ( 'NONE',  ( 0.000000000000000000, 1.000000000000000000, 0.000000000000000000 ) ) ;
#279 = DIRECTION ( 'NONE',  ( 1.130443199212941346E-16, 1.000000000000000000, -0.000000000000000000 ) ) ;
#280 = CARTESIAN_POINT ( 'NONE',  ( 0.000000000000000000, 0.000000000000000000, 0.000000000000000000 ) ) ;
#281 = CYLINDRICAL_SURFACE ( 'NONE', #8, 0.06249999999999993755 ) ;
#282 = PRESENTATION_STYLE_ASSIGNMENT (( #192 ) ) ;
#283 = CIRCLE ( 'NONE', #252, 0.06250000000000001388 ) ;
#284 = FILL_AREA_STYLE_COLOUR ( '', #269 ) ;
#285 = PRODUCT_DEFINITION_CONTEXT ( 'detailed design', #262, 'design' ) ;
#286 = LENGTH_MEASURE_WITH_UNIT ( LENGTH_MEASURE( 0.02539999999999999897 ), #241 );
#287 =( CONVERSION_BASED_UNIT ( 'INCH', #286 ) LENGTH_UNIT ( ) NAMED_UNIT ( #73 ) );
#288 = DIRECTION ( 'NONE',  ( 1.130443199212941346E-16, 1.000000000000000000, -0.000000000000000000 ) ) ;
#289 = DIRECTION ( 'NONE',  ( 0.000000000000000000, 0.000000000000000000, -1.000000000000000000 ) ) ;
#290 = LENGTH_MEASURE_WITH_UNIT ( LENGTH_MEASURE( 0.02539999999999999897 ), #27 );
#291 =( GEOMETRIC_REPRESENTATION_CONTEXT ( 3 ) GLOBAL_UNCERTAINTY_ASSIGNED_CONTEXT ( ( #214 ) ) GLOBAL_UNIT_ASSIGNED_CONTEXT ( ( #118, #142, #250 ) ) REPRESENTATION_CONTEXT ( 'NONE', 'WORKASPACE' ) );
#292 = ORIENTED_EDGE ( 'NONE', *, *, #45, .F. ) ;
#293 = AXIS2_PLACEMENT_3D ( 'NONE', #254, #132, #227 ) ;
#294 = CARTESIAN_POINT ( 'NONE',  ( 1.836970198721029688E-16, 2.500000000000000000, 0.000000000000000000 ) ) ;
#295 = LENGTH_MEASURE_WITH_UNIT ( LENGTH_MEASURE( 0.02539999999999999897 ), #85 );
#296 =( GEOMETRIC_REPRESENTATION_CONTEXT ( 3 ) GLOBAL_UNCERTAINTY_ASSIGNED_CONTEXT ( ( #14 ) ) GLOBAL_UNIT_ASSIGNED_CONTEXT ( ( #304, #44, #174 ) ) REPRESENTATION_CONTEXT ( 'NONE', 'WORKASPACE' ) );
#297 = ADVANCED_FACE ( 'NONE', ( #119 ), #281, .T. ) ;
#298 = DIMENSIONAL_EXPONENTS ( 1.000000000000000000, 0.000000000000000000, 0.000000000000000000, 0.000000000000000000, 0.000000000000000000, 0.000000000000000000, 0.000000000000000000 ) ;
#299 = DIRECTION ( 'NONE',  ( 0.000000000000000000, 0.000000000000000000, -1.000000000000000000 ) ) ;
#300 = CARTESIAN_POINT ( 'NONE',  ( 7.654042494670959086E-18, 0.8750000000000000000, 0.06250000000000001388 ) ) ;
#301 = UNCERTAINTY_MEASURE_WITH_UNIT (LENGTH_MEASURE( 1.000000000000000082E-05 ), #287, 'distance_accuracy_value', 'NONE');
#302 = SURFACE_STYLE_USAGE ( .BOTH. , #75 ) ;
#303 = DIRECTION ( 'NONE',  ( 1.130443199212941346E-16, 1.000000000000000000, -0.000000000000000000 ) ) ;
#304 =( CONVERSION_BASED_UNIT ( 'INCH', #114 ) LENGTH_UNIT ( ) NAMED_UNIT ( #137 ) );
#305 = CIRCLE ( 'NONE', #293, 0.06250000000000001388 ) ;
#306 = ORIENTED_EDGE ( 'NONE', *, *, #147, .T. ) ;
#307 =( NAMED_UNIT ( * ) SI_UNIT ( $, .STERADIAN. ) SOLID_ANGLE_UNIT ( ) );
#308 = SURFACE_STYLE_FILL_AREA ( #200 ) ;
#309 = CIRCLE ( 'NONE', #240, 0.06250000000000001388 ) ;
ENDSEC;
END-ISO-10303-21;
