ISO-10303-21;
HEADER;
FILE_DESCRIPTION (( 'STEP AP214' ),
    '1' );
FILE_NAME ('00557.STEP',
    '2023-06-22T14:11:00',
    ( '' ),
    ( '' ),
    'SwSTEP 2.0',
    'SolidWorks 2023',
    '' );
FILE_SCHEMA (( 'AUTOMOTIVE_DESIGN' ));
ENDSEC;

DATA;
#1 = CYLINDRICAL_SURFACE ( 'NONE', #58, 0.3124999999999998890 ) ;
#2 = EDGE_CURVE ( 'NONE', #30, #189, #214, .T. ) ;
#3 = ORIENTED_EDGE ( 'NONE', *, *, #153, .F. ) ;
#4 = AXIS2_PLACEMENT_3D ( 'NONE', #141, #114, #210 ) ;
#5 =( LENGTH_UNIT ( ) NAMED_UNIT ( * ) SI_UNIT ( $, .METRE. ) );
#6 = FACE_OUTER_BOUND ( 'NONE', #182, .T. ) ;
#7 = CARTESIAN_POINT ( 'NONE',  ( 3.673940397442060361E-16, 3.000000000000000444, 0.000000000000000000 ) ) ;
#8 = MECHANICAL_DESIGN_GEOMETRIC_PRESENTATION_REPRESENTATION (  '', ( #132 ), #213 ) ;
#9 = CARTESIAN_POINT ( 'NONE',  ( 4.165999396282938712E-33, 0.7499999999999998890, 0.000000000000000000 ) ) ;
#10 = MANIFOLD_SOLID_BREP ( 'Revolve - Cutting Edge', #109 ) ;
#11 = ORIENTED_EDGE ( 'NONE', *, *, #135, .T. ) ;
#12 = LENGTH_MEASURE_WITH_UNIT ( LENGTH_MEASURE( 0.02539999999999999897 ), #276 );
#13 = EDGE_LOOP ( 'NONE', ( #267, #251, #146, #232 ) ) ;
#14 = LINE ( 'NONE', #119, #219 ) ;
#15 = AXIS2_PLACEMENT_3D ( 'NONE', #19, #252, #154 ) ;
#16 = CIRCLE ( 'NONE', #164, 0.3125000000000000000 ) ;
#17 = VERTEX_POINT ( 'NONE', #269 ) ;
#18 = MANIFOLD_SOLID_BREP ( 'Revolve - Tool Body (Straight Shanked)', #84 ) ;
#19 = CARTESIAN_POINT ( 'NONE',  ( 3.673940397442060361E-16, 3.000000000000000444, 0.000000000000000000 ) ) ;
#20 = DIRECTION ( 'NONE',  ( 1.000000000000000000, 0.000000000000000000, 0.000000000000000000 ) ) ;
#21 =( CONVERSION_BASED_UNIT ( 'INCH', #115 ) LENGTH_UNIT ( ) NAMED_UNIT ( #89 ) );
#22 =( GEOMETRIC_REPRESENTATION_CONTEXT ( 3 ) GLOBAL_UNCERTAINTY_ASSIGNED_CONTEXT ( ( #175 ) ) GLOBAL_UNIT_ASSIGNED_CONTEXT ( ( #125, #299, #278 ) ) REPRESENTATION_CONTEXT ( 'NONE', 'WORKASPACE' ) );
#23 = PRESENTATION_STYLE_ASSIGNMENT (( #223 ) ) ;
#24 = PRODUCT_DEFINITION_SHAPE ( 'NONE', 'NONE',  #87 ) ;
#25 =( NAMED_UNIT ( * ) SI_UNIT ( $, .STERADIAN. ) SOLID_ANGLE_UNIT ( ) );
#26 = ADVANCED_FACE ( 'NONE', ( #108 ), #196, .T. ) ;
#27 = DIRECTION ( 'NONE',  ( -1.000000000000000000, 0.000000000000000000, 0.000000000000000000 ) ) ;
#28 = AXIS2_PLACEMENT_3D ( 'NONE', #183, #233, #29 ) ;
#29 = DIRECTION ( 'NONE',  ( 1.000000000000000000, -1.632862398863137774E-16, 0.000000000000000000 ) ) ;
#30 = VERTEX_POINT ( 'NONE', #42 ) ;
#31 = SURFACE_STYLE_USAGE ( .BOTH. , #239 ) ;
#32 = PRESENTATION_STYLE_ASSIGNMENT (( #116 ) ) ;
#33 = PRODUCT_DEFINITION_FORMATION_WITH_SPECIFIED_SOURCE ( 'ANY', '', #270, .NOT_KNOWN. ) ;
#34 =( CONVERSION_BASED_UNIT ( 'INCH', #117 ) LENGTH_UNIT ( ) NAMED_UNIT ( #257 ) );
#35 = UNCERTAINTY_MEASURE_WITH_UNIT (LENGTH_MEASURE( 1.000000000000000082E-05 ), #245, 'distance_accuracy_value', 'NONE');
#36 = PRODUCT_RELATED_PRODUCT_CATEGORY ( 'part', '', ( #270 ) ) ;
#37 = FILL_AREA_STYLE_COLOUR ( '', #202 ) ;
#38 =( NAMED_UNIT ( * ) PLANE_ANGLE_UNIT ( ) SI_UNIT ( $, .RADIAN. ) );
#39 = COLOUR_RGB ( '',1.000000000000000000, 0.000000000000000000, 0.000000000000000000 ) ;
#40 = EDGE_CURVE ( 'NONE', #17, #142, #97, .T. ) ;
#41 = SURFACE_SIDE_STYLE ('',( #240 ) ) ;
#42 = CARTESIAN_POINT ( 'NONE',  ( 0.3125000000000000000, 0.7499999999999998890, 3.827021247335477694E-17 ) ) ;
#43 =( NAMED_UNIT ( * ) PLANE_ANGLE_UNIT ( ) SI_UNIT ( $, .RADIAN. ) );
#44 =( NAMED_UNIT ( * ) PLANE_ANGLE_UNIT ( ) SI_UNIT ( $, .RADIAN. ) );
#45 = FILL_AREA_STYLE ('',( #306 ) ) ;
#46 = PRESENTATION_LAYER_ASSIGNMENT (  '', '', ( #235 ) ) ;
#47 =( GEOMETRIC_REPRESENTATION_CONTEXT ( 3 ) GLOBAL_UNCERTAINTY_ASSIGNED_CONTEXT ( ( #144 ) ) GLOBAL_UNIT_ASSIGNED_CONTEXT ( ( #21, #148, #25 ) ) REPRESENTATION_CONTEXT ( 'NONE', 'WORKASPACE' ) );
#48 = FACE_OUTER_BOUND ( 'NONE', #13, .T. ) ;
#49 = DIRECTION ( 'NONE',  ( -1.000000000000000000, 0.000000000000000000, 0.000000000000000000 ) ) ;
#50 = AXIS2_PLACEMENT_3D ( 'NONE', #104, #178, #199 ) ;
#51 = ORIENTED_EDGE ( 'NONE', *, *, #229, .F. ) ;
#52 = FILL_AREA_STYLE_COLOUR ( '', #39 ) ;
#53 = SURFACE_STYLE_FILL_AREA ( #71 ) ;
#54 =( CONVERSION_BASED_UNIT ( 'INCH', #166 ) LENGTH_UNIT ( ) NAMED_UNIT ( #282 ) );
#55 = ORIENTED_EDGE ( 'NONE', *, *, #261, .T. ) ;
#56 = APPLICATION_PROTOCOL_DEFINITION ( 'draft international standard', 'automotive_design', 1998, #61 ) ;
#57 = PRESENTATION_STYLE_ASSIGNMENT (( #31 ) ) ;
#58 = AXIS2_PLACEMENT_3D ( 'NONE', #288, #66, #160 ) ;
#59 = ADVANCED_FACE ( 'NONE', ( #305 ), #60, .T. ) ;
#60 = PLANE ( 'NONE',  #99 ) ;
#61 = APPLICATION_CONTEXT ( 'automotive_design' ) ;
#62 = DIRECTION ( 'NONE',  ( -0.000000000000000000, -1.000000000000000000, -0.000000000000000000 ) ) ;
#63 =( NAMED_UNIT ( * ) SI_UNIT ( $, .STERADIAN. ) SOLID_ANGLE_UNIT ( ) );
#64 = CIRCLE ( 'NONE', #4, 0.3125000000000000000 ) ;
#65 = MECHANICAL_DESIGN_GEOMETRIC_PRESENTATION_REPRESENTATION (  '', ( #286 ), #130 ) ;
#66 = DIRECTION ( 'NONE',  ( 1.632862398863137774E-16, 1.000000000000000000, -0.000000000000000000 ) ) ;
#67 = SURFACE_SIDE_STYLE ('',( #218 ) ) ;
#68 = ORIENTED_EDGE ( 'NONE', *, *, #273, .F. ) ;
#69 = FILL_AREA_STYLE ('',( #264 ) ) ;
#70 = AXIS2_PLACEMENT_3D ( 'NONE', #221, #198, #20 ) ;
#71 = FILL_AREA_STYLE ('',( #52 ) ) ;
#72 = ORIENTED_EDGE ( 'NONE', *, *, #266, .F. ) ;
#73 = CARTESIAN_POINT ( 'NONE',  ( 0.3125000000000000000, 3.000000000000000444, 3.827021247335477694E-17 ) ) ;
#74 = EDGE_LOOP ( 'NONE', ( #76, #55, #159, #68 ) ) ;
#75 = CARTESIAN_POINT ( 'NONE',  ( 3.827021247335478926E-17, 0.000000000000000000, 0.3125000000000000000 ) ) ;
#76 = ORIENTED_EDGE ( 'NONE', *, *, #40, .T. ) ;
#77 = DIRECTION ( 'NONE',  ( 0.000000000000000000, -0.000000000000000000, 1.000000000000000000 ) ) ;
#78 = ORIENTED_EDGE ( 'NONE', *, *, #2, .T. ) ;
#79 = DIRECTION ( 'NONE',  ( 1.632862398863137774E-16, 1.000000000000000000, -0.000000000000000000 ) ) ;
#80 = SURFACE_SIDE_STYLE ('',( #247 ) ) ;
#81 = ADVANCED_FACE ( 'NONE', ( #105 ), #200, .T. ) ;
#82 = PRESENTATION_STYLE_ASSIGNMENT (( #302 ) ) ;
#83 = DIRECTION ( 'NONE',  ( 1.632862398863137774E-16, 1.000000000000000000, -0.000000000000000000 ) ) ;
#84 = CLOSED_SHELL ( 'NONE', ( #107, #192, #26, #204 ) ) ;
#85 = MECHANICAL_DESIGN_GEOMETRIC_PRESENTATION_REPRESENTATION (  '', ( #118 ), #47 ) ;
#86 = FILL_AREA_STYLE_COLOUR ( '', #263 ) ;
#87 = PRODUCT_DEFINITION ( 'UNKNOWN', '', #33, #129 ) ;
#88 = SURFACE_STYLE_FILL_AREA ( #254 ) ;
#89 = DIMENSIONAL_EXPONENTS ( 1.000000000000000000, 0.000000000000000000, 0.000000000000000000, 0.000000000000000000, 0.000000000000000000, 0.000000000000000000, 0.000000000000000000 ) ;
#90 = CIRCLE ( 'NONE', #170, 0.3125000000000000000 ) ;
#91 = PLANE ( 'NONE',  #225 ) ;
#92 = APPLICATION_CONTEXT ( 'automotive_design' ) ;
#93 = PRESENTATION_LAYER_ASSIGNMENT (  '', '', ( #118 ) ) ;
#94 = EDGE_CURVE ( 'NONE', #134, #275, #187, .T. ) ;
#95 = FILL_AREA_STYLE ('',( #37 ) ) ;
#96 = DIRECTION ( 'NONE',  ( 1.632862398863137774E-16, 1.000000000000000000, -0.000000000000000000 ) ) ;
#97 = CIRCLE ( 'NONE', #50, 0.3125000000000000000 ) ;
#98 = ADVANCED_BREP_SHAPE_REPRESENTATION ( '00557', ( #10, #18, #70 ), #124 ) ;
#99 = AXIS2_PLACEMENT_3D ( 'NONE', #285, #206, #155 ) ;
#100 = ORIENTED_EDGE ( 'NONE', *, *, #94, .T. ) ;
#101 = EDGE_CURVE ( 'NONE', #161, #30, #110, .T. ) ;
#102 = CARTESIAN_POINT ( 'NONE',  ( 3.827021247335478926E-17, 0.000000000000000000, 0.3125000000000000000 ) ) ;
#103 = SURFACE_STYLE_USAGE ( .BOTH. , #80 ) ;
#104 = CARTESIAN_POINT ( 'NONE',  ( 0.000000000000000000, 0.7499999999999998890, 0.000000000000000000 ) ) ;
#105 = FACE_OUTER_BOUND ( 'NONE', #74, .T. ) ;
#106 = MECHANICAL_DESIGN_GEOMETRIC_PRESENTATION_REPRESENTATION (  '', ( #243 ), #22 ) ;
#107 = ADVANCED_FACE ( 'NONE', ( #205 ), #1, .T. ) ;
#108 = FACE_OUTER_BOUND ( 'NONE', #262, .T. ) ;
#109 = CLOSED_SHELL ( 'NONE', ( #81, #249, #122, #59 ) ) ;
#110 = CIRCLE ( 'NONE', #258, 0.3125000000000000000 ) ;
#111 = UNCERTAINTY_MEASURE_WITH_UNIT (LENGTH_MEASURE( 1.000000000000000082E-05 ), #34, 'distance_accuracy_value', 'NONE');
#112 = CARTESIAN_POINT ( 'NONE',  ( 0.000000000000000000, 0.000000000000000000, 0.000000000000000000 ) ) ;
#113 = ORIENTED_EDGE ( 'NONE', *, *, #266, .T. ) ;
#114 = DIRECTION ( 'NONE',  ( -0.000000000000000000, -1.000000000000000000, -0.000000000000000000 ) ) ;
#115 = LENGTH_MEASURE_WITH_UNIT ( LENGTH_MEASURE( 0.02539999999999999897 ), #265 );
#116 = SURFACE_STYLE_USAGE ( .BOTH. , #241 ) ;
#117 = LENGTH_MEASURE_WITH_UNIT ( LENGTH_MEASURE( 0.02539999999999999897 ), #304 );
#118 = STYLED_ITEM ( 'NONE', ( #184 ), #81 ) ;
#119 = CARTESIAN_POINT ( 'NONE',  ( -0.3124999999999995559, 3.000000000000000444, 0.000000000000000000 ) ) ;
#120 = ORIENTED_EDGE ( 'NONE', *, *, #283, .T. ) ;
#121 = SHAPE_DEFINITION_REPRESENTATION ( #24, #98 ) ;
#122 = ADVANCED_FACE ( 'NONE', ( #48 ), #226, .T. ) ;
#123 = ORIENTED_EDGE ( 'NONE', *, *, #2, .F. ) ;
#124 =( GEOMETRIC_REPRESENTATION_CONTEXT ( 3 ) GLOBAL_UNCERTAINTY_ASSIGNED_CONTEXT ( ( #35 ) ) GLOBAL_UNIT_ASSIGNED_CONTEXT ( ( #245, #38, #222 ) ) REPRESENTATION_CONTEXT ( 'NONE', 'WORKASPACE' ) );
#125 =( CONVERSION_BASED_UNIT ( 'INCH', #128 ) LENGTH_UNIT ( ) NAMED_UNIT ( #307 ) );
#126 = LENGTH_MEASURE_WITH_UNIT ( LENGTH_MEASURE( 0.02539999999999999897 ), #194 );
#127 =( LENGTH_UNIT ( ) NAMED_UNIT ( * ) SI_UNIT ( $, .METRE. ) );
#128 = LENGTH_MEASURE_WITH_UNIT ( LENGTH_MEASURE( 0.02539999999999999897 ), #127 );
#129 = PRODUCT_DEFINITION_CONTEXT ( 'detailed design', #92, 'design' ) ;
#130 =( GEOMETRIC_REPRESENTATION_CONTEXT ( 3 ) GLOBAL_UNCERTAINTY_ASSIGNED_CONTEXT ( ( #228 ) ) GLOBAL_UNIT_ASSIGNED_CONTEXT ( ( #300, #193, #143 ) ) REPRESENTATION_CONTEXT ( 'NONE', 'WORKASPACE' ) );
#131 = AXIS2_PLACEMENT_3D ( 'NONE', #112, #260, #203 ) ;
#132 = STYLED_ITEM ( 'NONE', ( #23 ), #59 ) ;
#133 =( NAMED_UNIT ( * ) SI_UNIT ( $, .STERADIAN. ) SOLID_ANGLE_UNIT ( ) );
#134 = VERTEX_POINT ( 'NONE', #75 ) ;
#135 = EDGE_CURVE ( 'NONE', #259, #189, #151, .T. ) ;
#136 = FACE_OUTER_BOUND ( 'NONE', #271, .T. ) ;
#137 = ORIENTED_EDGE ( 'NONE', *, *, #153, .T. ) ;
#138 = DIRECTION ( 'NONE',  ( 0.000000000000000000, 0.000000000000000000, -1.000000000000000000 ) ) ;
#139 = AXIS2_PLACEMENT_3D ( 'NONE', #9, #238, #297 ) ;
#140 = DIRECTION ( 'NONE',  ( -0.000000000000000000, -1.000000000000000000, -0.000000000000000000 ) ) ;
#141 = CARTESIAN_POINT ( 'NONE',  ( 0.000000000000000000, 0.7499999999999998890, 0.000000000000000000 ) ) ;
#142 = VERTEX_POINT ( 'NONE', #289 ) ;
#143 =( NAMED_UNIT ( * ) SI_UNIT ( $, .STERADIAN. ) SOLID_ANGLE_UNIT ( ) );
#144 = UNCERTAINTY_MEASURE_WITH_UNIT (LENGTH_MEASURE( 1.000000000000000082E-05 ), #21, 'distance_accuracy_value', 'NONE');
#145 = CARTESIAN_POINT ( 'NONE',  ( 0.000000000000000000, 0.7499999999999998890, 0.000000000000000000 ) ) ;
#146 = ORIENTED_EDGE ( 'NONE', *, *, #273, .T. ) ;
#147 = PRODUCT_CONTEXT ( 'NONE', #61, 'mechanical' ) ;
#148 =( NAMED_UNIT ( * ) PLANE_ANGLE_UNIT ( ) SI_UNIT ( $, .RADIAN. ) );
#149 = CARTESIAN_POINT ( 'NONE',  ( 0.000000000000000000, 0.000000000000000000, -0.3125000000000000000 ) ) ;
#150 = ORIENTED_EDGE ( 'NONE', *, *, #40, .F. ) ;
#151 = CIRCLE ( 'NONE', #281, 0.3124999999999996669 ) ;
#152 = DIRECTION ( 'NONE',  ( -0.000000000000000000, -1.000000000000000000, -0.000000000000000000 ) ) ;
#153 = EDGE_CURVE ( 'NONE', #189, #259, #181, .T. ) ;
#154 = DIRECTION ( 'NONE',  ( -1.000000000000000000, 0.000000000000000000, 0.000000000000000000 ) ) ;
#155 = DIRECTION ( 'NONE',  ( 0.000000000000000000, 0.000000000000000000, -1.000000000000000000 ) ) ;
#156 = COLOUR_RGB ( '',1.000000000000000000, 0.000000000000000000, 0.000000000000000000 ) ;
#157 = VECTOR ( 'NONE', #96, 39.37007874015748143 ) ;
#158 = CARTESIAN_POINT ( 'NONE',  ( 0.000000000000000000, 0.7499999999999998890, 0.000000000000000000 ) ) ;
#159 = ORIENTED_EDGE ( 'NONE', *, *, #283, .F. ) ;
#160 = DIRECTION ( 'NONE',  ( -1.000000000000000000, 0.000000000000000000, 0.000000000000000000 ) ) ;
#161 = VERTEX_POINT ( 'NONE', #209 ) ;
#162 = PLANE ( 'NONE',  #28 ) ;
#163 = PRESENTATION_LAYER_ASSIGNMENT (  '', '', ( #255 ) ) ;
#164 = AXIS2_PLACEMENT_3D ( 'NONE', #173, #79, #274 ) ;
#165 = ORIENTED_EDGE ( 'NONE', *, *, #291, .F. ) ;
#166 = LENGTH_MEASURE_WITH_UNIT ( LENGTH_MEASURE( 0.02539999999999999897 ), #5 );
#167 = CARTESIAN_POINT ( 'NONE',  ( 3.673940397442060361E-16, 3.000000000000000444, 0.000000000000000000 ) ) ;
#168 = SURFACE_STYLE_USAGE ( .BOTH. , #67 ) ;
#169 = COLOUR_RGB ( '',0.7921568627450980005, 0.8196078431372548767, 0.9333333333333333481 ) ;
#170 = AXIS2_PLACEMENT_3D ( 'NONE', #197, #152, #217 ) ;
#171 = ORIENTED_EDGE ( 'NONE', *, *, #101, .F. ) ;
#172 = ORIENTED_EDGE ( 'NONE', *, *, #101, .T. ) ;
#173 = CARTESIAN_POINT ( 'NONE',  ( 0.000000000000000000, 0.7499999999999998890, 0.000000000000000000 ) ) ;
#174 = EDGE_LOOP ( 'NONE', ( #172, #78, #207, #72 ) ) ;
#175 = UNCERTAINTY_MEASURE_WITH_UNIT (LENGTH_MEASURE( 1.000000000000000082E-05 ), #125, 'distance_accuracy_value', 'NONE');
#176 = DIRECTION ( 'NONE',  ( -0.000000000000000000, -1.000000000000000000, -0.000000000000000000 ) ) ;
#177 = COLOUR_RGB ( '',1.000000000000000000, 0.000000000000000000, 0.000000000000000000 ) ;
#178 = DIRECTION ( 'NONE',  ( -0.000000000000000000, -1.000000000000000000, -0.000000000000000000 ) ) ;
#179 = LINE ( 'NONE', #149, #256 ) ;
#180 = DIRECTION ( 'NONE',  ( 0.000000000000000000, 0.000000000000000000, -1.000000000000000000 ) ) ;
#181 = CIRCLE ( 'NONE', #208, 0.3124999999999996669 ) ;
#182 = EDGE_LOOP ( 'NONE', ( #150, #51 ) ) ;
#183 = CARTESIAN_POINT ( 'NONE',  ( 0.3125000000000000000, 3.000000000000000444, 0.000000000000000000 ) ) ;
#184 = PRESENTATION_STYLE_ASSIGNMENT (( #168 ) ) ;
#185 = DIRECTION ( 'NONE',  ( -1.000000000000000000, 0.000000000000000000, 0.000000000000000000 ) ) ;
#186 =( GEOMETRIC_REPRESENTATION_CONTEXT ( 3 ) GLOBAL_UNCERTAINTY_ASSIGNED_CONTEXT ( ( #111 ) ) GLOBAL_UNIT_ASSIGNED_CONTEXT ( ( #34, #44, #63 ) ) REPRESENTATION_CONTEXT ( 'NONE', 'WORKASPACE' ) );
#187 = CIRCLE ( 'NONE', #250, 0.3125000000000000000 ) ;
#188 =( NAMED_UNIT ( * ) SI_UNIT ( $, .STERADIAN. ) SOLID_ANGLE_UNIT ( ) );
#189 = VERTEX_POINT ( 'NONE', #73 ) ;
#190 = UNCERTAINTY_MEASURE_WITH_UNIT (LENGTH_MEASURE( 1.000000000000000082E-05 ), #54, 'distance_accuracy_value', 'NONE');
#191 = FACE_OUTER_BOUND ( 'NONE', #220, .T. ) ;
#192 = ADVANCED_FACE ( 'NONE', ( #191 ), #236, .F. ) ;
#193 =( NAMED_UNIT ( * ) PLANE_ANGLE_UNIT ( ) SI_UNIT ( $, .RADIAN. ) );
#194 =( LENGTH_UNIT ( ) NAMED_UNIT ( * ) SI_UNIT ( $, .METRE. ) );
#195 = CARTESIAN_POINT ( 'NONE',  ( 0.000000000000000000, 0.000000000000000000, -0.3125000000000000000 ) ) ;
#196 = CYLINDRICAL_SURFACE ( 'NONE', #15, 0.3124999999999998890 ) ;
#197 = CARTESIAN_POINT ( 'NONE',  ( 0.000000000000000000, 0.000000000000000000, 0.000000000000000000 ) ) ;
#198 = DIRECTION ( 'NONE',  ( 0.000000000000000000, 0.000000000000000000, 1.000000000000000000 ) ) ;
#199 = DIRECTION ( 'NONE',  ( 0.000000000000000000, 0.000000000000000000, -1.000000000000000000 ) ) ;
#200 = CYLINDRICAL_SURFACE ( 'NONE', #131, 0.3125000000000000000 ) ;
#201 =( GEOMETRIC_REPRESENTATION_CONTEXT ( 3 ) GLOBAL_UNCERTAINTY_ASSIGNED_CONTEXT ( ( #190 ) ) GLOBAL_UNIT_ASSIGNED_CONTEXT ( ( #54, #212, #188 ) ) REPRESENTATION_CONTEXT ( 'NONE', 'WORKASPACE' ) );
#202 = COLOUR_RGB ( '',0.7921568627450980005, 0.8196078431372548767, 0.9333333333333333481 ) ;
#203 = DIRECTION ( 'NONE',  ( 0.000000000000000000, 0.000000000000000000, -1.000000000000000000 ) ) ;
#204 = ADVANCED_FACE ( 'NONE', ( #136 ), #162, .F. ) ;
#205 = FACE_OUTER_BOUND ( 'NONE', #174, .T. ) ;
#206 = DIRECTION ( 'NONE',  ( 0.000000000000000000, -1.000000000000000000, -0.000000000000000000 ) ) ;
#207 = ORIENTED_EDGE ( 'NONE', *, *, #135, .F. ) ;
#208 = AXIS2_PLACEMENT_3D ( 'NONE', #167, #293, #49 ) ;
#209 = CARTESIAN_POINT ( 'NONE',  ( -0.3125000000000000000, 0.7499999999999998890, 0.000000000000000000 ) ) ;
#210 = DIRECTION ( 'NONE',  ( 0.000000000000000000, 0.000000000000000000, -1.000000000000000000 ) ) ;
#211 =( LENGTH_UNIT ( ) NAMED_UNIT ( * ) SI_UNIT ( $, .METRE. ) );
#212 =( NAMED_UNIT ( * ) PLANE_ANGLE_UNIT ( ) SI_UNIT ( $, .RADIAN. ) );
#213 =( GEOMETRIC_REPRESENTATION_CONTEXT ( 3 ) GLOBAL_UNCERTAINTY_ASSIGNED_CONTEXT ( ( #303 ) ) GLOBAL_UNIT_ASSIGNED_CONTEXT ( ( #237, #43, #133 ) ) REPRESENTATION_CONTEXT ( 'NONE', 'WORKASPACE' ) );
#214 = LINE ( 'NONE', #216, #157 ) ;
#215 = CARTESIAN_POINT ( 'NONE',  ( 0.000000000000000000, 0.000000000000000000, 0.000000000000000000 ) ) ;
#216 = CARTESIAN_POINT ( 'NONE',  ( 0.3125000000000002220, 3.000000000000000444, 3.827021247335477078E-17 ) ) ;
#217 = DIRECTION ( 'NONE',  ( 0.000000000000000000, 0.000000000000000000, -1.000000000000000000 ) ) ;
#218 = SURFACE_STYLE_FILL_AREA ( #45 ) ;
#219 = VECTOR ( 'NONE', #83, 39.37007874015748143 ) ;
#220 = EDGE_LOOP ( 'NONE', ( #171, #165 ) ) ;
#221 = CARTESIAN_POINT ( 'NONE',  ( 0.000000000000000000, 0.000000000000000000, 0.000000000000000000 ) ) ;
#222 =( NAMED_UNIT ( * ) SI_UNIT ( $, .STERADIAN. ) SOLID_ANGLE_UNIT ( ) );
#223 = SURFACE_STYLE_USAGE ( .BOTH. , #279 ) ;
#224 = PRESENTATION_LAYER_ASSIGNMENT (  '', '', ( #286 ) ) ;
#225 = AXIS2_PLACEMENT_3D ( 'NONE', #145, #253, #77 ) ;
#226 = CYLINDRICAL_SURFACE ( 'NONE', #287, 0.3125000000000000000 ) ;
#227 = DIMENSIONAL_EXPONENTS ( 1.000000000000000000, 0.000000000000000000, 0.000000000000000000, 0.000000000000000000, 0.000000000000000000, 0.000000000000000000, 0.000000000000000000 ) ;
#228 = UNCERTAINTY_MEASURE_WITH_UNIT (LENGTH_MEASURE( 1.000000000000000082E-05 ), #300, 'distance_accuracy_value', 'NONE');
#229 = EDGE_CURVE ( 'NONE', #142, #17, #64, .T. ) ;
#230 = VECTOR ( 'NONE', #62, 39.37007874015748143 ) ;
#231 = DIRECTION ( 'NONE',  ( 1.632862398863137774E-16, 1.000000000000000000, -0.000000000000000000 ) ) ;
#232 = ORIENTED_EDGE ( 'NONE', *, *, #94, .F. ) ;
#233 = DIRECTION ( 'NONE',  ( -1.632862398863137774E-16, -1.000000000000000000, 0.000000000000000000 ) ) ;
#234 = MECHANICAL_DESIGN_GEOMETRIC_PRESENTATION_REPRESENTATION (  '', ( #255 ), #186 ) ;
#235 = STYLED_ITEM ( 'NONE', ( #32 ), #122 ) ;
#236 = PLANE ( 'NONE',  #139 ) ;
#237 =( CONVERSION_BASED_UNIT ( 'INCH', #295 ) LENGTH_UNIT ( ) NAMED_UNIT ( #227 ) );
#238 = DIRECTION ( 'NONE',  ( 1.632862398863137774E-16, 1.000000000000000000, -0.000000000000000000 ) ) ;
#239 = SURFACE_SIDE_STYLE ('',( #53 ) ) ;
#240 = SURFACE_STYLE_FILL_AREA ( #95 ) ;
#241 = SURFACE_SIDE_STYLE ('',( #268 ) ) ;
#242 = PRESENTATION_LAYER_ASSIGNMENT (  '', '', ( #243 ) ) ;
#243 = STYLED_ITEM ( 'NONE', ( #57 ), #249 ) ;
#244 = FILL_AREA_STYLE_COLOUR ( '', #169 ) ;
#245 =( CONVERSION_BASED_UNIT ( 'INCH', #12 ) LENGTH_UNIT ( ) NAMED_UNIT ( #284 ) );
#246 = EDGE_LOOP ( 'NONE', ( #120, #100 ) ) ;
#247 = SURFACE_STYLE_FILL_AREA ( #296 ) ;
#248 = APPLICATION_PROTOCOL_DEFINITION ( 'draft international standard', 'automotive_design', 1998, #92 ) ;
#249 = ADVANCED_FACE ( 'NONE', ( #6 ), #91, .T. ) ;
#250 = AXIS2_PLACEMENT_3D ( 'NONE', #309, #308, #180 ) ;
#251 = ORIENTED_EDGE ( 'NONE', *, *, #229, .T. ) ;
#252 = DIRECTION ( 'NONE',  ( 1.632862398863137774E-16, 1.000000000000000000, -0.000000000000000000 ) ) ;
#253 = DIRECTION ( 'NONE',  ( 0.000000000000000000, 1.000000000000000000, 0.000000000000000000 ) ) ;
#254 = FILL_AREA_STYLE ('',( #86 ) ) ;
#255 = STYLED_ITEM ( 'NONE', ( #298 ), #18 ) ;
#256 = VECTOR ( 'NONE', #176, 39.37007874015748143 ) ;
#257 = DIMENSIONAL_EXPONENTS ( 1.000000000000000000, 0.000000000000000000, 0.000000000000000000, 0.000000000000000000, 0.000000000000000000, 0.000000000000000000, 0.000000000000000000 ) ;
#258 = AXIS2_PLACEMENT_3D ( 'NONE', #158, #231, #27 ) ;
#259 = VERTEX_POINT ( 'NONE', #301 ) ;
#260 = DIRECTION ( 'NONE',  ( -0.000000000000000000, -1.000000000000000000, -0.000000000000000000 ) ) ;
#261 = EDGE_CURVE ( 'NONE', #142, #134, #272, .T. ) ;
#262 = EDGE_LOOP ( 'NONE', ( #123, #294, #113, #3 ) ) ;
#263 = COLOUR_RGB ( '',1.000000000000000000, 0.000000000000000000, 0.000000000000000000 ) ;
#264 = FILL_AREA_STYLE_COLOUR ( '', #177 ) ;
#265 =( LENGTH_UNIT ( ) NAMED_UNIT ( * ) SI_UNIT ( $, .METRE. ) );
#266 = EDGE_CURVE ( 'NONE', #161, #259, #14, .T. ) ;
#267 = ORIENTED_EDGE ( 'NONE', *, *, #261, .F. ) ;
#268 = SURFACE_STYLE_FILL_AREA ( #69 ) ;
#269 = CARTESIAN_POINT ( 'NONE',  ( 0.000000000000000000, 0.7499999999999998890, -0.3125000000000000000 ) ) ;
#270 = PRODUCT ( '00557', '00557', '', ( #147 ) ) ;
#271 = EDGE_LOOP ( 'NONE', ( #11, #137 ) ) ;
#272 = LINE ( 'NONE', #102, #230 ) ;
#273 = EDGE_CURVE ( 'NONE', #17, #275, #179, .T. ) ;
#274 = DIRECTION ( 'NONE',  ( -1.000000000000000000, 0.000000000000000000, 0.000000000000000000 ) ) ;
#275 = VERTEX_POINT ( 'NONE', #195 ) ;
#276 =( LENGTH_UNIT ( ) NAMED_UNIT ( * ) SI_UNIT ( $, .METRE. ) );
#277 = PRESENTATION_LAYER_ASSIGNMENT (  '', '', ( #132 ) ) ;
#278 =( NAMED_UNIT ( * ) SI_UNIT ( $, .STERADIAN. ) SOLID_ANGLE_UNIT ( ) );
#279 = SURFACE_SIDE_STYLE ('',( #88 ) ) ;
#280 = DIMENSIONAL_EXPONENTS ( 1.000000000000000000, 0.000000000000000000, 0.000000000000000000, 0.000000000000000000, 0.000000000000000000, 0.000000000000000000, 0.000000000000000000 ) ;
#281 = AXIS2_PLACEMENT_3D ( 'NONE', #7, #290, #185 ) ;
#282 = DIMENSIONAL_EXPONENTS ( 1.000000000000000000, 0.000000000000000000, 0.000000000000000000, 0.000000000000000000, 0.000000000000000000, 0.000000000000000000, 0.000000000000000000 ) ;
#283 = EDGE_CURVE ( 'NONE', #275, #134, #90, .T. ) ;
#284 = DIMENSIONAL_EXPONENTS ( 1.000000000000000000, 0.000000000000000000, 0.000000000000000000, 0.000000000000000000, 0.000000000000000000, 0.000000000000000000, 0.000000000000000000 ) ;
#285 = CARTESIAN_POINT ( 'NONE',  ( 0.000000000000000000, 0.000000000000000000, 0.000000000000000000 ) ) ;
#286 = STYLED_ITEM ( 'NONE', ( #82 ), #10 ) ;
#287 = AXIS2_PLACEMENT_3D ( 'NONE', #215, #140, #138 ) ;
#288 = CARTESIAN_POINT ( 'NONE',  ( 3.673940397442060361E-16, 3.000000000000000444, 0.000000000000000000 ) ) ;
#289 = CARTESIAN_POINT ( 'NONE',  ( 3.827021247335478926E-17, 0.7499999999999998890, 0.3125000000000000000 ) ) ;
#290 = DIRECTION ( 'NONE',  ( 1.632862398863137774E-16, 1.000000000000000000, -0.000000000000000000 ) ) ;
#291 = EDGE_CURVE ( 'NONE', #30, #161, #16, .T. ) ;
#292 = MECHANICAL_DESIGN_GEOMETRIC_PRESENTATION_REPRESENTATION (  '', ( #235 ), #201 ) ;
#293 = DIRECTION ( 'NONE',  ( 1.632862398863137774E-16, 1.000000000000000000, -0.000000000000000000 ) ) ;
#294 = ORIENTED_EDGE ( 'NONE', *, *, #291, .T. ) ;
#295 = LENGTH_MEASURE_WITH_UNIT ( LENGTH_MEASURE( 0.02539999999999999897 ), #211 );
#296 = FILL_AREA_STYLE ('',( #244 ) ) ;
#297 = DIRECTION ( 'NONE',  ( -1.000000000000000000, 1.632862398863137774E-16, 0.000000000000000000 ) ) ;
#298 = PRESENTATION_STYLE_ASSIGNMENT (( #103 ) ) ;
#299 =( NAMED_UNIT ( * ) PLANE_ANGLE_UNIT ( ) SI_UNIT ( $, .RADIAN. ) );
#300 =( CONVERSION_BASED_UNIT ( 'INCH', #126 ) LENGTH_UNIT ( ) NAMED_UNIT ( #280 ) );
#301 = CARTESIAN_POINT ( 'NONE',  ( -0.3124999999999993339, 3.000000000000000444, 0.000000000000000000 ) ) ;
#302 = SURFACE_STYLE_USAGE ( .BOTH. , #41 ) ;
#303 = UNCERTAINTY_MEASURE_WITH_UNIT (LENGTH_MEASURE( 1.000000000000000082E-05 ), #237, 'distance_accuracy_value', 'NONE');
#304 =( LENGTH_UNIT ( ) NAMED_UNIT ( * ) SI_UNIT ( $, .METRE. ) );
#305 = FACE_OUTER_BOUND ( 'NONE', #246, .T. ) ;
#306 = FILL_AREA_STYLE_COLOUR ( '', #156 ) ;
#307 = DIMENSIONAL_EXPONENTS ( 1.000000000000000000, 0.000000000000000000, 0.000000000000000000, 0.000000000000000000, 0.000000000000000000, 0.000000000000000000, 0.000000000000000000 ) ;
#308 = DIRECTION ( 'NONE',  ( -0.000000000000000000, -1.000000000000000000, -0.000000000000000000 ) ) ;
#309 = CARTESIAN_POINT ( 'NONE',  ( 0.000000000000000000, 0.000000000000000000, 0.000000000000000000 ) ) ;
ENDSEC;
END-ISO-10303-21;
