ISO-10303-21;
HEADER;
FILE_DESCRIPTION (( 'STEP AP214' ),
    '1' );
FILE_NAME ('84421.STEP',
    '2023-06-23T13:15:39',
    ( '' ),
    ( '' ),
    'SwSTEP 2.0',
    'SolidWorks 2023',
    '' );
FILE_SCHEMA (( 'AUTOMOTIVE_DESIGN' ));
ENDSEC;

DATA;
#1 = CARTESIAN_POINT ( 'NONE',  ( 0.000000000000000000, 0.000000000000000000, 0.000000000000000000 ) ) ;
#2 = VERTEX_POINT ( 'NONE', #118 ) ;
#3 = LINE ( 'NONE', #303, #307 ) ;
#4 = EDGE_LOOP ( 'NONE', ( #64, #14, #302, #252 ) ) ;
#5 = STYLED_ITEM ( 'NONE', ( #115 ), #9 ) ;
#6 = CYLINDRICAL_SURFACE ( 'NONE', #21, 0.09375000000000004163 ) ;
#7 = ADVANCED_FACE ( 'NONE', ( #71 ), #138, .T. ) ;
#8 = SURFACE_SIDE_STYLE ('',( #145 ) ) ;
#9 = MANIFOLD_SOLID_BREP ( 'Revolve - Tool Body (Straight Shanked)', #16 ) ;
#10 = DIRECTION ( 'NONE',  ( 1.000000000000000000, 0.000000000000000000, 0.000000000000000000 ) ) ;
#11 =( GEOMETRIC_REPRESENTATION_CONTEXT ( 3 ) GLOBAL_UNCERTAINTY_ASSIGNED_CONTEXT ( ( #270 ) ) GLOBAL_UNIT_ASSIGNED_CONTEXT ( ( #301, #178, #274 ) ) REPRESENTATION_CONTEXT ( 'NONE', 'WORKASPACE' ) );
#12 = DIRECTION ( 'NONE',  ( -3.498990854706722745E-17, 1.000000000000000000, -0.000000000000000000 ) ) ;
#13 = CARTESIAN_POINT ( 'NONE',  ( 0.000000000000000000, 0.000000000000000000, 0.000000000000000000 ) ) ;
#14 = ORIENTED_EDGE ( 'NONE', *, *, #24, .T. ) ;
#15 =( LENGTH_UNIT ( ) NAMED_UNIT ( * ) SI_UNIT ( $, .METRE. ) );
#16 = CLOSED_SHELL ( 'NONE', ( #112, #228, #7, #36 ) ) ;
#17 = STYLED_ITEM ( 'NONE', ( #63 ), #172 ) ;
#18 = SURFACE_STYLE_FILL_AREA ( #247 ) ;
#19 =( LENGTH_UNIT ( ) NAMED_UNIT ( * ) SI_UNIT ( $, .METRE. ) );
#20 = EDGE_LOOP ( 'NONE', ( #179, #256 ) ) ;
#21 = AXIS2_PLACEMENT_3D ( 'NONE', #223, #12, #105 ) ;
#22 = AXIS2_PLACEMENT_3D ( 'NONE', #231, #93, #143 ) ;
#23 =( NAMED_UNIT ( * ) PLANE_ANGLE_UNIT ( ) SI_UNIT ( $, .RADIAN. ) );
#24 = EDGE_CURVE ( 'NONE', #41, #2, #175, .T. ) ;
#25 = EDGE_LOOP ( 'NONE', ( #254, #46, #131, #69 ) ) ;
#26 = COLOUR_RGB ( '',1.000000000000000000, 0.000000000000000000, 0.000000000000000000 ) ;
#27 =( NAMED_UNIT ( * ) SI_UNIT ( $, .STERADIAN. ) SOLID_ANGLE_UNIT ( ) );
#28 = SURFACE_STYLE_USAGE ( .BOTH. , #262 ) ;
#29 = CARTESIAN_POINT ( 'NONE',  ( -6.123233995736766036E-17, 2.500000000000000000, 0.000000000000000000 ) ) ;
#30 = CARTESIAN_POINT ( 'NONE',  ( 0.000000000000000000, 0.000000000000000000, -0.09375000000000001388 ) ) ;
#31 = CLOSED_SHELL ( 'NONE', ( #84, #92, #126, #172 ) ) ;
#32 = PRESENTATION_STYLE_ASSIGNMENT (( #101 ) ) ;
#33 =( LENGTH_UNIT ( ) NAMED_UNIT ( * ) SI_UNIT ( $, .METRE. ) );
#34 = DIRECTION ( 'NONE',  ( 0.000000000000000000, -0.000000000000000000, 1.000000000000000000 ) ) ;
#35 = APPLICATION_CONTEXT ( 'automotive_design' ) ;
#36 = ADVANCED_FACE ( 'NONE', ( #261 ), #94, .F. ) ;
#37 = ORIENTED_EDGE ( 'NONE', *, *, #72, .T. ) ;
#38 = CARTESIAN_POINT ( 'NONE',  ( -7.582401355855259480E-33, 0.7499999999999998890, 0.000000000000000000 ) ) ;
#39 = PRESENTATION_LAYER_ASSIGNMENT (  '', '', ( #58 ) ) ;
#40 = EDGE_CURVE ( 'NONE', #61, #227, #187, .T. ) ;
#41 = VERTEX_POINT ( 'NONE', #164 ) ;
#42 = FILL_AREA_STYLE_COLOUR ( '', #128 ) ;
#43 = PRESENTATION_LAYER_ASSIGNMENT (  '', '', ( #5 ) ) ;
#44 = PRESENTATION_LAYER_ASSIGNMENT (  '', '', ( #168 ) ) ;
#45 = PRODUCT_RELATED_PRODUCT_CATEGORY ( 'part', '', ( #183 ) ) ;
#46 = ORIENTED_EDGE ( 'NONE', *, *, #40, .T. ) ;
#47 =( LENGTH_UNIT ( ) NAMED_UNIT ( * ) SI_UNIT ( $, .METRE. ) );
#48 = DIRECTION ( 'NONE',  ( -3.498990854706722745E-17, 1.000000000000000000, -0.000000000000000000 ) ) ;
#49 = ORIENTED_EDGE ( 'NONE', *, *, #139, .F. ) ;
#50 =( GEOMETRIC_REPRESENTATION_CONTEXT ( 3 ) GLOBAL_UNCERTAINTY_ASSIGNED_CONTEXT ( ( #82 ) ) GLOBAL_UNIT_ASSIGNED_CONTEXT ( ( #59, #62, #176 ) ) REPRESENTATION_CONTEXT ( 'NONE', 'WORKASPACE' ) );
#51 = PLANE ( 'NONE',  #108 ) ;
#52 = CYLINDRICAL_SURFACE ( 'NONE', #121, 0.09375000000000001388 ) ;
#53 = EDGE_LOOP ( 'NONE', ( #197, #37, #111, #155 ) ) ;
#54 = FILL_AREA_STYLE ('',( #174 ) ) ;
#55 =( GEOMETRIC_REPRESENTATION_CONTEXT ( 3 ) GLOBAL_UNCERTAINTY_ASSIGNED_CONTEXT ( ( #293 ) ) GLOBAL_UNIT_ASSIGNED_CONTEXT ( ( #119, #147, #294 ) ) REPRESENTATION_CONTEXT ( 'NONE', 'WORKASPACE' ) );
#56 = PLANE ( 'NONE',  #282 ) ;
#57 = DIRECTION ( 'NONE',  ( 0.000000000000000000, 0.000000000000000000, -1.000000000000000000 ) ) ;
#58 = STYLED_ITEM ( 'NONE', ( #220 ), #92 ) ;
#59 =( CONVERSION_BASED_UNIT ( 'INCH', #296 ) LENGTH_UNIT ( ) NAMED_UNIT ( #113 ) );
#60 = PRODUCT_DEFINITION_CONTEXT ( 'detailed design', #171, 'design' ) ;
#61 = VERTEX_POINT ( 'NONE', #309 ) ;
#62 =( NAMED_UNIT ( * ) PLANE_ANGLE_UNIT ( ) SI_UNIT ( $, .RADIAN. ) );
#63 = PRESENTATION_STYLE_ASSIGNMENT (( #275 ) ) ;
#64 = ORIENTED_EDGE ( 'NONE', *, *, #72, .F. ) ;
#65 = FILL_AREA_STYLE ('',( #42 ) ) ;
#66 = SURFACE_STYLE_USAGE ( .BOTH. , #287 ) ;
#67 = AXIS2_PLACEMENT_3D ( 'NONE', #38, #129, #196 ) ;
#68 =( NAMED_UNIT ( * ) PLANE_ANGLE_UNIT ( ) SI_UNIT ( $, .RADIAN. ) );
#69 = ORIENTED_EDGE ( 'NONE', *, *, #214, .F. ) ;
#70 = LINE ( 'NONE', #236, #242 ) ;
#71 = FACE_OUTER_BOUND ( 'NONE', #130, .T. ) ;
#72 = EDGE_CURVE ( 'NONE', #41, #74, #70, .T. ) ;
#73 = CIRCLE ( 'NONE', #22, 0.09375000000000001388 ) ;
#74 = VERTEX_POINT ( 'NONE', #189 ) ;
#75 = DIRECTION ( 'NONE',  ( -0.000000000000000000, -1.000000000000000000, -0.000000000000000000 ) ) ;
#76 = MECHANICAL_DESIGN_GEOMETRIC_PRESENTATION_REPRESENTATION (  '', ( #173 ), #246 ) ;
#77 = SURFACE_SIDE_STYLE ('',( #148 ) ) ;
#78 = LENGTH_MEASURE_WITH_UNIT ( LENGTH_MEASURE( 0.02539999999999999897 ), #33 );
#79 = AXIS2_PLACEMENT_3D ( 'NONE', #260, #208, #306 ) ;
#80 = DIRECTION ( 'NONE',  ( 0.000000000000000000, 0.000000000000000000, -1.000000000000000000 ) ) ;
#81 = ORIENTED_EDGE ( 'NONE', *, *, #198, .T. ) ;
#82 = UNCERTAINTY_MEASURE_WITH_UNIT (LENGTH_MEASURE( 1.000000000000000082E-05 ), #59, 'distance_accuracy_value', 'NONE');
#83 = PRESENTATION_STYLE_ASSIGNMENT (( #177 ) ) ;
#84 = ADVANCED_FACE ( 'NONE', ( #263 ), #52, .T. ) ;
#85 = CARTESIAN_POINT ( 'NONE',  ( -6.123233995736766036E-17, 2.500000000000000000, 0.000000000000000000 ) ) ;
#86 = COLOUR_RGB ( '',0.7921568627450980005, 0.8196078431372548767, 0.9333333333333333481 ) ;
#87 = DIRECTION ( 'NONE',  ( 0.000000000000000000, -1.000000000000000000, -0.000000000000000000 ) ) ;
#88 = MECHANICAL_DESIGN_GEOMETRIC_PRESENTATION_REPRESENTATION (  '', ( #17 ), #50 ) ;
#89 = DIRECTION ( 'NONE',  ( -3.498990854706722745E-17, 1.000000000000000000, -0.000000000000000000 ) ) ;
#90 = EDGE_LOOP ( 'NONE', ( #203, #81 ) ) ;
#91 = SURFACE_STYLE_FILL_AREA ( #264 ) ;
#92 = ADVANCED_FACE ( 'NONE', ( #291 ), #56, .T. ) ;
#93 = DIRECTION ( 'NONE',  ( -3.498990854706722745E-17, 1.000000000000000000, -0.000000000000000000 ) ) ;
#94 = PLANE ( 'NONE',  #133 ) ;
#95 = CIRCLE ( 'NONE', #266, 0.09375000000000006939 ) ;
#96 = DIRECTION ( 'NONE',  ( 3.498990854706722745E-17, -1.000000000000000000, 0.000000000000000000 ) ) ;
#97 = DIRECTION ( 'NONE',  ( 0.000000000000000000, 0.000000000000000000, 1.000000000000000000 ) ) ;
#98 = DIRECTION ( 'NONE',  ( -0.000000000000000000, -1.000000000000000000, -0.000000000000000000 ) ) ;
#99 = CARTESIAN_POINT ( 'NONE',  ( 0.000000000000000000, 0.000000000000000000, -0.09375000000000001388 ) ) ;
#100 = FILL_AREA_STYLE_COLOUR ( '', #26 ) ;
#101 = SURFACE_STYLE_USAGE ( .BOTH. , #77 ) ;
#102 =( GEOMETRIC_REPRESENTATION_CONTEXT ( 3 ) GLOBAL_UNCERTAINTY_ASSIGNED_CONTEXT ( ( #280 ) ) GLOBAL_UNIT_ASSIGNED_CONTEXT ( ( #184, #166, #27 ) ) REPRESENTATION_CONTEXT ( 'NONE', 'WORKASPACE' ) );
#103 = UNCERTAINTY_MEASURE_WITH_UNIT (LENGTH_MEASURE( 1.000000000000000082E-05 ), #122, 'distance_accuracy_value', 'NONE');
#104 = CIRCLE ( 'NONE', #243, 0.09375000000000001388 ) ;
#105 = DIRECTION ( 'NONE',  ( -1.000000000000000000, 0.000000000000000000, 0.000000000000000000 ) ) ;
#106 = DIRECTION ( 'NONE',  ( -0.000000000000000000, -1.000000000000000000, -0.000000000000000000 ) ) ;
#107 = VERTEX_POINT ( 'NONE', #30 ) ;
#108 = AXIS2_PLACEMENT_3D ( 'NONE', #159, #213, #255 ) ;
#109 = CARTESIAN_POINT ( 'NONE',  ( 0.000000000000000000, 0.000000000000000000, 0.000000000000000000 ) ) ;
#110 = VERTEX_POINT ( 'NONE', #127 ) ;
#111 = ORIENTED_EDGE ( 'NONE', *, *, #297, .F. ) ;
#112 = ADVANCED_FACE ( 'NONE', ( #216 ), #6, .T. ) ;
#113 = DIMENSIONAL_EXPONENTS ( 1.000000000000000000, 0.000000000000000000, 0.000000000000000000, 0.000000000000000000, 0.000000000000000000, 0.000000000000000000, 0.000000000000000000 ) ;
#114 = PRESENTATION_STYLE_ASSIGNMENT (( #28 ) ) ;
#115 = PRESENTATION_STYLE_ASSIGNMENT (( #66 ) ) ;
#116 = AXIS2_PLACEMENT_3D ( 'NONE', #13, #87, #250 ) ;
#117 = PRODUCT_DEFINITION_SHAPE ( 'NONE', 'NONE',  #237 ) ;
#118 = CARTESIAN_POINT ( 'NONE',  ( 0.000000000000000000, 0.7500000000000001110, -0.09375000000000001388 ) ) ;
#119 =( CONVERSION_BASED_UNIT ( 'INCH', #78 ) LENGTH_UNIT ( ) NAMED_UNIT ( #132 ) );
#120 = MECHANICAL_DESIGN_GEOMETRIC_PRESENTATION_REPRESENTATION (  '', ( #5 ), #102 ) ;
#121 = AXIS2_PLACEMENT_3D ( 'NONE', #244, #75, #57 ) ;
#122 =( CONVERSION_BASED_UNIT ( 'INCH', #124 ) LENGTH_UNIT ( ) NAMED_UNIT ( #135 ) );
#123 = UNCERTAINTY_MEASURE_WITH_UNIT (LENGTH_MEASURE( 1.000000000000000082E-05 ), #308, 'distance_accuracy_value', 'NONE');
#124 = LENGTH_MEASURE_WITH_UNIT ( LENGTH_MEASURE( 0.02539999999999999897 ), #267 );
#125 =( NAMED_UNIT ( * ) SI_UNIT ( $, .STERADIAN. ) SOLID_ANGLE_UNIT ( ) );
#126 = ADVANCED_FACE ( 'NONE', ( #195 ), #240, .T. ) ;
#127 = CARTESIAN_POINT ( 'NONE',  ( -0.09375000000000001388, 0.7499999999999998890, 0.000000000000000000 ) ) ;
#128 = COLOUR_RGB ( '',0.7921568627450980005, 0.8196078431372548767, 0.9333333333333333481 ) ;
#129 = DIRECTION ( 'NONE',  ( -3.498990854706722745E-17, 1.000000000000000000, -0.000000000000000000 ) ) ;
#130 = EDGE_LOOP ( 'NONE', ( #206, #304, #278, #49 ) ) ;
#131 = ORIENTED_EDGE ( 'NONE', *, *, #207, .F. ) ;
#132 = DIMENSIONAL_EXPONENTS ( 1.000000000000000000, 0.000000000000000000, 0.000000000000000000, 0.000000000000000000, 0.000000000000000000, 0.000000000000000000, 0.000000000000000000 ) ;
#133 = AXIS2_PLACEMENT_3D ( 'NONE', #212, #96, #141 ) ;
#134 = ORIENTED_EDGE ( 'NONE', *, *, #273, .F. ) ;
#135 = DIMENSIONAL_EXPONENTS ( 1.000000000000000000, 0.000000000000000000, 0.000000000000000000, 0.000000000000000000, 0.000000000000000000, 0.000000000000000000, 0.000000000000000000 ) ;
#136 = LENGTH_MEASURE_WITH_UNIT ( LENGTH_MEASURE( 0.02539999999999999897 ), #279 );
#137 = DIRECTION ( 'NONE',  ( -0.000000000000000000, -1.000000000000000000, -0.000000000000000000 ) ) ;
#138 = CYLINDRICAL_SURFACE ( 'NONE', #257, 0.09375000000000004163 ) ;
#139 = EDGE_CURVE ( 'NONE', #227, #170, #221, .T. ) ;
#140 = CARTESIAN_POINT ( 'NONE',  ( 0.000000000000000000, 0.000000000000000000, 0.000000000000000000 ) ) ;
#141 = DIRECTION ( 'NONE',  ( 1.000000000000000000, 3.498990854706722745E-17, 0.000000000000000000 ) ) ;
#142 = CIRCLE ( 'NONE', #225, 0.09375000000000001388 ) ;
#143 = DIRECTION ( 'NONE',  ( -1.000000000000000000, 0.000000000000000000, 0.000000000000000000 ) ) ;
#144 = DIRECTION ( 'NONE',  ( -1.000000000000000000, 0.000000000000000000, 0.000000000000000000 ) ) ;
#145 = SURFACE_STYLE_FILL_AREA ( #219 ) ;
#146 = CIRCLE ( 'NONE', #222, 0.09375000000000001388 ) ;
#147 =( NAMED_UNIT ( * ) PLANE_ANGLE_UNIT ( ) SI_UNIT ( $, .RADIAN. ) );
#148 = SURFACE_STYLE_FILL_AREA ( #54 ) ;
#149 = DIRECTION ( 'NONE',  ( -0.000000000000000000, -1.000000000000000000, -0.000000000000000000 ) ) ;
#150 = ADVANCED_BREP_SHAPE_REPRESENTATION ( '84421', ( #211, #9, #276 ), #162 ) ;
#151 = EDGE_CURVE ( 'NONE', #2, #41, #146, .T. ) ;
#152 = DIRECTION ( 'NONE',  ( 0.000000000000000000, 0.000000000000000000, -1.000000000000000000 ) ) ;
#153 = COLOUR_RGB ( '',1.000000000000000000, 0.000000000000000000, 0.000000000000000000 ) ;
#154 = FILL_AREA_STYLE_COLOUR ( '', #245 ) ;
#155 = ORIENTED_EDGE ( 'NONE', *, *, #285, .F. ) ;
#156 = LENGTH_MEASURE_WITH_UNIT ( LENGTH_MEASURE( 0.02539999999999999897 ), #15 );
#157 = LINE ( 'NONE', #99, #218 ) ;
#158 = EDGE_LOOP ( 'NONE', ( #215, #134 ) ) ;
#159 = CARTESIAN_POINT ( 'NONE',  ( 5.738876719369351455E-35, 0.7500000000000001110, 0.000000000000000000 ) ) ;
#160 = AXIS2_PLACEMENT_3D ( 'NONE', #224, #89, #249 ) ;
#161 = DIRECTION ( 'NONE',  ( -3.498990854706722745E-17, 1.000000000000000000, -0.000000000000000000 ) ) ;
#162 =( GEOMETRIC_REPRESENTATION_CONTEXT ( 3 ) GLOBAL_UNCERTAINTY_ASSIGNED_CONTEXT ( ( #248 ) ) GLOBAL_UNIT_ASSIGNED_CONTEXT ( ( #283, #68, #163 ) ) REPRESENTATION_CONTEXT ( 'NONE', 'WORKASPACE' ) );
#163 =( NAMED_UNIT ( * ) SI_UNIT ( $, .STERADIAN. ) SOLID_ANGLE_UNIT ( ) );
#164 = CARTESIAN_POINT ( 'NONE',  ( 1.148106374200643863E-17, 0.7500000000000001110, 0.09375000000000001388 ) ) ;
#165 = APPLICATION_PROTOCOL_DEFINITION ( 'draft international standard', 'automotive_design', 1998, #35 ) ;
#166 =( NAMED_UNIT ( * ) PLANE_ANGLE_UNIT ( ) SI_UNIT ( $, .RADIAN. ) );
#167 = DIRECTION ( 'NONE',  ( 0.000000000000000000, 0.000000000000000000, -1.000000000000000000 ) ) ;
#168 = STYLED_ITEM ( 'NONE', ( #32 ), #84 ) ;
#169 = PRODUCT_CONTEXT ( 'NONE', #35, 'mechanical' ) ;
#170 = VERTEX_POINT ( 'NONE', #253 ) ;
#171 = APPLICATION_CONTEXT ( 'automotive_design' ) ;
#172 = ADVANCED_FACE ( 'NONE', ( #204 ), #202, .T. ) ;
#173 = STYLED_ITEM ( 'NONE', ( #114 ), #211 ) ;
#174 = FILL_AREA_STYLE_COLOUR ( '', #194 ) ;
#175 = CIRCLE ( 'NONE', #79, 0.09375000000000001388 ) ;
#176 =( NAMED_UNIT ( * ) SI_UNIT ( $, .STERADIAN. ) SOLID_ANGLE_UNIT ( ) );
#177 = SURFACE_STYLE_USAGE ( .BOTH. , #200 ) ;
#178 =( NAMED_UNIT ( * ) PLANE_ANGLE_UNIT ( ) SI_UNIT ( $, .RADIAN. ) );
#179 = ORIENTED_EDGE ( 'NONE', *, *, #151, .F. ) ;
#180 = PRESENTATION_LAYER_ASSIGNMENT (  '', '', ( #17 ) ) ;
#181 = DIRECTION ( 'NONE',  ( -3.498990854706722745E-17, 1.000000000000000000, -0.000000000000000000 ) ) ;
#182 = SURFACE_SIDE_STYLE ('',( #18 ) ) ;
#183 = PRODUCT ( '84421', '84421', '', ( #169 ) ) ;
#184 =( CONVERSION_BASED_UNIT ( 'INCH', #233 ) LENGTH_UNIT ( ) NAMED_UNIT ( #277 ) );
#185 = DIRECTION ( 'NONE',  ( -0.000000000000000000, -1.000000000000000000, -0.000000000000000000 ) ) ;
#186 =( GEOMETRIC_REPRESENTATION_CONTEXT ( 3 ) GLOBAL_UNCERTAINTY_ASSIGNED_CONTEXT ( ( #103 ) ) GLOBAL_UNIT_ASSIGNED_CONTEXT ( ( #122, #241, #125 ) ) REPRESENTATION_CONTEXT ( 'NONE', 'WORKASPACE' ) );
#187 = LINE ( 'NONE', #286, #288 ) ;
#188 = ORIENTED_EDGE ( 'NONE', *, *, #139, .T. ) ;
#189 = CARTESIAN_POINT ( 'NONE',  ( 1.148106374200643863E-17, 0.000000000000000000, 0.09375000000000001388 ) ) ;
#190 = EDGE_LOOP ( 'NONE', ( #239, #188 ) ) ;
#191 = STYLED_ITEM ( 'NONE', ( #83 ), #126 ) ;
#192 = SHAPE_DEFINITION_REPRESENTATION ( #117, #150 ) ;
#193 = EDGE_CURVE ( 'NONE', #110, #61, #217, .T. ) ;
#194 = COLOUR_RGB ( '',1.000000000000000000, 0.000000000000000000, 0.000000000000000000 ) ;
#195 = FACE_OUTER_BOUND ( 'NONE', #4, .T. ) ;
#196 = DIRECTION ( 'NONE',  ( -1.000000000000000000, 0.000000000000000000, 0.000000000000000000 ) ) ;
#197 = ORIENTED_EDGE ( 'NONE', *, *, #151, .T. ) ;
#198 = EDGE_CURVE ( 'NONE', #74, #107, #142, .T. ) ;
#199 = MECHANICAL_DESIGN_GEOMETRIC_PRESENTATION_REPRESENTATION (  '', ( #58 ), #55 ) ;
#200 = SURFACE_SIDE_STYLE ('',( #265 ) ) ;
#201 = DIMENSIONAL_EXPONENTS ( 1.000000000000000000, 0.000000000000000000, 0.000000000000000000, 0.000000000000000000, 0.000000000000000000, 0.000000000000000000, 0.000000000000000000 ) ;
#202 = PLANE ( 'NONE',  #116 ) ;
#203 = ORIENTED_EDGE ( 'NONE', *, *, #297, .T. ) ;
#204 = FACE_OUTER_BOUND ( 'NONE', #90, .T. ) ;
#205 = DIMENSIONAL_EXPONENTS ( 1.000000000000000000, 0.000000000000000000, 0.000000000000000000, 0.000000000000000000, 0.000000000000000000, 0.000000000000000000, 0.000000000000000000 ) ;
#206 = ORIENTED_EDGE ( 'NONE', *, *, #40, .F. ) ;
#207 = EDGE_CURVE ( 'NONE', #170, #227, #95, .T. ) ;
#208 = DIRECTION ( 'NONE',  ( -0.000000000000000000, -1.000000000000000000, -0.000000000000000000 ) ) ;
#209 =( LENGTH_UNIT ( ) NAMED_UNIT ( * ) SI_UNIT ( $, .METRE. ) );
#210 = PRESENTATION_LAYER_ASSIGNMENT (  '', '', ( #173 ) ) ;
#211 = MANIFOLD_SOLID_BREP ( 'Revolve - Cutting Edge', #31 ) ;
#212 = CARTESIAN_POINT ( 'NONE',  ( 0.09375000000000001388, 2.500000000000000000, 0.000000000000000000 ) ) ;
#213 = DIRECTION ( 'NONE',  ( -3.498990854706722745E-17, 1.000000000000000000, 0.000000000000000000 ) ) ;
#214 = EDGE_CURVE ( 'NONE', #110, #170, #3, .T. ) ;
#215 = ORIENTED_EDGE ( 'NONE', *, *, #193, .F. ) ;
#216 = FACE_OUTER_BOUND ( 'NONE', #25, .T. ) ;
#217 = CIRCLE ( 'NONE', #67, 0.09375000000000001388 ) ;
#218 = VECTOR ( 'NONE', #137, 39.37007874015748143 ) ;
#219 = FILL_AREA_STYLE ('',( #295 ) ) ;
#220 = PRESENTATION_STYLE_ASSIGNMENT (( #290 ) ) ;
#221 = CIRCLE ( 'NONE', #160, 0.09375000000000006939 ) ;
#222 = AXIS2_PLACEMENT_3D ( 'NONE', #226, #149, #251 ) ;
#223 = CARTESIAN_POINT ( 'NONE',  ( -6.123233995736766036E-17, 2.500000000000000000, 0.000000000000000000 ) ) ;
#224 = CARTESIAN_POINT ( 'NONE',  ( -6.123233995736766036E-17, 2.500000000000000000, 0.000000000000000000 ) ) ;
#225 = AXIS2_PLACEMENT_3D ( 'NONE', #299, #229, #80 ) ;
#226 = CARTESIAN_POINT ( 'NONE',  ( 0.000000000000000000, 0.7500000000000001110, 0.000000000000000000 ) ) ;
#227 = VERTEX_POINT ( 'NONE', #281 ) ;
#228 = ADVANCED_FACE ( 'NONE', ( #235 ), #51, .F. ) ;
#229 = DIRECTION ( 'NONE',  ( -0.000000000000000000, -1.000000000000000000, -0.000000000000000000 ) ) ;
#230 = PRESENTATION_LAYER_ASSIGNMENT (  '', '', ( #191 ) ) ;
#231 = CARTESIAN_POINT ( 'NONE',  ( -7.582401355855259480E-33, 0.7499999999999998890, 0.000000000000000000 ) ) ;
#232 = DIRECTION ( 'NONE',  ( -1.000000000000000000, 0.000000000000000000, 0.000000000000000000 ) ) ;
#233 = LENGTH_MEASURE_WITH_UNIT ( LENGTH_MEASURE( 0.02539999999999999897 ), #47 );
#234 = FILL_AREA_STYLE_COLOUR ( '', #86 ) ;
#235 = FACE_OUTER_BOUND ( 'NONE', #158, .T. ) ;
#236 = CARTESIAN_POINT ( 'NONE',  ( 1.148106374200643863E-17, 0.000000000000000000, 0.09375000000000001388 ) ) ;
#237 = PRODUCT_DEFINITION ( 'UNKNOWN', '', #292, #60 ) ;
#238 = SURFACE_STYLE_FILL_AREA ( #65 ) ;
#239 = ORIENTED_EDGE ( 'NONE', *, *, #207, .T. ) ;
#240 = CYLINDRICAL_SURFACE ( 'NONE', #300, 0.09375000000000001388 ) ;
#241 =( NAMED_UNIT ( * ) PLANE_ANGLE_UNIT ( ) SI_UNIT ( $, .RADIAN. ) );
#242 = VECTOR ( 'NONE', #98, 39.37007874015748143 ) ;
#243 = AXIS2_PLACEMENT_3D ( 'NONE', #140, #185, #167 ) ;
#244 = CARTESIAN_POINT ( 'NONE',  ( 0.000000000000000000, 0.000000000000000000, 0.000000000000000000 ) ) ;
#245 = COLOUR_RGB ( '',1.000000000000000000, 0.000000000000000000, 0.000000000000000000 ) ;
#246 =( GEOMETRIC_REPRESENTATION_CONTEXT ( 3 ) GLOBAL_UNCERTAINTY_ASSIGNED_CONTEXT ( ( #123 ) ) GLOBAL_UNIT_ASSIGNED_CONTEXT ( ( #308, #23, #259 ) ) REPRESENTATION_CONTEXT ( 'NONE', 'WORKASPACE' ) );
#247 = FILL_AREA_STYLE ('',( #154 ) ) ;
#248 = UNCERTAINTY_MEASURE_WITH_UNIT (LENGTH_MEASURE( 1.000000000000000082E-05 ), #283, 'distance_accuracy_value', 'NONE');
#249 = DIRECTION ( 'NONE',  ( -1.000000000000000000, 0.000000000000000000, 0.000000000000000000 ) ) ;
#250 = DIRECTION ( 'NONE',  ( 0.000000000000000000, 0.000000000000000000, -1.000000000000000000 ) ) ;
#251 = DIRECTION ( 'NONE',  ( 0.000000000000000000, 0.000000000000000000, -1.000000000000000000 ) ) ;
#252 = ORIENTED_EDGE ( 'NONE', *, *, #198, .F. ) ;
#253 = CARTESIAN_POINT ( 'NONE',  ( -0.09375000000000013878, 2.500000000000000000, 0.000000000000000000 ) ) ;
#254 = ORIENTED_EDGE ( 'NONE', *, *, #193, .T. ) ;
#255 = DIRECTION ( 'NONE',  ( -1.000000000000000000, -3.498990854706722745E-17, 0.000000000000000000 ) ) ;
#256 = ORIENTED_EDGE ( 'NONE', *, *, #24, .F. ) ;
#257 = AXIS2_PLACEMENT_3D ( 'NONE', #29, #161, #144 ) ;
#258 = MECHANICAL_DESIGN_GEOMETRIC_PRESENTATION_REPRESENTATION (  '', ( #168 ), #186 ) ;
#259 =( NAMED_UNIT ( * ) SI_UNIT ( $, .STERADIAN. ) SOLID_ANGLE_UNIT ( ) );
#260 = CARTESIAN_POINT ( 'NONE',  ( 0.000000000000000000, 0.7500000000000001110, 0.000000000000000000 ) ) ;
#261 = FACE_OUTER_BOUND ( 'NONE', #190, .T. ) ;
#262 = SURFACE_SIDE_STYLE ('',( #238 ) ) ;
#263 = FACE_OUTER_BOUND ( 'NONE', #53, .T. ) ;
#264 = FILL_AREA_STYLE ('',( #234 ) ) ;
#265 = SURFACE_STYLE_FILL_AREA ( #289 ) ;
#266 = AXIS2_PLACEMENT_3D ( 'NONE', #85, #181, #232 ) ;
#267 =( LENGTH_UNIT ( ) NAMED_UNIT ( * ) SI_UNIT ( $, .METRE. ) );
#268 = APPLICATION_PROTOCOL_DEFINITION ( 'draft international standard', 'automotive_design', 1998, #171 ) ;
#269 = DIRECTION ( 'NONE',  ( 0.000000000000000000, 1.000000000000000000, 0.000000000000000000 ) ) ;
#270 = UNCERTAINTY_MEASURE_WITH_UNIT (LENGTH_MEASURE( 1.000000000000000082E-05 ), #301, 'distance_accuracy_value', 'NONE');
#271 = CARTESIAN_POINT ( 'NONE',  ( 0.000000000000000000, 0.7500000000000001110, 0.000000000000000000 ) ) ;
#272 = MECHANICAL_DESIGN_GEOMETRIC_PRESENTATION_REPRESENTATION (  '', ( #191 ), #11 ) ;
#273 = EDGE_CURVE ( 'NONE', #61, #110, #73, .T. ) ;
#274 =( NAMED_UNIT ( * ) SI_UNIT ( $, .STERADIAN. ) SOLID_ANGLE_UNIT ( ) );
#275 = SURFACE_STYLE_USAGE ( .BOTH. , #182 ) ;
#276 = AXIS2_PLACEMENT_3D ( 'NONE', #1, #97, #10 ) ;
#277 = DIMENSIONAL_EXPONENTS ( 1.000000000000000000, 0.000000000000000000, 0.000000000000000000, 0.000000000000000000, 0.000000000000000000, 0.000000000000000000, 0.000000000000000000 ) ;
#278 = ORIENTED_EDGE ( 'NONE', *, *, #214, .T. ) ;
#279 =( LENGTH_UNIT ( ) NAMED_UNIT ( * ) SI_UNIT ( $, .METRE. ) );
#280 = UNCERTAINTY_MEASURE_WITH_UNIT (LENGTH_MEASURE( 1.000000000000000082E-05 ), #184, 'distance_accuracy_value', 'NONE');
#281 = CARTESIAN_POINT ( 'NONE',  ( 0.09375000000000001388, 2.500000000000000000, 1.148106374200644325E-17 ) ) ;
#282 = AXIS2_PLACEMENT_3D ( 'NONE', #271, #269, #34 ) ;
#283 =( CONVERSION_BASED_UNIT ( 'INCH', #136 ) LENGTH_UNIT ( ) NAMED_UNIT ( #205 ) );
#284 = DIRECTION ( 'NONE',  ( -3.498990854706722745E-17, 1.000000000000000000, -0.000000000000000000 ) ) ;
#285 = EDGE_CURVE ( 'NONE', #2, #107, #157, .T. ) ;
#286 = CARTESIAN_POINT ( 'NONE',  ( 0.09374999999999997224, 2.500000000000000000, 1.148106374200644171E-17 ) ) ;
#287 = SURFACE_SIDE_STYLE ('',( #91 ) ) ;
#288 = VECTOR ( 'NONE', #284, 39.37007874015748143 ) ;
#289 = FILL_AREA_STYLE ('',( #100 ) ) ;
#290 = SURFACE_STYLE_USAGE ( .BOTH. , #8 ) ;
#291 = FACE_OUTER_BOUND ( 'NONE', #20, .T. ) ;
#292 = PRODUCT_DEFINITION_FORMATION_WITH_SPECIFIED_SOURCE ( 'ANY', '', #183, .NOT_KNOWN. ) ;
#293 = UNCERTAINTY_MEASURE_WITH_UNIT (LENGTH_MEASURE( 1.000000000000000082E-05 ), #119, 'distance_accuracy_value', 'NONE');
#294 =( NAMED_UNIT ( * ) SI_UNIT ( $, .STERADIAN. ) SOLID_ANGLE_UNIT ( ) );
#295 = FILL_AREA_STYLE_COLOUR ( '', #153 ) ;
#296 = LENGTH_MEASURE_WITH_UNIT ( LENGTH_MEASURE( 0.02539999999999999897 ), #19 );
#297 = EDGE_CURVE ( 'NONE', #107, #74, #104, .T. ) ;
#298 = DIMENSIONAL_EXPONENTS ( 1.000000000000000000, 0.000000000000000000, 0.000000000000000000, 0.000000000000000000, 0.000000000000000000, 0.000000000000000000, 0.000000000000000000 ) ;
#299 = CARTESIAN_POINT ( 'NONE',  ( 0.000000000000000000, 0.000000000000000000, 0.000000000000000000 ) ) ;
#300 = AXIS2_PLACEMENT_3D ( 'NONE', #109, #106, #152 ) ;
#301 =( CONVERSION_BASED_UNIT ( 'INCH', #156 ) LENGTH_UNIT ( ) NAMED_UNIT ( #201 ) );
#302 = ORIENTED_EDGE ( 'NONE', *, *, #285, .T. ) ;
#303 = CARTESIAN_POINT ( 'NONE',  ( -0.09375000000000011102, 2.500000000000000000, 0.000000000000000000 ) ) ;
#304 = ORIENTED_EDGE ( 'NONE', *, *, #273, .T. ) ;
#305 = LENGTH_MEASURE_WITH_UNIT ( LENGTH_MEASURE( 0.02539999999999999897 ), #209 );
#306 = DIRECTION ( 'NONE',  ( 0.000000000000000000, 0.000000000000000000, -1.000000000000000000 ) ) ;
#307 = VECTOR ( 'NONE', #48, 39.37007874015748143 ) ;
#308 =( CONVERSION_BASED_UNIT ( 'INCH', #305 ) LENGTH_UNIT ( ) NAMED_UNIT ( #298 ) );
#309 = CARTESIAN_POINT ( 'NONE',  ( 0.09375000000000001388, 0.7499999999999998890, 1.148106374200644325E-17 ) ) ;
ENDSEC;
END-ISO-10303-21;
