ISO-10303-21;
HEADER;
FILE_DESCRIPTION (( 'STEP AP214' ),
    '1' );
FILE_NAME ('Micro_SEM-500-02X.STEP',
    '2021-09-02T03:23:22',
    ( '' ),
    ( '' ),
    'SwSTEP 2.0',
    'SolidWorks 2020',
    '' );
FILE_SCHEMA (( 'AUTOMOTIVE_DESIGN' ));
ENDSEC;

DATA;
#1 = FACE_OUTER_BOUND ( 'NONE', #11, .T. ) ;
#2 = DIRECTION ( 'NONE',  ( -1.224646799147353207E-16, -0.0000000000000000000, -1.000000000000000000 ) ) ;
#3 = DIRECTION ( 'NONE',  ( -1.224646799147353207E-16, -0.0000000000000000000, -1.000000000000000000 ) ) ;
#4 = AXIS2_PLACEMENT_3D ( 'NONE', #55, #187, #27 ) ;
#5 = DIRECTION ( 'NONE',  ( 0.0000000000000000000, 0.0000000000000000000, -1.000000000000000000 ) ) ;
#6 = APPLICATION_PROTOCOL_DEFINITION ( 'draft international standard', 'automotive_design', 1998, #224 ) ;
#7 = EDGE_LOOP ( 'NONE', ( #223, #246, #109, #121 ) ) ;
#8 = EDGE_CURVE ( 'NONE', #106, #89, #48, .T. ) ;
#9 = VECTOR ( 'NONE', #138, 39.37007874015748854 ) ;
#10 = CARTESIAN_POINT ( 'NONE',  ( 0.2497499999999999998, 3.058555380870514950E-17, 0.0000000000000000000 ) ) ;
#11 = EDGE_LOOP ( 'NONE', ( #171, #57, #143, #200 ) ) ;
#12 = EDGE_CURVE ( 'NONE', #89, #36, #250, .T. ) ;
#13 = EDGE_LOOP ( 'NONE', ( #230, #284, #251, #21 ) ) ;
#14 = AXIS2_PLACEMENT_3D ( 'NONE', #173, #197, #191 ) ;
#15 = ORIENTED_EDGE ( 'NONE', *, *, #210, .F. ) ;
#16 = ORIENTED_EDGE ( 'NONE', *, *, #54, .T. ) ;
#17 = ORIENTED_EDGE ( 'NONE', *, *, #213, .F. ) ;
#18 = ADVANCED_FACE ( 'NONE', ( #91 ), #299, .T. ) ;
#19 = AXIS2_PLACEMENT_3D ( 'NONE', #207, #88, #70 ) ;
#20 = PRODUCT_DEFINITION_FORMATION_WITH_SPECIFIED_SOURCE ( 'ANY', '', #103, .NOT_KNOWN. ) ;
#21 = ORIENTED_EDGE ( 'NONE', *, *, #71, .F. ) ;
#22 = ORIENTED_EDGE ( 'NONE', *, *, #50, .F. ) ;
#23 = ADVANCED_FACE ( 'NONE', ( #226 ), #90, .T. ) ;
#24 = CARTESIAN_POINT ( 'NONE',  ( -0.2500000000000000000, 0.0000000000000000000, 2.484999999999999876 ) ) ;
#25 =( NAMED_UNIT ( * ) SI_UNIT ( $, .STERADIAN. ) SOLID_ANGLE_UNIT ( ) );
#26 = DIRECTION ( 'NONE',  ( -1.224646799147353207E-16, -0.0000000000000000000, -1.000000000000000000 ) ) ;
#27 = DIRECTION ( 'NONE',  ( -1.000000000000000000, 0.0000000000000000000, 0.0000000000000000000 ) ) ;
#28 = PRESENTATION_STYLE_ASSIGNMENT (( #93 ) ) ;
#29 = COLOUR_RGB ( '',0.7921568627450980005, 0.8196078431372548767, 0.9333333333333333481 ) ;
#30 = CIRCLE ( 'NONE', #78, 0.2500000000000000000 ) ;
#31 = PRESENTATION_STYLE_ASSIGNMENT (( #34 ) ) ;
#32 = EDGE_LOOP ( 'NONE', ( #41, #113, #124, #17 ) ) ;
#33 = EDGE_CURVE ( 'NONE', #243, #286, #115, .T. ) ;
#34 = SURFACE_STYLE_USAGE ( .BOTH. , #240 ) ;
#35 = CARTESIAN_POINT ( 'NONE',  ( 0.0000000000000000000, 0.0000000000000000000, 2.484999999999999876 ) ) ;
#36 = VERTEX_POINT ( 'NONE', #202 ) ;
#37 = AXIS2_PLACEMENT_3D ( 'NONE', #260, #259, #95 ) ;
#38 = SURFACE_STYLE_FILL_AREA ( #192 ) ;
#39 = ORIENTED_EDGE ( 'NONE', *, *, #144, .F. ) ;
#40 = LINE ( 'NONE', #214, #139 ) ;
#41 = ORIENTED_EDGE ( 'NONE', *, *, #225, .F. ) ;
#42 = CARTESIAN_POINT ( 'NONE',  ( 0.0000000000000000000, 0.0000000000000000000, 0.0000000000000000000 ) ) ;
#43 = ADVANCED_BREP_SHAPE_REPRESENTATION ( 'Micro_SEM-500-02X', ( #185, #266 ), #147 ) ;
#44 = ORIENTED_EDGE ( 'NONE', *, *, #213, .T. ) ;
#45 = DIRECTION ( 'NONE',  ( -1.224646799147353207E-16, -0.0000000000000000000, -1.000000000000000000 ) ) ;
#46 = CARTESIAN_POINT ( 'NONE',  ( 0.2497500000000000830, 0.0000000000000000000, 0.6250000000000000000 ) ) ;
#47 = CIRCLE ( 'NONE', #222, 0.2497499999999999998 ) ;
#48 = CIRCLE ( 'NONE', #19, 0.2350000000000003753 ) ;
#49 = ORIENTED_EDGE ( 'NONE', *, *, #99, .F. ) ;
#50 = EDGE_CURVE ( 'NONE', #36, #141, #180, .T. ) ;
#51 = CARTESIAN_POINT ( 'NONE',  ( 0.0000000000000000000, 0.0000000000000000000, 2.500000000000000000 ) ) ;
#52 = DIRECTION ( 'NONE',  ( 0.0000000000000000000, 0.0000000000000000000, 1.000000000000000000 ) ) ;
#53 = DIRECTION ( 'NONE',  ( -1.000000000000000000, 0.0000000000000000000, 0.0000000000000000000 ) ) ;
#54 = EDGE_CURVE ( 'NONE', #152, #195, #153, .T. ) ;
#55 = CARTESIAN_POINT ( 'NONE',  ( 0.0000000000000000000, 0.0000000000000000000, 2.500000000000000000 ) ) ;
#56 = VECTOR ( 'NONE', #148, 39.37007874015748143 ) ;
#57 = ORIENTED_EDGE ( 'NONE', *, *, #219, .F. ) ;
#58 = EDGE_CURVE ( 'NONE', #220, #152, #268, .T. ) ;
#59 = DIRECTION ( 'NONE',  ( -1.000000000000000000, 0.0000000000000000000, 0.0000000000000000000 ) ) ;
#60 = ORIENTED_EDGE ( 'NONE', *, *, #210, .T. ) ;
#61 =( NAMED_UNIT ( * ) PLANE_ANGLE_UNIT ( ) SI_UNIT ( $, .RADIAN. ) );
#62 = CONICAL_SURFACE ( 'NONE', #37, 0.2497499999999999998, 0.1745329251994339192 ) ;
#63 =( GEOMETRIC_REPRESENTATION_CONTEXT ( 3 ) GLOBAL_UNCERTAINTY_ASSIGNED_CONTEXT ( ( #169 ) ) GLOBAL_UNIT_ASSIGNED_CONTEXT ( ( #117, #280, #25 ) ) REPRESENTATION_CONTEXT ( 'NONE', 'WORKASPACE' ) );
#64 = DIRECTION ( 'NONE',  ( -0.0000000000000000000, -0.0000000000000000000, -1.000000000000000000 ) ) ;
#65 = ORIENTED_EDGE ( 'NONE', *, *, #290, .T. ) ;
#66 = DIRECTION ( 'NONE',  ( -1.000000000000000000, 0.0000000000000000000, 1.224646799147353454E-16 ) ) ;
#67 = EDGE_LOOP ( 'NONE', ( #104, #87, #16, #49 ) ) ;
#68 = DIRECTION ( 'NONE',  ( -1.224646799147353207E-16, -0.0000000000000000000, -1.000000000000000000 ) ) ;
#69 = CARTESIAN_POINT ( 'NONE',  ( 0.2350000000000003753, 2.969768487932332963E-17, 2.500000000000000000 ) ) ;
#70 = DIRECTION ( 'NONE',  ( 1.000000000000000000, 0.0000000000000000000, 0.0000000000000000000 ) ) ;
#71 = EDGE_CURVE ( 'NONE', #220, #243, #131, .T. ) ;
#72 = CIRCLE ( 'NONE', #128, 0.2497499999999999998 ) ;
#73 = LENGTH_MEASURE_WITH_UNIT ( LENGTH_MEASURE( 0.02539999999999999897 ), #188 );
#74 = DIMENSIONAL_EXPONENTS ( 1.000000000000000000, 0.0000000000000000000, 0.0000000000000000000, 0.0000000000000000000, 0.0000000000000000000, 0.0000000000000000000, 0.0000000000000000000 ) ;
#75 = CARTESIAN_POINT ( 'NONE',  ( -0.2499999999999999167, 0.0000000000000000000, 0.6264178204549043505 ) ) ;
#76 = CYLINDRICAL_SURFACE ( 'NONE', #158, 0.2497499999999999998 ) ;
#77 = ADVANCED_FACE ( 'NONE', ( #157 ), #111, .T. ) ;
#78 = AXIS2_PLACEMENT_3D ( 'NONE', #35, #264, #168 ) ;
#79 = CARTESIAN_POINT ( 'NONE',  ( -0.2497499999999999443, 3.060086189369449292E-17, 0.6250000000000000000 ) ) ;
#80 = VECTOR ( 'NONE', #228, 39.37007874015748143 ) ;
#81 = AXIS2_PLACEMENT_3D ( 'NONE', #83, #5, #218 ) ;
#82 = CARTESIAN_POINT ( 'NONE',  ( 7.671405787489599085E-17, 0.0000000000000000000, 0.6264178204549043505 ) ) ;
#83 = CARTESIAN_POINT ( 'NONE',  ( 0.0000000000000000000, 0.0000000000000000000, 2.500000000000000000 ) ) ;
#84 = AXIS2_PLACEMENT_3D ( 'NONE', #177, #182, #267 ) ;
#85 = DIRECTION ( 'NONE',  ( -1.224646799147353207E-16, -0.0000000000000000000, -1.000000000000000000 ) ) ;
#86 = CARTESIAN_POINT ( 'NONE',  ( 7.654042494670957853E-17, 0.0000000000000000000, 0.6250000000000000000 ) ) ;
#87 = ORIENTED_EDGE ( 'NONE', *, *, #58, .T. ) ;
#88 = DIRECTION ( 'NONE',  ( 0.0000000000000000000, 0.0000000000000000000, 1.000000000000000000 ) ) ;
#89 = VERTEX_POINT ( 'NONE', #69 ) ;
#90 = CYLINDRICAL_SURFACE ( 'NONE', #249, 0.2497499999999999998 ) ;
#91 = FACE_OUTER_BOUND ( 'NONE', #67, .T. ) ;
#92 = DIRECTION ( 'NONE',  ( -1.224646799147353207E-16, -0.0000000000000000000, -1.000000000000000000 ) ) ;
#93 = SURFACE_STYLE_USAGE ( .BOTH. , #136 ) ;
#94 = PRESENTATION_LAYER_ASSIGNMENT (  '', '', ( #275 ) ) ;
#95 = DIRECTION ( 'NONE',  ( 1.000000000000000000, 0.0000000000000000000, 0.0000000000000000000 ) ) ;
#96 = CARTESIAN_POINT ( 'NONE',  ( 0.0000000000000000000, 0.0000000000000000000, 0.0000000000000000000 ) ) ;
#97 = CIRCLE ( 'NONE', #245, 0.2497499999999999998 ) ;
#98 = FACE_OUTER_BOUND ( 'NONE', #241, .T. ) ;
#99 = EDGE_CURVE ( 'NONE', #129, #195, #253, .T. ) ;
#100 = PLANE ( 'NONE',  #14 ) ;
#101 = UNCERTAINTY_MEASURE_WITH_UNIT (LENGTH_MEASURE( 1.000000000000000082E-05 ), #262, 'distance_accuracy_value', 'NONE');
#102 = LENGTH_MEASURE_WITH_UNIT ( LENGTH_MEASURE( 0.02539999999999999897 ), #142 );
#103 = PRODUCT ( 'Micro_SEM-500-02X', 'Micro_SEM-500-02X', '', ( #132 ) ) ;
#104 = ORIENTED_EDGE ( 'NONE', *, *, #273, .F. ) ;
#105 = DIRECTION ( 'NONE',  ( -1.224646799147353207E-16, -0.0000000000000000000, -1.000000000000000000 ) ) ;
#106 = VERTEX_POINT ( 'NONE', #232 ) ;
#107 = ORIENTED_EDGE ( 'NONE', *, *, #54, .F. ) ;
#108 = CIRCLE ( 'NONE', #160, 0.2500000000000000000 ) ;
#109 = ORIENTED_EDGE ( 'NONE', *, *, #248, .T. ) ;
#110 = DIRECTION ( 'NONE',  ( -0.1736481776669312194, 2.126576849575783625E-17, 0.9848077530122080203 ) ) ;
#111 = CYLINDRICAL_SURFACE ( 'NONE', #269, 0.2500000000000000000 ) ;
#112 = ORIENTED_EDGE ( 'NONE', *, *, #298, .T. ) ;
#113 = ORIENTED_EDGE ( 'NONE', *, *, #219, .T. ) ;
#114 = CARTESIAN_POINT ( 'NONE',  ( -0.2350000000000003753, 0.0000000000000000000, 2.500000000000000000 ) ) ;
#115 = CIRCLE ( 'NONE', #189, 0.2497499999999999998 ) ;
#116 = PRODUCT_DEFINITION ( 'UNKNOWN', '', #20, #196 ) ;
#117 =( CONVERSION_BASED_UNIT ( 'INCH', #73 ) LENGTH_UNIT ( ) NAMED_UNIT ( #74 ) );
#118 = FILL_AREA_STYLE_COLOUR ( '', #29 ) ;
#119 = DIRECTION ( 'NONE',  ( 0.0000000000000000000, 0.0000000000000000000, 1.000000000000000000 ) ) ;
#120 = DIRECTION ( 'NONE',  ( -1.224646799147353207E-16, -0.0000000000000000000, -1.000000000000000000 ) ) ;
#121 = ORIENTED_EDGE ( 'NONE', *, *, #239, .F. ) ;
#122 = EDGE_LOOP ( 'NONE', ( #217, #254, #291, #22 ) ) ;
#123 = VECTOR ( 'NONE', #110, 39.37007874015747433 ) ;
#124 = ORIENTED_EDGE ( 'NONE', *, *, #71, .T. ) ;
#125 = ADVANCED_FACE ( 'NONE', ( #166 ), #261, .T. ) ;
#126 = ORIENTED_EDGE ( 'NONE', *, *, #33, .T. ) ;
#127 = DIRECTION ( 'NONE',  ( -1.000000000000000000, 0.0000000000000000000, 1.224646799147353454E-16 ) ) ;
#128 = AXIS2_PLACEMENT_3D ( 'NONE', #209, #2, #211 ) ;
#129 = VERTEX_POINT ( 'NONE', #161 ) ;
#130 = DIRECTION ( 'NONE',  ( 1.000000000000000000, 0.0000000000000000000, 0.0000000000000000000 ) ) ;
#131 = LINE ( 'NONE', #184, #80 ) ;
#132 = PRODUCT_CONTEXT ( 'NONE', #224, 'mechanical' ) ;
#133 = CARTESIAN_POINT ( 'NONE',  ( 0.0000000000000000000, 0.0000000000000000000, 2.484999999999999876 ) ) ;
#134 = ORIENTED_EDGE ( 'NONE', *, *, #298, .F. ) ;
#135 = CARTESIAN_POINT ( 'NONE',  ( 0.0000000000000000000, 0.0000000000000000000, 2.500000000000000000 ) ) ;
#136 = SURFACE_SIDE_STYLE ('',( #256 ) ) ;
#137 = DIRECTION ( 'NONE',  ( -1.000000000000000000, 0.0000000000000000000, 1.224646799147353454E-16 ) ) ;
#138 = DIRECTION ( 'NONE',  ( -0.7071067811865330288, 0.0000000000000000000, -0.7071067811865618946 ) ) ;
#139 = VECTOR ( 'NONE', #64, 39.37007874015748143 ) ;
#140 = CARTESIAN_POINT ( 'NONE',  ( 0.2500000000000000000, 3.061616997868383018E-17, 2.500000000000000000 ) ) ;
#141 = VERTEX_POINT ( 'NONE', #24 ) ;
#142 =( LENGTH_UNIT ( ) NAMED_UNIT ( * ) SI_UNIT ( $, .METRE. ) );
#143 = ORIENTED_EDGE ( 'NONE', *, *, #99, .T. ) ;
#144 = EDGE_CURVE ( 'NONE', #106, #141, #208, .T. ) ;
#145 = FILL_AREA_STYLE_COLOUR ( '', #296 ) ;
#146 = CARTESIAN_POINT ( 'NONE',  ( -0.2497499999999999998, 0.0000000000000000000, 6.117110761741029900E-17 ) ) ;
#147 =( GEOMETRIC_REPRESENTATION_CONTEXT ( 3 ) GLOBAL_UNCERTAINTY_ASSIGNED_CONTEXT ( ( #101 ) ) GLOBAL_UNIT_ASSIGNED_CONTEXT ( ( #262, #61, #176 ) ) REPRESENTATION_CONTEXT ( 'NONE', 'WORKASPACE' ) );
#148 = DIRECTION ( 'NONE',  ( -0.0000000000000000000, -0.0000000000000000000, -1.000000000000000000 ) ) ;
#149 = ORIENTED_EDGE ( 'NONE', *, *, #8, .T. ) ;
#150 = DIRECTION ( 'NONE',  ( 0.0000000000000000000, 0.0000000000000000000, -1.000000000000000000 ) ) ;
#151 = DIRECTION ( 'NONE',  ( 0.0000000000000000000, 0.0000000000000000000, 1.000000000000000000 ) ) ;
#152 = VERTEX_POINT ( 'NONE', #75 ) ;
#153 = CIRCLE ( 'NONE', #159, 0.2500000000000000000 ) ;
#154 = DIRECTION ( 'NONE',  ( 1.000000000000000000, 0.0000000000000000000, 0.0000000000000000000 ) ) ;
#155 =( NAMED_UNIT ( * ) PLANE_ANGLE_UNIT ( ) SI_UNIT ( $, .RADIAN. ) );
#156 = CARTESIAN_POINT ( 'NONE',  ( -0.2497499999999999443, 3.058555380870514950E-17, 0.6250000000000000000 ) ) ;
#157 = FACE_OUTER_BOUND ( 'NONE', #270, .T. ) ;
#158 = AXIS2_PLACEMENT_3D ( 'NONE', #96, #3, #165 ) ;
#159 = AXIS2_PLACEMENT_3D ( 'NONE', #179, #45, #292 ) ;
#160 = AXIS2_PLACEMENT_3D ( 'NONE', #82, #120, #193 ) ;
#161 = CARTESIAN_POINT ( 'NONE',  ( 0.2497500000000000830, 0.0000000000000000000, 0.6250000000000000000 ) ) ;
#162 = DIRECTION ( 'NONE',  ( 0.0000000000000000000, 0.0000000000000000000, -1.000000000000000000 ) ) ;
#163 = CARTESIAN_POINT ( 'NONE',  ( 0.2500000000000000555, 3.061616997868383634E-17, 0.6264178204549043505 ) ) ;
#164 = CLOSED_SHELL ( 'NONE', ( #23, #18, #235, #77, #125, #167, #172, #198, #181, #278 ) ) ;
#165 = DIRECTION ( 'NONE',  ( -1.000000000000000000, 0.0000000000000000000, 1.224646799147353454E-16 ) ) ;
#166 = FACE_OUTER_BOUND ( 'NONE', #7, .T. ) ;
#167 = ADVANCED_FACE ( 'NONE', ( #98 ), #186, .T. ) ;
#168 = DIRECTION ( 'NONE',  ( 1.000000000000000000, 0.0000000000000000000, 0.0000000000000000000 ) ) ;
#169 = UNCERTAINTY_MEASURE_WITH_UNIT (LENGTH_MEASURE( 1.000000000000000082E-05 ), #117, 'distance_accuracy_value', 'NONE');
#170 = PRESENTATION_LAYER_ASSIGNMENT (  '', '', ( #244 ) ) ;
#171 = ORIENTED_EDGE ( 'NONE', *, *, #58, .F. ) ;
#172 = ADVANCED_FACE ( 'NONE', ( #277 ), #255, .T. ) ;
#173 = CARTESIAN_POINT ( 'NONE',  ( 0.0000000000000000000, 0.0000000000000000000, 0.0000000000000000000 ) ) ;
#174 = LINE ( 'NONE', #140, #56 ) ;
#175 = ORIENTED_EDGE ( 'NONE', *, *, #12, .T. ) ;
#176 =( NAMED_UNIT ( * ) SI_UNIT ( $, .STERADIAN. ) SOLID_ANGLE_UNIT ( ) );
#177 = CARTESIAN_POINT ( 'NONE',  ( 7.654042494670957853E-17, 0.0000000000000000000, 0.6250000000000000000 ) ) ;
#178 = DIRECTION ( 'NONE',  ( 0.7071067811865330288, 8.659560562354755364E-17, -0.7071067811865618946 ) ) ;
#179 = CARTESIAN_POINT ( 'NONE',  ( 7.671405787489599085E-17, 0.0000000000000000000, 0.6264178204549043505 ) ) ;
#180 = CIRCLE ( 'NONE', #285, 0.2500000000000000000 ) ;
#181 = ADVANCED_FACE ( 'NONE', ( #237 ), #76, .T. ) ;
#182 = DIRECTION ( 'NONE',  ( 1.224646799147353207E-16, 0.0000000000000000000, 1.000000000000000000 ) ) ;
#183 = APPLICATION_PROTOCOL_DEFINITION ( 'draft international standard', 'automotive_design', 1998, #257 ) ;
#184 = CARTESIAN_POINT ( 'NONE',  ( -0.2497499999999999998, 0.0000000000000000000, 3.058555380870514950E-17 ) ) ;
#185 = MANIFOLD_SOLID_BREP ( 'Cut-Revolve1', #164 ) ;
#186 = PLANE ( 'NONE',  #288 ) ;
#187 = DIRECTION ( 'NONE',  ( -0.0000000000000000000, -0.0000000000000000000, -1.000000000000000000 ) ) ;
#188 =( LENGTH_UNIT ( ) NAMED_UNIT ( * ) SI_UNIT ( $, .METRE. ) );
#189 = AXIS2_PLACEMENT_3D ( 'NONE', #274, #92, #127 ) ;
#190 = DIRECTION ( 'NONE',  ( 1.000000000000000000, 0.0000000000000000000, -0.0000000000000000000 ) ) ;
#191 = DIRECTION ( 'NONE',  ( 1.000000000000000000, 0.0000000000000000000, -0.0000000000000000000 ) ) ;
#192 = FILL_AREA_STYLE ('',( #145 ) ) ;
#193 = DIRECTION ( 'NONE',  ( 1.000000000000000000, 0.0000000000000000000, 0.0000000000000000000 ) ) ;
#194 =( CONVERSION_BASED_UNIT ( 'INCH', #215 ) LENGTH_UNIT ( ) NAMED_UNIT ( #231 ) );
#195 = VERTEX_POINT ( 'NONE', #163 ) ;
#196 = PRODUCT_DEFINITION_CONTEXT ( 'detailed design', #257, 'design' ) ;
#197 = DIRECTION ( 'NONE',  ( 0.0000000000000000000, 0.0000000000000000000, 1.000000000000000000 ) ) ;
#198 = ADVANCED_FACE ( 'NONE', ( #1 ), #62, .T. ) ;
#199 = AXIS2_PLACEMENT_3D ( 'NONE', #51, #52, #234 ) ;
#200 = ORIENTED_EDGE ( 'NONE', *, *, #239, .T. ) ;
#201 = CIRCLE ( 'NONE', #199, 0.2350000000000003753 ) ;
#202 = CARTESIAN_POINT ( 'NONE',  ( 0.2500000000000000000, 3.061616997868383018E-17, 2.484999999999999876 ) ) ;
#203 = EDGE_LOOP ( 'NONE', ( #126, #44 ) ) ;
#204 = CARTESIAN_POINT ( 'NONE',  ( 0.0000000000000000000, 0.0000000000000000000, 2.500000000000000000 ) ) ;
#205 = AXIS2_PLACEMENT_3D ( 'NONE', #135, #162, #53 ) ;
#206 = ORIENTED_EDGE ( 'NONE', *, *, #248, .F. ) ;
#207 = CARTESIAN_POINT ( 'NONE',  ( 0.0000000000000000000, 0.0000000000000000000, 2.500000000000000000 ) ) ;
#208 = LINE ( 'NONE', #114, #9 ) ;
#209 = CARTESIAN_POINT ( 'NONE',  ( 7.654042494670957853E-17, 0.0000000000000000000, 0.6250000000000000000 ) ) ;
#210 = EDGE_CURVE ( 'NONE', #89, #106, #201, .T. ) ;
#211 = DIRECTION ( 'NONE',  ( -1.000000000000000000, 0.0000000000000000000, 0.0000000000000000000 ) ) ;
#212 =( GEOMETRIC_REPRESENTATION_CONTEXT ( 3 ) GLOBAL_UNCERTAINTY_ASSIGNED_CONTEXT ( ( #283 ) ) GLOBAL_UNIT_ASSIGNED_CONTEXT ( ( #194, #155, #227 ) ) REPRESENTATION_CONTEXT ( 'NONE', 'WORKASPACE' ) );
#213 = EDGE_CURVE ( 'NONE', #286, #243, #47, .T. ) ;
#214 = CARTESIAN_POINT ( 'NONE',  ( -0.2500000000000000000, 0.0000000000000000000, 2.500000000000000000 ) ) ;
#215 = LENGTH_MEASURE_WITH_UNIT ( LENGTH_MEASURE( 0.02539999999999999897 ), #242 );
#216 = VECTOR ( 'NONE', #178, 39.37007874015748854 ) ;
#217 = ORIENTED_EDGE ( 'NONE', *, *, #12, .F. ) ;
#218 = DIRECTION ( 'NONE',  ( -1.000000000000000000, 0.0000000000000000000, 0.0000000000000000000 ) ) ;
#219 = EDGE_CURVE ( 'NONE', #129, #220, #72, .T. ) ;
#220 = VERTEX_POINT ( 'NONE', #79 ) ;
#221 = PRODUCT_DEFINITION_SHAPE ( 'NONE', 'NONE',  #116 ) ;
#222 = AXIS2_PLACEMENT_3D ( 'NONE', #297, #26, #137 ) ;
#223 = ORIENTED_EDGE ( 'NONE', *, *, #290, .F. ) ;
#224 = APPLICATION_CONTEXT ( 'automotive_design' ) ;
#225 = EDGE_CURVE ( 'NONE', #129, #286, #236, .T. ) ;
#226 = FACE_OUTER_BOUND ( 'NONE', #13, .T. ) ;
#227 =( NAMED_UNIT ( * ) SI_UNIT ( $, .STERADIAN. ) SOLID_ANGLE_UNIT ( ) );
#228 = DIRECTION ( 'NONE',  ( -1.224646799147353207E-16, -0.0000000000000000000, -1.000000000000000000 ) ) ;
#229 = DIRECTION ( 'NONE',  ( 0.1736481776669314137, 0.0000000000000000000, 0.9848077530122077983 ) ) ;
#230 = ORIENTED_EDGE ( 'NONE', *, *, #273, .T. ) ;
#231 = DIMENSIONAL_EXPONENTS ( 1.000000000000000000, 0.0000000000000000000, 0.0000000000000000000, 0.0000000000000000000, 0.0000000000000000000, 0.0000000000000000000, 0.0000000000000000000 ) ;
#232 = CARTESIAN_POINT ( 'NONE',  ( -0.2350000000000003753, 0.0000000000000000000, 2.500000000000000000 ) ) ;
#233 = VECTOR ( 'NONE', #229, 39.37007874015748143 ) ;
#234 = DIRECTION ( 'NONE',  ( 1.000000000000000000, 0.0000000000000000000, 0.0000000000000000000 ) ) ;
#235 = ADVANCED_FACE ( 'NONE', ( #265 ), #238, .T. ) ;
#236 = LINE ( 'NONE', #263, #282 ) ;
#237 = FACE_OUTER_BOUND ( 'NONE', #32, .T. ) ;
#238 = CONICAL_SURFACE ( 'NONE', #81, 0.2350000000000003753, 0.7853981633974278509 ) ;
#239 = EDGE_CURVE ( 'NONE', #195, #152, #108, .T. ) ;
#240 = SURFACE_SIDE_STYLE ('',( #38 ) ) ;
#241 = EDGE_LOOP ( 'NONE', ( #149, #60 ) ) ;
#242 =( LENGTH_UNIT ( ) NAMED_UNIT ( * ) SI_UNIT ( $, .METRE. ) );
#243 = VERTEX_POINT ( 'NONE', #146 ) ;
#244 = STYLED_ITEM ( 'NONE', ( #31 ), #43 ) ;
#245 = AXIS2_PLACEMENT_3D ( 'NONE', #86, #85, #59 ) ;
#246 = ORIENTED_EDGE ( 'NONE', *, *, #50, .T. ) ;
#247 = EDGE_LOOP ( 'NONE', ( #15, #175, #134, #39 ) ) ;
#248 = EDGE_CURVE ( 'NONE', #141, #152, #40, .T. ) ;
#249 = AXIS2_PLACEMENT_3D ( 'NONE', #295, #68, #66 ) ;
#250 = LINE ( 'NONE', #293, #216 ) ;
#251 = ORIENTED_EDGE ( 'NONE', *, *, #33, .F. ) ;
#252 = DIMENSIONAL_EXPONENTS ( 1.000000000000000000, 0.0000000000000000000, 0.0000000000000000000, 0.0000000000000000000, 0.0000000000000000000, 0.0000000000000000000, 0.0000000000000000000 ) ;
#253 = LINE ( 'NONE', #46, #233 ) ;
#254 = ORIENTED_EDGE ( 'NONE', *, *, #8, .F. ) ;
#255 = CONICAL_SURFACE ( 'NONE', #205, 0.2350000000000003753, 0.7853981633974278509 ) ;
#256 = SURFACE_STYLE_FILL_AREA ( #276 ) ;
#257 = APPLICATION_CONTEXT ( 'automotive_design' ) ;
#258 = PRODUCT_RELATED_PRODUCT_CATEGORY ( 'part', '', ( #103 ) ) ;
#259 = DIRECTION ( 'NONE',  ( 1.224646799147353207E-16, 0.0000000000000000000, 1.000000000000000000 ) ) ;
#260 = CARTESIAN_POINT ( 'NONE',  ( 7.654042494670957853E-17, 0.0000000000000000000, 0.6250000000000000000 ) ) ;
#261 = CYLINDRICAL_SURFACE ( 'NONE', #4, 0.2500000000000000000 ) ;
#262 =( CONVERSION_BASED_UNIT ( 'INCH', #102 ) LENGTH_UNIT ( ) NAMED_UNIT ( #252 ) );
#263 = CARTESIAN_POINT ( 'NONE',  ( 0.2497499999999999998, 3.058555380870514950E-17, -3.058555380870514950E-17 ) ) ;
#264 = DIRECTION ( 'NONE',  ( 0.0000000000000000000, 0.0000000000000000000, -1.000000000000000000 ) ) ;
#265 = FACE_OUTER_BOUND ( 'NONE', #247, .T. ) ;
#266 = AXIS2_PLACEMENT_3D ( 'NONE', #42, #151, #130 ) ;
#267 = DIRECTION ( 'NONE',  ( 1.000000000000000000, 0.0000000000000000000, 0.0000000000000000000 ) ) ;
#268 = LINE ( 'NONE', #156, #123 ) ;
#269 = AXIS2_PLACEMENT_3D ( 'NONE', #204, #294, #272 ) ;
#270 = EDGE_LOOP ( 'NONE', ( #112, #65, #107, #206 ) ) ;
#271 = SHAPE_DEFINITION_REPRESENTATION ( #221, #43 ) ;
#272 = DIRECTION ( 'NONE',  ( -1.000000000000000000, 0.0000000000000000000, 0.0000000000000000000 ) ) ;
#273 = EDGE_CURVE ( 'NONE', #220, #129, #97, .T. ) ;
#274 = CARTESIAN_POINT ( 'NONE',  ( 3.745650057197989622E-33, 0.0000000000000000000, 3.058555380870514950E-17 ) ) ;
#275 = STYLED_ITEM ( 'NONE', ( #28 ), #185 ) ;
#276 = FILL_AREA_STYLE ('',( #118 ) ) ;
#277 = FACE_OUTER_BOUND ( 'NONE', #122, .T. ) ;
#278 = ADVANCED_FACE ( 'NONE', ( #287 ), #100, .F. ) ;
#279 = CARTESIAN_POINT ( 'NONE',  ( 0.0000000000000000000, 0.0000000000000000000, 2.500000000000000000 ) ) ;
#280 =( NAMED_UNIT ( * ) PLANE_ANGLE_UNIT ( ) SI_UNIT ( $, .RADIAN. ) );
#281 = MECHANICAL_DESIGN_GEOMETRIC_PRESENTATION_REPRESENTATION (  '', ( #244 ), #212 ) ;
#282 = VECTOR ( 'NONE', #105, 39.37007874015748143 ) ;
#283 = UNCERTAINTY_MEASURE_WITH_UNIT (LENGTH_MEASURE( 1.000000000000000082E-05 ), #194, 'distance_accuracy_value', 'NONE');
#284 = ORIENTED_EDGE ( 'NONE', *, *, #225, .T. ) ;
#285 = AXIS2_PLACEMENT_3D ( 'NONE', #133, #150, #154 ) ;
#286 = VERTEX_POINT ( 'NONE', #10 ) ;
#287 = FACE_OUTER_BOUND ( 'NONE', #203, .T. ) ;
#288 = AXIS2_PLACEMENT_3D ( 'NONE', #279, #119, #190 ) ;
#289 = MECHANICAL_DESIGN_GEOMETRIC_PRESENTATION_REPRESENTATION (  '', ( #275 ), #63 ) ;
#290 = EDGE_CURVE ( 'NONE', #36, #195, #174, .T. ) ;
#291 = ORIENTED_EDGE ( 'NONE', *, *, #144, .T. ) ;
#292 = DIRECTION ( 'NONE',  ( 1.000000000000000000, 0.0000000000000000000, 0.0000000000000000000 ) ) ;
#293 = CARTESIAN_POINT ( 'NONE',  ( 0.2350000000000003753, 2.877919977996284141E-17, 2.500000000000000000 ) ) ;
#294 = DIRECTION ( 'NONE',  ( -0.0000000000000000000, -0.0000000000000000000, -1.000000000000000000 ) ) ;
#295 = CARTESIAN_POINT ( 'NONE',  ( 0.0000000000000000000, 0.0000000000000000000, 0.0000000000000000000 ) ) ;
#296 = COLOUR_RGB ( '',0.7921568627450980005, 0.8196078431372548767, 0.9333333333333333481 ) ;
#297 = CARTESIAN_POINT ( 'NONE',  ( 3.745650057197989622E-33, 0.0000000000000000000, 3.058555380870514950E-17 ) ) ;
#298 = EDGE_CURVE ( 'NONE', #141, #36, #30, .T. ) ;
#299 = CONICAL_SURFACE ( 'NONE', #84, 0.2497499999999999998, 0.1745329251994339192 ) ;
ENDSEC;
END-ISO-10303-21;
