ISO-10303-21;
HEADER;
FILE_DESCRIPTION (( 'STEP AP214' ),
    '1' );
FILE_NAME ('Micro_BMR-031-2X.STEP',
    '2021-09-03T14:04:39',
    ( '' ),
    ( '' ),
    'SwSTEP 2.0',
    'SolidWorks 2020',
    '' );
FILE_SCHEMA (( 'AUTOMOTIVE_DESIGN' ));
ENDSEC;

DATA;
#1 = EDGE_CURVE ( 'NONE', #273, #145, #111, .T. ) ;
#2 = AXIS2_PLACEMENT_3D ( 'NONE', #191, #211, #187 ) ;
#3 = DIMENSIONAL_EXPONENTS ( 1.000000000000000000, 0.0000000000000000000, 0.0000000000000000000, 0.0000000000000000000, 0.0000000000000000000, 0.0000000000000000000, 0.0000000000000000000 ) ;
#4 = ORIENTED_EDGE ( 'NONE', *, *, #94, .F. ) ;
#5 = DIRECTION ( 'NONE',  ( -1.000000000000000000, 0.0000000000000000000, 0.0000000000000000000 ) ) ;
#6 = SURFACE_STYLE_USAGE ( .BOTH. , #230 ) ;
#7 = VERTEX_POINT ( 'NONE', #54 ) ;
#8 = CONICAL_SURFACE ( 'NONE', #158, 0.04750000000000064587, 0.7853981633974466137 ) ;
#9 = VECTOR ( 'NONE', #197, 39.37007874015748143 ) ;
#10 = ADVANCED_FACE ( 'NONE', ( #154 ), #8, .T. ) ;
#11 =( LENGTH_UNIT ( ) NAMED_UNIT ( * ) SI_UNIT ( $, .METRE. ) );
#12 = EDGE_CURVE ( 'NONE', #200, #22, #56, .T. ) ;
#13 = AXIS2_PLACEMENT_3D ( 'NONE', #303, #177, #31 ) ;
#14 = MECHANICAL_DESIGN_GEOMETRIC_PRESENTATION_REPRESENTATION (  '', ( #117 ), #28 ) ;
#15 = SURFACE_SIDE_STYLE ('',( #18 ) ) ;
#16 = FACE_OUTER_BOUND ( 'NONE', #228, .T. ) ;
#17 = DIRECTION ( 'NONE',  ( -1.000000000000000000, 0.0000000000000000000, 1.378317830766382784E-16 ) ) ;
#18 = SURFACE_STYLE_FILL_AREA ( #263 ) ;
#19 = STYLED_ITEM ( 'NONE', ( #266 ), #203 ) ;
#20 = LINE ( 'NONE', #146, #70 ) ;
#21 = CARTESIAN_POINT ( 'NONE',  ( 4.404297097266760210E-17, 0.0000000000000000000, 0.3596381503902351118 ) ) ;
#22 = VERTEX_POINT ( 'NONE', #81 ) ;
#23 = ORIENTED_EDGE ( 'NONE', *, *, #103, .F. ) ;
#24 = CARTESIAN_POINT ( 'NONE',  ( 0.0000000000000000000, 0.0000000000000000000, 1.485000000000000764 ) ) ;
#25 = ORIENTED_EDGE ( 'NONE', *, *, #226, .F. ) ;
#26 = ORIENTED_EDGE ( 'NONE', *, *, #1, .T. ) ;
#27 = CARTESIAN_POINT ( 'NONE',  ( -0.01548450000000000000, 0.0000000000000000000, 0.01548450000000000173 ) ) ;
#28 =( GEOMETRIC_REPRESENTATION_CONTEXT ( 3 ) GLOBAL_UNCERTAINTY_ASSIGNED_CONTEXT ( ( #246 ) ) GLOBAL_UNIT_ASSIGNED_CONTEXT ( ( #102, #306, #302 ) ) REPRESENTATION_CONTEXT ( 'NONE', 'WORKASPACE' ) );
#29 = DIRECTION ( 'NONE',  ( 1.000000000000000000, 0.0000000000000000000, -0.0000000000000000000 ) ) ;
#30 = APPLICATION_PROTOCOL_DEFINITION ( 'draft international standard', 'automotive_design', 1998, #165 ) ;
#31 = DIRECTION ( 'NONE',  ( -1.000000000000000000, 1.224646799147353207E-16, 0.0000000000000000000 ) ) ;
#32 = SHAPE_DEFINITION_REPRESENTATION ( #80, #40 ) ;
#33 = DIRECTION ( 'NONE',  ( -0.7071067811865462405, 0.0000000000000000000, -0.7071067811865486830 ) ) ;
#34 = EDGE_CURVE ( 'NONE', #77, #48, #149, .T. ) ;
#35 = DIRECTION ( 'NONE',  ( -1.224646799147353454E-16, -0.0000000000000000000, -1.000000000000000000 ) ) ;
#36 = DIRECTION ( 'NONE',  ( -1.224646799147353454E-16, -0.0000000000000000000, -1.000000000000000000 ) ) ;
#37 = PRODUCT_DEFINITION_FORMATION_WITH_SPECIFIED_SOURCE ( 'ANY', '', #46, .NOT_KNOWN. ) ;
#38 = DIRECTION ( 'NONE',  ( 0.1736481776669313304, 0.0000000000000000000, 0.9848077530122077983 ) ) ;
#39 = CARTESIAN_POINT ( 'NONE',  ( 0.01548450000000001041, 0.0000000000000000000, 0.09299999999999999933 ) ) ;
#40 = ADVANCED_BREP_SHAPE_REPRESENTATION ( 'Micro_BMR-031-2X', ( #203, #73 ), #314 ) ;
#41 = AXIS2_PLACEMENT_3D ( 'NONE', #317, #293, #173 ) ;
#42 = CARTESIAN_POINT ( 'NONE',  ( -0.06250000000000002776, 0.0000000000000000000, 1.500000000000000222 ) ) ;
#43 = AXIS2_PLACEMENT_3D ( 'NONE', #166, #167, #17 ) ;
#44 = FACE_OUTER_BOUND ( 'NONE', #308, .T. ) ;
#45 = EDGE_LOOP ( 'NONE', ( #75, #82, #97, #222 ) ) ;
#46 = PRODUCT ( 'Micro_BMR-031-2X', 'Micro_BMR-031-2X', '', ( #57 ) ) ;
#47 = DIRECTION ( 'NONE',  ( -0.0000000000000000000, -0.0000000000000000000, -1.000000000000000000 ) ) ;
#48 = VERTEX_POINT ( 'NONE', #27 ) ;
#49 = CARTESIAN_POINT ( 'NONE',  ( 0.01548450000000001041, 0.0000000000000000000, 0.09299999999999999933 ) ) ;
#50 = AXIS2_PLACEMENT_3D ( 'NONE', #24, #76, #298 ) ;
#51 = COLOUR_RGB ( '',0.7921568627450980005, 0.8196078431372548767, 0.9333333333333333481 ) ;
#52 = LENGTH_MEASURE_WITH_UNIT ( LENGTH_MEASURE( 0.02539999999999999897 ), #324 );
#53 = EDGE_LOOP ( 'NONE', ( #23, #172, #284, #294 ) ) ;
#54 = CARTESIAN_POINT ( 'NONE',  ( 0.06250000000000006939, 7.654042494670963708E-18, 0.3596381503902351118 ) ) ;
#55 = CIRCLE ( 'NONE', #189, 0.01548450000000000000 ) ;
#56 = LINE ( 'NONE', #261, #184 ) ;
#57 = PRODUCT_CONTEXT ( 'NONE', #165, 'mechanical' ) ;
#58 = LINE ( 'NONE', #260, #307 ) ;
#59 = EDGE_CURVE ( 'NONE', #156, #180, #178, .T. ) ;
#60 = ORIENTED_EDGE ( 'NONE', *, *, #169, .T. ) ;
#61 = VECTOR ( 'NONE', #160, 39.37007874015747433 ) ;
#62 = AXIS2_PLACEMENT_3D ( 'NONE', #71, #175, #221 ) ;
#63 = ADVANCED_FACE ( 'NONE', ( #108 ), #126, .T. ) ;
#64 = DIRECTION ( 'NONE',  ( -1.000000000000000000, 0.0000000000000000000, 0.0000000000000000000 ) ) ;
#65 = DIRECTION ( 'NONE',  ( 0.0000000000000000000, 0.0000000000000000000, 1.000000000000000000 ) ) ;
#66 = EDGE_CURVE ( 'NONE', #156, #200, #55, .T. ) ;
#67 = DIRECTION ( 'NONE',  ( 1.000000000000000000, 0.0000000000000000000, 0.0000000000000000000 ) ) ;
#68 = CARTESIAN_POINT ( 'NONE',  ( 0.0000000000000000000, 0.0000000000000000000, 1.500000000000000222 ) ) ;
#69 = ORIENTED_EDGE ( 'NONE', *, *, #66, .T. ) ;
#70 = VECTOR ( 'NONE', #47, 39.37007874015748143 ) ;
#71 = CARTESIAN_POINT ( 'NONE',  ( 1.138921523207038888E-17, 0.0000000000000000000, 0.09299999999999999933 ) ) ;
#72 = PRODUCT_DEFINITION ( 'UNKNOWN', '', #37, #251 ) ;
#73 = AXIS2_PLACEMENT_3D ( 'NONE', #304, #179, #283 ) ;
#74 = LINE ( 'NONE', #42, #9 ) ;
#75 = ORIENTED_EDGE ( 'NONE', *, *, #118, .F. ) ;
#76 = DIRECTION ( 'NONE',  ( 0.0000000000000000000, 0.0000000000000000000, -1.000000000000000000 ) ) ;
#77 = VERTEX_POINT ( 'NONE', #231 ) ;
#78 = CARTESIAN_POINT ( 'NONE',  ( 0.0000000000000000000, 0.0000000000000000000, 1.500000000000000222 ) ) ;
#79 =( NAMED_UNIT ( * ) PLANE_ANGLE_UNIT ( ) SI_UNIT ( $, .RADIAN. ) );
#80 = PRODUCT_DEFINITION_SHAPE ( 'NONE', 'NONE',  #72 ) ;
#81 = CARTESIAN_POINT ( 'NONE',  ( 0.01548450000000000520, 1.896304336139719238E-18, 0.01548449999999999827 ) ) ;
#82 = ORIENTED_EDGE ( 'NONE', *, *, #269, .F. ) ;
#83 = PRESENTATION_LAYER_ASSIGNMENT (  '', '', ( #117 ) ) ;
#84 = EDGE_LOOP ( 'NONE', ( #196, #271, #109 ) ) ;
#85 = CONICAL_SURFACE ( 'NONE', #234, 0.01548450000000000000, 0.1745329251994338360 ) ;
#86 = DIRECTION ( 'NONE',  ( 1.000000000000000000, 0.0000000000000000000, 0.0000000000000000000 ) ) ;
#87 = LINE ( 'NONE', #88, #190 ) ;
#88 = CARTESIAN_POINT ( 'NONE',  ( -0.01548450000000000173, 0.0000000000000000000, 1.896304336139719623E-18 ) ) ;
#89 = AXIS2_PLACEMENT_3D ( 'NONE', #270, #242, #247 ) ;
#90 = AXIS2_PLACEMENT_3D ( 'NONE', #287, #36, #312 ) ;
#91 = LINE ( 'NONE', #39, #281 ) ;
#92 = DIRECTION ( 'NONE',  ( 0.0000000000000000000, 0.0000000000000000000, -1.000000000000000000 ) ) ;
#93 = ADVANCED_FACE ( 'NONE', ( #305 ), #272, .T. ) ;
#94 = EDGE_CURVE ( 'NONE', #152, #243, #232, .T. ) ;
#95 = CARTESIAN_POINT ( 'NONE',  ( -0.01548449999999998959, 4.775173415405338777E-18, 0.09299999999999999933 ) ) ;
#96 = LINE ( 'NONE', #223, #140 ) ;
#97 = ORIENTED_EDGE ( 'NONE', *, *, #315, .T. ) ;
#98 = MECHANICAL_DESIGN_GEOMETRIC_PRESENTATION_REPRESENTATION (  '', ( #19 ), #113 ) ;
#99 = DIRECTION ( 'NONE',  ( 0.0000000000000000000, 1.000000000000000000, 0.0000000000000000000 ) ) ;
#100 = ORIENTED_EDGE ( 'NONE', *, *, #213, .T. ) ;
#101 = ORIENTED_EDGE ( 'NONE', *, *, #148, .F. ) ;
#102 =( CONVERSION_BASED_UNIT ( 'INCH', #52 ) LENGTH_UNIT ( ) NAMED_UNIT ( #155 ) );
#103 = EDGE_CURVE ( 'NONE', #243, #7, #20, .T. ) ;
#104 = ADVANCED_FACE ( 'NONE', ( #119 ), #249, .T. ) ;
#105 = EDGE_LOOP ( 'NONE', ( #69, #224, #100, #25 ) ) ;
#106 = ORIENTED_EDGE ( 'NONE', *, *, #209, .F. ) ;
#107 = SURFACE_STYLE_FILL_AREA ( #278 ) ;
#108 = FACE_OUTER_BOUND ( 'NONE', #125, .T. ) ;
#109 = ORIENTED_EDGE ( 'NONE', *, *, #213, .F. ) ;
#110 = CYLINDRICAL_SURFACE ( 'NONE', #276, 0.01548450000000000173 ) ;
#111 = CIRCLE ( 'NONE', #214, 0.04750000000000064587 ) ;
#112 = CIRCLE ( 'NONE', #159, 0.06250000000000002776 ) ;
#113 =( GEOMETRIC_REPRESENTATION_CONTEXT ( 3 ) GLOBAL_UNCERTAINTY_ASSIGNED_CONTEXT ( ( #311 ) ) GLOBAL_UNIT_ASSIGNED_CONTEXT ( ( #240, #136, #289 ) ) REPRESENTATION_CONTEXT ( 'NONE', 'WORKASPACE' ) );
#114 = ADVANCED_FACE ( 'NONE', ( #44 ), #216, .T. ) ;
#115 = SURFACE_STYLE_USAGE ( .BOTH. , #15 ) ;
#116 = DIRECTION ( 'NONE',  ( -1.224646799147353454E-16, -0.0000000000000000000, -1.000000000000000000 ) ) ;
#117 = STYLED_ITEM ( 'NONE', ( #257 ), #40 ) ;
#118 = EDGE_CURVE ( 'NONE', #273, #243, #96, .T. ) ;
#119 = FACE_OUTER_BOUND ( 'NONE', #133, .T. ) ;
#120 = EDGE_LOOP ( 'NONE', ( #250, #207, #198, #225 ) ) ;
#121 = FACE_OUTER_BOUND ( 'NONE', #84, .T. ) ;
#122 = ORIENTED_EDGE ( 'NONE', *, *, #59, .F. ) ;
#123 = DIRECTION ( 'NONE',  ( 0.7071067811865462405, 8.659560562354916834E-17, -0.7071067811865486830 ) ) ;
#124 = DIRECTION ( 'NONE',  ( 0.0000000000000000000, 1.000000000000000000, 0.0000000000000000000 ) ) ;
#125 = EDGE_LOOP ( 'NONE', ( #277, #26 ) ) ;
#126 = PLANE ( 'NONE',  #194 ) ;
#127 = CONICAL_SURFACE ( 'NONE', #208, 0.01548450000000000000, 0.1745329251994338360 ) ;
#128 = EDGE_CURVE ( 'NONE', #77, #22, #325, .T. ) ;
#129 = CARTESIAN_POINT ( 'NONE',  ( 1.138921523207038888E-17, 0.0000000000000000000, 0.09299999999999999933 ) ) ;
#130 = FILL_AREA_STYLE_COLOUR ( '', #185 ) ;
#131 = CARTESIAN_POINT ( 'NONE',  ( -0.01548449999999998959, 1.896304336139719238E-18, 0.09299999999999999933 ) ) ;
#132 = UNCERTAINTY_MEASURE_WITH_UNIT (LENGTH_MEASURE( 1.000000000000000082E-05 ), #153, 'distance_accuracy_value', 'NONE');
#133 = EDGE_LOOP ( 'NONE', ( #322, #162, #101, #204 ) ) ;
#134 = CIRCLE ( 'NONE', #2, 0.06250000000000002776 ) ;
#135 = FACE_OUTER_BOUND ( 'NONE', #105, .T. ) ;
#136 =( NAMED_UNIT ( * ) PLANE_ANGLE_UNIT ( ) SI_UNIT ( $, .RADIAN. ) );
#137 = APPLICATION_CONTEXT ( 'automotive_design' ) ;
#138 = DIRECTION ( 'NONE',  ( 1.000000000000000000, 0.0000000000000000000, 0.0000000000000000000 ) ) ;
#139 = FACE_OUTER_BOUND ( 'NONE', #120, .T. ) ;
#140 = VECTOR ( 'NONE', #123, 39.37007874015748854 ) ;
#141 = AXIS2_PLACEMENT_3D ( 'NONE', #238, #65, #138 ) ;
#142 = CARTESIAN_POINT ( 'NONE',  ( 0.0000000000000000000, 0.0000000000000000000, 1.500000000000000222 ) ) ;
#143 = ORIENTED_EDGE ( 'NONE', *, *, #118, .T. ) ;
#144 = CARTESIAN_POINT ( 'NONE',  ( -0.04750000000000064587, 0.0000000000000000000, 1.500000000000000222 ) ) ;
#145 = VERTEX_POINT ( 'NONE', #144 ) ;
#146 = CARTESIAN_POINT ( 'NONE',  ( 0.06250000000000002776, 7.654042494670959086E-18, 1.500000000000000222 ) ) ;
#147 = ORIENTED_EDGE ( 'NONE', *, *, #34, .F. ) ;
#148 = EDGE_CURVE ( 'NONE', #180, #7, #254, .T. ) ;
#149 = CIRCLE ( 'NONE', #13, 0.01548450000000000000 ) ;
#150 = CARTESIAN_POINT ( 'NONE',  ( -0.06250000000000002776, 0.0000000000000000000, 1.485000000000000764 ) ) ;
#151 = AXIS2_PLACEMENT_3D ( 'NONE', #21, #245, #195 ) ;
#152 = VERTEX_POINT ( 'NONE', #150 ) ;
#153 =( CONVERSION_BASED_UNIT ( 'INCH', #201 ) LENGTH_UNIT ( ) NAMED_UNIT ( #3 ) );
#154 = FACE_OUTER_BOUND ( 'NONE', #275, .T. ) ;
#155 = DIMENSIONAL_EXPONENTS ( 1.000000000000000000, 0.0000000000000000000, 0.0000000000000000000, 0.0000000000000000000, 0.0000000000000000000, 0.0000000000000000000, 0.0000000000000000000 ) ;
#156 = VERTEX_POINT ( 'NONE', #95 ) ;
#157 = DIRECTION ( 'NONE',  ( -1.224646799147353454E-16, -0.0000000000000000000, -1.000000000000000000 ) ) ;
#158 = AXIS2_PLACEMENT_3D ( 'NONE', #78, #282, #5 ) ;
#159 = AXIS2_PLACEMENT_3D ( 'NONE', #262, #92, #67 ) ;
#160 = DIRECTION ( 'NONE',  ( -0.1736481776669311639, 2.126576849575782392E-17, 0.9848077530122080203 ) ) ;
#161 = APPLICATION_PROTOCOL_DEFINITION ( 'draft international standard', 'automotive_design', 1998, #137 ) ;
#162 = ORIENTED_EDGE ( 'NONE', *, *, #103, .T. ) ;
#163 = AXIS2_PLACEMENT_3D ( 'NONE', #68, #321, #267 ) ;
#164 = AXIS2_PLACEMENT_3D ( 'NONE', #174, #99, #171 ) ;
#165 = APPLICATION_CONTEXT ( 'automotive_design' ) ;
#166 = CARTESIAN_POINT ( 'NONE',  ( 1.896304336139719623E-18, 0.0000000000000000000, 0.01548450000000000000 ) ) ;
#167 = DIRECTION ( 'NONE',  ( 1.224646799147353454E-16, 0.0000000000000000000, 1.000000000000000000 ) ) ;
#168 = CARTESIAN_POINT ( 'NONE',  ( 1.896304336139719623E-18, 0.0000000000000000000, 0.01548450000000000000 ) ) ;
#169 = EDGE_CURVE ( 'NONE', #200, #156, #248, .T. ) ;
#170 = FILL_AREA_STYLE_COLOUR ( '', #51 ) ;
#171 = DIRECTION ( 'NONE',  ( 1.000000000000000000, 0.0000000000000000000, 0.0000000000000000000 ) ) ;
#172 = ORIENTED_EDGE ( 'NONE', *, *, #300, .T. ) ;
#173 = DIRECTION ( 'NONE',  ( 0.0000000000000000000, 0.0000000000000000000, -1.000000000000000000 ) ) ;
#174 = CARTESIAN_POINT ( 'NONE',  ( 1.896304336139719623E-18, 0.0000000000000000000, 0.01548450000000000000 ) ) ;
#175 = DIRECTION ( 'NONE',  ( -1.224646799147353454E-16, -0.0000000000000000000, -1.000000000000000000 ) ) ;
#176 = ORIENTED_EDGE ( 'NONE', *, *, #1, .F. ) ;
#177 = DIRECTION ( 'NONE',  ( 1.224646799147353207E-16, 1.000000000000000000, -0.0000000000000000000 ) ) ;
#178 = LINE ( 'NONE', #131, #61 ) ;
#179 = DIRECTION ( 'NONE',  ( 0.0000000000000000000, 0.0000000000000000000, 1.000000000000000000 ) ) ;
#180 = VERTEX_POINT ( 'NONE', #296 ) ;
#181 =( NAMED_UNIT ( * ) SI_UNIT ( $, .STERADIAN. ) SOLID_ANGLE_UNIT ( ) );
#182 = CARTESIAN_POINT ( 'NONE',  ( 0.0000000000000000000, 0.0000000000000000000, 1.500000000000000222 ) ) ;
#183 = ADVANCED_FACE ( 'NONE', ( #121 ), #274, .T. ) ;
#184 = VECTOR ( 'NONE', #35, 39.37007874015748143 ) ;
#185 = COLOUR_RGB ( '',0.7921568627450980005, 0.8196078431372548767, 0.9333333333333333481 ) ;
#186 = EDGE_CURVE ( 'NONE', #152, #180, #74, .T. ) ;
#187 = DIRECTION ( 'NONE',  ( 1.000000000000000000, 0.0000000000000000000, 0.0000000000000000000 ) ) ;
#188 = DIRECTION ( 'NONE',  ( 1.224646799147353454E-16, 0.0000000000000000000, 1.000000000000000000 ) ) ;
#189 = AXIS2_PLACEMENT_3D ( 'NONE', #129, #229, #206 ) ;
#190 = VECTOR ( 'NONE', #116, 39.37007874015748143 ) ;
#191 = CARTESIAN_POINT ( 'NONE',  ( 4.404297097266760210E-17, 0.0000000000000000000, 0.3596381503902351118 ) ) ;
#192 = FACE_OUTER_BOUND ( 'NONE', #299, .T. ) ;
#193 = FACE_OUTER_BOUND ( 'NONE', #45, .T. ) ;
#194 = AXIS2_PLACEMENT_3D ( 'NONE', #256, #259, #29 ) ;
#195 = DIRECTION ( 'NONE',  ( 1.000000000000000000, 0.0000000000000000000, 0.0000000000000000000 ) ) ;
#196 = ORIENTED_EDGE ( 'NONE', *, *, #128, .F. ) ;
#197 = DIRECTION ( 'NONE',  ( -0.0000000000000000000, -0.0000000000000000000, -1.000000000000000000 ) ) ;
#198 = ORIENTED_EDGE ( 'NONE', *, *, #148, .T. ) ;
#199 = CIRCLE ( 'NONE', #43, 0.01548450000000000173 ) ;
#200 = VERTEX_POINT ( 'NONE', #49 ) ;
#201 = LENGTH_MEASURE_WITH_UNIT ( LENGTH_MEASURE( 0.02539999999999999897 ), #252 );
#202 = ADVANCED_FACE ( 'NONE', ( #193 ), #255, .T. ) ;
#203 = MANIFOLD_SOLID_BREP ( 'Fillet1', #290 ) ;
#204 = ORIENTED_EDGE ( 'NONE', *, *, #186, .F. ) ;
#205 = DIRECTION ( 'NONE',  ( -1.000000000000000000, 0.0000000000000000000, 1.224646799147353454E-16 ) ) ;
#206 = DIRECTION ( 'NONE',  ( -1.000000000000000000, 0.0000000000000000000, 0.0000000000000000000 ) ) ;
#207 = ORIENTED_EDGE ( 'NONE', *, *, #59, .T. ) ;
#208 = AXIS2_PLACEMENT_3D ( 'NONE', #291, #188, #86 ) ;
#209 = EDGE_CURVE ( 'NONE', #48, #22, #199, .T. ) ;
#210 = DIRECTION ( 'NONE',  ( 0.0000000000000000000, 0.0000000000000000000, -1.000000000000000000 ) ) ;
#211 = DIRECTION ( 'NONE',  ( -1.224646799147353454E-16, -0.0000000000000000000, -1.000000000000000000 ) ) ;
#212 = DIRECTION ( 'NONE',  ( -1.000000000000000000, 0.0000000000000000000, 1.378317830766382784E-16 ) ) ;
#213 = EDGE_CURVE ( 'NONE', #22, #48, #237, .T. ) ;
#214 = AXIS2_PLACEMENT_3D ( 'NONE', #182, #253, #301 ) ;
#215 = CARTESIAN_POINT ( 'NONE',  ( 0.06250000000000002776, 7.654042494670959086E-18, 1.485000000000000764 ) ) ;
#216 = SPHERICAL_SURFACE ( 'NONE', #241, 0.01548450000000000000 ) ;
#217 = ORIENTED_EDGE ( 'NONE', *, *, #209, .T. ) ;
#218 = ADVANCED_FACE ( 'NONE', ( #192 ), #85, .T. ) ;
#219 = ORIENTED_EDGE ( 'NONE', *, *, #12, .F. ) ;
#220 = AXIS2_PLACEMENT_3D ( 'NONE', #168, #235, #212 ) ;
#221 = DIRECTION ( 'NONE',  ( -1.000000000000000000, 0.0000000000000000000, 0.0000000000000000000 ) ) ;
#222 = ORIENTED_EDGE ( 'NONE', *, *, #300, .F. ) ;
#223 = CARTESIAN_POINT ( 'NONE',  ( 0.04750000000000064587, 5.817072295950006528E-18, 1.500000000000000222 ) ) ;
#224 = ORIENTED_EDGE ( 'NONE', *, *, #12, .T. ) ;
#225 = ORIENTED_EDGE ( 'NONE', *, *, #244, .F. ) ;
#226 = EDGE_CURVE ( 'NONE', #156, #48, #87, .T. ) ;
#227 = PRESENTATION_LAYER_ASSIGNMENT (  '', '', ( #19 ) ) ;
#228 = EDGE_LOOP ( 'NONE', ( #219, #60, #233, #217 ) ) ;
#229 = DIRECTION ( 'NONE',  ( -1.224646799147353454E-16, -0.0000000000000000000, -1.000000000000000000 ) ) ;
#230 = SURFACE_SIDE_STYLE ('',( #107 ) ) ;
#231 = CARTESIAN_POINT ( 'NONE',  ( 2.844456504209578857E-18, 0.0000000000000000000, 0.0000000000000000000 ) ) ;
#232 = CIRCLE ( 'NONE', #50, 0.06250000000000002776 ) ;
#233 = ORIENTED_EDGE ( 'NONE', *, *, #226, .T. ) ;
#234 = AXIS2_PLACEMENT_3D ( 'NONE', #313, #310, #265 ) ;
#235 = DIRECTION ( 'NONE',  ( 1.224646799147353454E-16, 0.0000000000000000000, 1.000000000000000000 ) ) ;
#236 = LENGTH_MEASURE_WITH_UNIT ( LENGTH_MEASURE( 0.02539999999999999897 ), #11 );
#237 = CIRCLE ( 'NONE', #220, 0.01548450000000000173 ) ;
#238 = CARTESIAN_POINT ( 'NONE',  ( 0.0000000000000000000, 0.0000000000000000000, 1.500000000000000222 ) ) ;
#239 = CARTESIAN_POINT ( 'NONE',  ( 0.04750000000000064587, 6.735557395310483192E-18, 1.500000000000000222 ) ) ;
#240 =( CONVERSION_BASED_UNIT ( 'INCH', #236 ) LENGTH_UNIT ( ) NAMED_UNIT ( #258 ) );
#241 = AXIS2_PLACEMENT_3D ( 'NONE', #292, #124, #319 ) ;
#242 = DIRECTION ( 'NONE',  ( -0.0000000000000000000, -0.0000000000000000000, -1.000000000000000000 ) ) ;
#243 = VERTEX_POINT ( 'NONE', #215 ) ;
#244 = EDGE_CURVE ( 'NONE', #200, #7, #91, .T. ) ;
#245 = DIRECTION ( 'NONE',  ( -1.224646799147353454E-16, -0.0000000000000000000, -1.000000000000000000 ) ) ;
#246 = UNCERTAINTY_MEASURE_WITH_UNIT (LENGTH_MEASURE( 1.000000000000000082E-05 ), #102, 'distance_accuracy_value', 'NONE');
#247 = DIRECTION ( 'NONE',  ( -1.000000000000000000, 0.0000000000000000000, 0.0000000000000000000 ) ) ;
#248 = CIRCLE ( 'NONE', #62, 0.01548450000000000000 ) ;
#249 = CYLINDRICAL_SURFACE ( 'NONE', #89, 0.06250000000000002776 ) ;
#250 = ORIENTED_EDGE ( 'NONE', *, *, #66, .F. ) ;
#251 = PRODUCT_DEFINITION_CONTEXT ( 'detailed design', #137, 'design' ) ;
#252 =( LENGTH_UNIT ( ) NAMED_UNIT ( * ) SI_UNIT ( $, .METRE. ) );
#253 = DIRECTION ( 'NONE',  ( 0.0000000000000000000, 0.0000000000000000000, 1.000000000000000000 ) ) ;
#254 = CIRCLE ( 'NONE', #151, 0.06250000000000002776 ) ;
#255 = CONICAL_SURFACE ( 'NONE', #295, 0.04750000000000064587, 0.7853981633974466137 ) ;
#256 = CARTESIAN_POINT ( 'NONE',  ( 0.0000000000000000000, 0.0000000000000000000, 1.500000000000000222 ) ) ;
#257 = PRESENTATION_STYLE_ASSIGNMENT (( #6 ) ) ;
#258 = DIMENSIONAL_EXPONENTS ( 1.000000000000000000, 0.0000000000000000000, 0.0000000000000000000, 0.0000000000000000000, 0.0000000000000000000, 0.0000000000000000000, 0.0000000000000000000 ) ;
#259 = DIRECTION ( 'NONE',  ( 0.0000000000000000000, 0.0000000000000000000, 1.000000000000000000 ) ) ;
#260 = CARTESIAN_POINT ( 'NONE',  ( -0.04750000000000064587, 0.0000000000000000000, 1.500000000000000222 ) ) ;
#261 = CARTESIAN_POINT ( 'NONE',  ( 0.01548450000000000173, 1.896304336139719238E-18, -1.896304336139719623E-18 ) ) ;
#262 = CARTESIAN_POINT ( 'NONE',  ( 0.0000000000000000000, 0.0000000000000000000, 1.485000000000000764 ) ) ;
#263 = FILL_AREA_STYLE ('',( #170 ) ) ;
#264 = PRODUCT_RELATED_PRODUCT_CATEGORY ( 'part', '', ( #46 ) ) ;
#265 = DIRECTION ( 'NONE',  ( 1.000000000000000000, 0.0000000000000000000, 0.0000000000000000000 ) ) ;
#266 = PRESENTATION_STYLE_ASSIGNMENT (( #115 ) ) ;
#267 = DIRECTION ( 'NONE',  ( -1.000000000000000000, 0.0000000000000000000, 0.0000000000000000000 ) ) ;
#268 = ORIENTED_EDGE ( 'NONE', *, *, #285, .T. ) ;
#269 = EDGE_CURVE ( 'NONE', #145, #273, #309, .T. ) ;
#270 = CARTESIAN_POINT ( 'NONE',  ( 0.0000000000000000000, 0.0000000000000000000, 1.500000000000000222 ) ) ;
#271 = ORIENTED_EDGE ( 'NONE', *, *, #34, .T. ) ;
#272 = CYLINDRICAL_SURFACE ( 'NONE', #163, 0.06250000000000002776 ) ;
#273 = VERTEX_POINT ( 'NONE', #239 ) ;
#274 = SPHERICAL_SURFACE ( 'NONE', #164, 0.01548450000000000000 ) ;
#275 = EDGE_LOOP ( 'NONE', ( #176, #143, #4, #297 ) ) ;
#276 = AXIS2_PLACEMENT_3D ( 'NONE', #280, #157, #205 ) ;
#277 = ORIENTED_EDGE ( 'NONE', *, *, #269, .T. ) ;
#278 = FILL_AREA_STYLE ('',( #130 ) ) ;
#279 = ORIENTED_EDGE ( 'NONE', *, *, #244, .T. ) ;
#280 = CARTESIAN_POINT ( 'NONE',  ( 0.0000000000000000000, 0.0000000000000000000, 0.0000000000000000000 ) ) ;
#281 = VECTOR ( 'NONE', #38, 39.37007874015748143 ) ;
#282 = DIRECTION ( 'NONE',  ( 0.0000000000000000000, 0.0000000000000000000, -1.000000000000000000 ) ) ;
#283 = DIRECTION ( 'NONE',  ( 1.000000000000000000, 0.0000000000000000000, 0.0000000000000000000 ) ) ;
#284 = ORIENTED_EDGE ( 'NONE', *, *, #186, .T. ) ;
#285 = EDGE_CURVE ( 'NONE', #7, #180, #134, .T. ) ;
#286 = CYLINDRICAL_SURFACE ( 'NONE', #90, 0.01548450000000000173 ) ;
#287 = CARTESIAN_POINT ( 'NONE',  ( 0.0000000000000000000, 0.0000000000000000000, 0.0000000000000000000 ) ) ;
#288 = ADVANCED_FACE ( 'NONE', ( #139 ), #127, .T. ) ;
#289 =( NAMED_UNIT ( * ) SI_UNIT ( $, .STERADIAN. ) SOLID_ANGLE_UNIT ( ) );
#290 = CLOSED_SHELL ( 'NONE', ( #183, #316, #288, #10, #104, #93, #63, #202, #218, #323, #114 ) ) ;
#291 = CARTESIAN_POINT ( 'NONE',  ( 1.138921523207038888E-17, 0.0000000000000000000, 0.09299999999999999933 ) ) ;
#292 = CARTESIAN_POINT ( 'NONE',  ( 1.896304336139719623E-18, 0.0000000000000000000, 0.01548450000000000000 ) ) ;
#293 = DIRECTION ( 'NONE',  ( 0.0000000000000000000, -1.000000000000000000, 0.0000000000000000000 ) ) ;
#294 = ORIENTED_EDGE ( 'NONE', *, *, #285, .F. ) ;
#295 = AXIS2_PLACEMENT_3D ( 'NONE', #142, #210, #64 ) ;
#296 = CARTESIAN_POINT ( 'NONE',  ( -0.06249999999999997918, 0.0000000000000000000, 0.3596381503902351118 ) ) ;
#297 = ORIENTED_EDGE ( 'NONE', *, *, #315, .F. ) ;
#298 = DIRECTION ( 'NONE',  ( 1.000000000000000000, 0.0000000000000000000, 0.0000000000000000000 ) ) ;
#299 = EDGE_LOOP ( 'NONE', ( #122, #320, #279, #268 ) ) ;
#300 = EDGE_CURVE ( 'NONE', #243, #152, #112, .T. ) ;
#301 = DIRECTION ( 'NONE',  ( 1.000000000000000000, 0.0000000000000000000, 0.0000000000000000000 ) ) ;
#302 =( NAMED_UNIT ( * ) SI_UNIT ( $, .STERADIAN. ) SOLID_ANGLE_UNIT ( ) );
#303 = CARTESIAN_POINT ( 'NONE',  ( 1.896304336139719623E-18, 0.0000000000000000000, 0.01548450000000000000 ) ) ;
#304 = CARTESIAN_POINT ( 'NONE',  ( 0.0000000000000000000, 0.0000000000000000000, 0.0000000000000000000 ) ) ;
#305 = FACE_OUTER_BOUND ( 'NONE', #53, .T. ) ;
#306 =( NAMED_UNIT ( * ) PLANE_ANGLE_UNIT ( ) SI_UNIT ( $, .RADIAN. ) );
#307 = VECTOR ( 'NONE', #33, 39.37007874015748854 ) ;
#308 = EDGE_LOOP ( 'NONE', ( #147, #318, #106 ) ) ;
#309 = CIRCLE ( 'NONE', #141, 0.04750000000000064587 ) ;
#310 = DIRECTION ( 'NONE',  ( 1.224646799147353454E-16, 0.0000000000000000000, 1.000000000000000000 ) ) ;
#311 = UNCERTAINTY_MEASURE_WITH_UNIT (LENGTH_MEASURE( 1.000000000000000082E-05 ), #240, 'distance_accuracy_value', 'NONE');
#312 = DIRECTION ( 'NONE',  ( -1.000000000000000000, 0.0000000000000000000, 1.224646799147353454E-16 ) ) ;
#313 = CARTESIAN_POINT ( 'NONE',  ( 1.138921523207038888E-17, 0.0000000000000000000, 0.09299999999999999933 ) ) ;
#314 =( GEOMETRIC_REPRESENTATION_CONTEXT ( 3 ) GLOBAL_UNCERTAINTY_ASSIGNED_CONTEXT ( ( #132 ) ) GLOBAL_UNIT_ASSIGNED_CONTEXT ( ( #153, #79, #181 ) ) REPRESENTATION_CONTEXT ( 'NONE', 'WORKASPACE' ) );
#315 = EDGE_CURVE ( 'NONE', #145, #152, #58, .T. ) ;
#316 = ADVANCED_FACE ( 'NONE', ( #135 ), #286, .T. ) ;
#317 = CARTESIAN_POINT ( 'NONE',  ( 1.896304336139719623E-18, 0.0000000000000000000, 0.01548450000000000000 ) ) ;
#318 = ORIENTED_EDGE ( 'NONE', *, *, #128, .T. ) ;
#319 = DIRECTION ( 'NONE',  ( 1.000000000000000000, 0.0000000000000000000, 0.0000000000000000000 ) ) ;
#320 = ORIENTED_EDGE ( 'NONE', *, *, #169, .F. ) ;
#321 = DIRECTION ( 'NONE',  ( -0.0000000000000000000, -0.0000000000000000000, -1.000000000000000000 ) ) ;
#322 = ORIENTED_EDGE ( 'NONE', *, *, #94, .T. ) ;
#323 = ADVANCED_FACE ( 'NONE', ( #16 ), #110, .T. ) ;
#324 =( LENGTH_UNIT ( ) NAMED_UNIT ( * ) SI_UNIT ( $, .METRE. ) );
#325 = CIRCLE ( 'NONE', #41, 0.01548450000000000000 ) ;
ENDSEC;
END-ISO-10303-21;
