ISO-10303-21;
HEADER;
FILE_DESCRIPTION (( 'STEP AP214' ),
    '1' );
FILE_NAME ('Micro_GELM-100-3X.STEP',
    '2021-09-01T18:33:07',
    ( '' ),
    ( '' ),
    'SwSTEP 2.0',
    'SolidWorks 2020',
    '' );
FILE_SCHEMA (( 'AUTOMOTIVE_DESIGN' ));
ENDSEC;

DATA;
#1 = AXIS2_PLACEMENT_3D ( 'NONE', #143, #216, #69 ) ;
#2 = DIRECTION ( 'NONE',  ( -1.000000000000000000, 0.0000000000000000000, 1.224646799147353207E-16 ) ) ;
#3 = UNCERTAINTY_MEASURE_WITH_UNIT (LENGTH_MEASURE( 1.000000000000000082E-05 ), #14, 'distance_accuracy_value', 'NONE');
#4 = EDGE_CURVE ( 'NONE', #45, #44, #286, .T. ) ;
#5 = ORIENTED_EDGE ( 'NONE', *, *, #264, .T. ) ;
#6 = CARTESIAN_POINT ( 'NONE',  ( 0.1968504999999999838, 2.410723347355560646E-17, 3.922007999999999051 ) ) ;
#7 = EDGE_CURVE ( 'NONE', #233, #44, #224, .T. ) ;
#8 = VERTEX_POINT ( 'NONE', #6 ) ;
#9 = DIRECTION ( 'NONE',  ( -1.224646799147353207E-16, -0.0000000000000000000, -1.000000000000000000 ) ) ;
#10 = DIRECTION ( 'NONE',  ( -1.000000000000000000, 0.0000000000000000000, 1.224646799147353454E-16 ) ) ;
#11 = DIRECTION ( 'NONE',  ( -1.000000000000000000, 0.0000000000000000000, 0.0000000000000000000 ) ) ;
#12 = MECHANICAL_DESIGN_GEOMETRIC_PRESENTATION_REPRESENTATION (  '', ( #68 ), #17 ) ;
#13 = EDGE_CURVE ( 'NONE', #44, #233, #276, .T. ) ;
#14 =( CONVERSION_BASED_UNIT ( 'INCH', #31 ) LENGTH_UNIT ( ) NAMED_UNIT ( #275 ) );
#15 = VERTEX_POINT ( 'NONE', #175 ) ;
#16 = CIRCLE ( 'NONE', #119, 0.1968504999999999838 ) ;
#17 =( GEOMETRIC_REPRESENTATION_CONTEXT ( 3 ) GLOBAL_UNCERTAINTY_ASSIGNED_CONTEXT ( ( #63 ) ) GLOBAL_UNIT_ASSIGNED_CONTEXT ( ( #62, #110, #86 ) ) REPRESENTATION_CONTEXT ( 'NONE', 'WORKASPACE' ) );
#18 = DIMENSIONAL_EXPONENTS ( 1.000000000000000000, 0.0000000000000000000, 0.0000000000000000000, 0.0000000000000000000, 0.0000000000000000000, 0.0000000000000000000, 0.0000000000000000000 ) ;
#19 = CARTESIAN_POINT ( 'NONE',  ( 0.0000000000000000000, 0.0000000000000000000, 3.937007999999999619 ) ) ;
#20 = ORIENTED_EDGE ( 'NONE', *, *, #220, .T. ) ;
#21 = ORIENTED_EDGE ( 'NONE', *, *, #246, .T. ) ;
#22 = DIRECTION ( 'NONE',  ( 1.224646799147353207E-16, 0.0000000000000000000, 1.000000000000000000 ) ) ;
#23 = ORIENTED_EDGE ( 'NONE', *, *, #259, .F. ) ;
#24 = EDGE_CURVE ( 'NONE', #210, #8, #267, .T. ) ;
#25 = FACE_OUTER_BOUND ( 'NONE', #236, .T. ) ;
#26 = PLANE ( 'NONE',  #181 ) ;
#27 = CARTESIAN_POINT ( 'NONE',  ( 0.1968504999999999838, 2.410723347355560646E-17, 3.937007999999999619 ) ) ;
#28 = ORIENTED_EDGE ( 'NONE', *, *, #138, .T. ) ;
#29 = AXIS2_PLACEMENT_3D ( 'NONE', #75, #49, #54 ) ;
#30 = LENGTH_MEASURE_WITH_UNIT ( LENGTH_MEASURE( 0.02539999999999999897 ), #219 );
#31 = LENGTH_MEASURE_WITH_UNIT ( LENGTH_MEASURE( 0.02539999999999999897 ), #197 );
#32 = LINE ( 'NONE', #27, #171 ) ;
#33 = AXIS2_PLACEMENT_3D ( 'NONE', #67, #172, #128 ) ;
#34 = VECTOR ( 'NONE', #146, 39.37007874015747433 ) ;
#35 = DIRECTION ( 'NONE',  ( 1.000000000000000000, 0.0000000000000000000, 0.0000000000000000000 ) ) ;
#36 = DIRECTION ( 'NONE',  ( -1.224646799147353207E-16, -0.0000000000000000000, -1.000000000000000000 ) ) ;
#37 = CARTESIAN_POINT ( 'NONE',  ( 1.833515953421985128E-16, 0.0000000000000000000, 1.497179394661832808 ) ) ;
#38 = ORIENTED_EDGE ( 'NONE', *, *, #173, .F. ) ;
#39 = CIRCLE ( 'NONE', #297, 0.1818504999999994431 ) ;
#40 = LENGTH_MEASURE_WITH_UNIT ( LENGTH_MEASURE( 0.02539999999999999897 ), #251 );
#41 = SHAPE_DEFINITION_REPRESENTATION ( #102, #151 ) ;
#42 = AXIS2_PLACEMENT_3D ( 'NONE', #284, #70, #231 ) ;
#43 = CARTESIAN_POINT ( 'NONE',  ( 0.1966536495000001383, 0.0000000000000000000, 1.496062999999999921 ) ) ;
#44 = VERTEX_POINT ( 'NONE', #260 ) ;
#45 = VERTEX_POINT ( 'NONE', #257 ) ;
#46 = ADVANCED_FACE ( 'NONE', ( #238 ), #26, .T. ) ;
#47 = ORIENTED_EDGE ( 'NONE', *, *, #24, .F. ) ;
#48 = DIRECTION ( 'NONE',  ( -1.224646799147353207E-16, -0.0000000000000000000, -1.000000000000000000 ) ) ;
#49 = DIRECTION ( 'NONE',  ( -1.224646799147353207E-16, -0.0000000000000000000, -1.000000000000000000 ) ) ;
#50 = ORIENTED_EDGE ( 'NONE', *, *, #290, .T. ) ;
#51 = SURFACE_STYLE_FILL_AREA ( #103 ) ;
#52 = DIRECTION ( 'NONE',  ( -1.000000000000000000, 0.0000000000000000000, 0.0000000000000000000 ) ) ;
#53 = LINE ( 'NONE', #56, #263 ) ;
#54 = DIRECTION ( 'NONE',  ( 1.000000000000000000, 0.0000000000000000000, 0.0000000000000000000 ) ) ;
#55 = AXIS2_PLACEMENT_3D ( 'NONE', #126, #9, #11 ) ;
#56 = CARTESIAN_POINT ( 'NONE',  ( 0.1818504999999994431, 2.227026327483450676E-17, 3.937007999999999619 ) ) ;
#57 = ORIENTED_EDGE ( 'NONE', *, *, #220, .F. ) ;
#58 = EDGE_LOOP ( 'NONE', ( #71, #89 ) ) ;
#59 = ORIENTED_EDGE ( 'NONE', *, *, #235, .F. ) ;
#60 = CONICAL_SURFACE ( 'NONE', #132, 0.1966536494999999718, 0.1745329251994338915 ) ;
#61 = ADVANCED_FACE ( 'NONE', ( #195 ), #164, .T. ) ;
#62 =( CONVERSION_BASED_UNIT ( 'INCH', #40 ) LENGTH_UNIT ( ) NAMED_UNIT ( #87 ) );
#63 = UNCERTAINTY_MEASURE_WITH_UNIT (LENGTH_MEASURE( 1.000000000000000082E-05 ), #62, 'distance_accuracy_value', 'NONE');
#64 = DIRECTION ( 'NONE',  ( 0.0000000000000000000, 0.0000000000000000000, -1.000000000000000000 ) ) ;
#65 = ORIENTED_EDGE ( 'NONE', *, *, #4, .T. ) ;
#66 = EDGE_CURVE ( 'NONE', #210, #125, #196, .T. ) ;
#67 = CARTESIAN_POINT ( 'NONE',  ( 0.0000000000000000000, 0.0000000000000000000, 3.922007999999999051 ) ) ;
#68 = STYLED_ITEM ( 'NONE', ( #249 ), #151 ) ;
#69 = DIRECTION ( 'NONE',  ( 1.000000000000000000, 0.0000000000000000000, 0.0000000000000000000 ) ) ;
#70 = DIRECTION ( 'NONE',  ( 0.0000000000000000000, 0.0000000000000000000, -1.000000000000000000 ) ) ;
#71 = ORIENTED_EDGE ( 'NONE', *, *, #13, .T. ) ;
#72 = EDGE_CURVE ( 'NONE', #45, #125, #174, .T. ) ;
#73 = COLOUR_RGB ( '',0.7921568627450980005, 0.8196078431372548767, 0.9333333333333333481 ) ;
#74 = DIRECTION ( 'NONE',  ( -1.224646799147353207E-16, -0.0000000000000000000, -1.000000000000000000 ) ) ;
#75 = CARTESIAN_POINT ( 'NONE',  ( 1.833515953421985128E-16, 0.0000000000000000000, 1.497179394661832808 ) ) ;
#76 = PRODUCT_DEFINITION ( 'UNKNOWN', '', #205, #99 ) ;
#77 = ORIENTED_EDGE ( 'NONE', *, *, #290, .F. ) ;
#78 = CARTESIAN_POINT ( 'NONE',  ( 0.1968505000000001781, 2.410723347355562803E-17, 1.497179394661832808 ) ) ;
#79 = CIRCLE ( 'NONE', #29, 0.1968504999999999838 ) ;
#80 = ORIENTED_EDGE ( 'NONE', *, *, #101, .F. ) ;
#81 = APPLICATION_PROTOCOL_DEFINITION ( 'draft international standard', 'automotive_design', 1998, #111 ) ;
#82 = VERTEX_POINT ( 'NONE', #78 ) ;
#83 = PRODUCT_CONTEXT ( 'NONE', #239, 'mechanical' ) ;
#84 = AXIS2_PLACEMENT_3D ( 'NONE', #281, #48, #2 ) ;
#85 = CIRCLE ( 'NONE', #92, 0.1818504999999994431 ) ;
#86 =( NAMED_UNIT ( * ) SI_UNIT ( $, .STERADIAN. ) SOLID_ANGLE_UNIT ( ) );
#87 = DIMENSIONAL_EXPONENTS ( 1.000000000000000000, 0.0000000000000000000, 0.0000000000000000000, 0.0000000000000000000, 0.0000000000000000000, 0.0000000000000000000, 0.0000000000000000000 ) ;
#88 = DIRECTION ( 'NONE',  ( 0.0000000000000000000, 0.0000000000000000000, 1.000000000000000000 ) ) ;
#89 = ORIENTED_EDGE ( 'NONE', *, *, #7, .T. ) ;
#90 = DIRECTION ( 'NONE',  ( -1.224646799147353207E-16, -0.0000000000000000000, -1.000000000000000000 ) ) ;
#91 = CIRCLE ( 'NONE', #1, 0.1968504999999999838 ) ;
#92 = AXIS2_PLACEMENT_3D ( 'NONE', #285, #152, #35 ) ;
#93 = CARTESIAN_POINT ( 'NONE',  ( -0.1968504999999999838, 0.0000000000000000000, 3.937007999999999619 ) ) ;
#94 = CARTESIAN_POINT ( 'NONE',  ( 1.832148764272786481E-16, 0.0000000000000000000, 1.496062999999999921 ) ) ;
#95 = CARTESIAN_POINT ( 'NONE',  ( 2.949332346337811403E-33, 0.0000000000000000000, 2.408312624008205170E-17 ) ) ;
#96 = FACE_OUTER_BOUND ( 'NONE', #58, .T. ) ;
#97 = CARTESIAN_POINT ( 'NONE',  ( 0.0000000000000000000, 0.0000000000000000000, 3.937007999999999619 ) ) ;
#98 = DIRECTION ( 'NONE',  ( 1.000000000000000000, 0.0000000000000000000, -0.0000000000000000000 ) ) ;
#99 = PRODUCT_DEFINITION_CONTEXT ( 'detailed design', #111, 'design' ) ;
#100 = DIRECTION ( 'NONE',  ( -1.000000000000000000, 0.0000000000000000000, 1.224646799147353207E-16 ) ) ;
#101 = EDGE_CURVE ( 'NONE', #82, #125, #16, .T. ) ;
#102 = PRODUCT_DEFINITION_SHAPE ( 'NONE', 'NONE',  #76 ) ;
#103 = FILL_AREA_STYLE ('',( #287 ) ) ;
#104 = CARTESIAN_POINT ( 'NONE',  ( 1.832148764272786481E-16, 0.0000000000000000000, 1.496062999999999921 ) ) ;
#105 = CIRCLE ( 'NONE', #170, 0.1966536494999999718 ) ;
#106 = VECTOR ( 'NONE', #74, 39.37007874015748143 ) ;
#107 = ADVANCED_FACE ( 'NONE', ( #153 ), #60, .T. ) ;
#108 = FACE_OUTER_BOUND ( 'NONE', #268, .T. ) ;
#109 = ORIENTED_EDGE ( 'NONE', *, *, #4, .F. ) ;
#110 =( NAMED_UNIT ( * ) PLANE_ANGLE_UNIT ( ) SI_UNIT ( $, .RADIAN. ) );
#111 = APPLICATION_CONTEXT ( 'automotive_design' ) ;
#112 = CARTESIAN_POINT ( 'NONE',  ( 0.0000000000000000000, 0.0000000000000000000, 0.0000000000000000000 ) ) ;
#113 = EDGE_LOOP ( 'NONE', ( #23, #179, #265, #57 ) ) ;
#114 = SURFACE_STYLE_USAGE ( .BOTH. , #137 ) ;
#115 = AXIS2_PLACEMENT_3D ( 'NONE', #247, #36, #10 ) ;
#116 = ADVANCED_FACE ( 'NONE', ( #25 ), #124, .T. ) ;
#117 = PLANE ( 'NONE',  #261 ) ;
#118 = DIRECTION ( 'NONE',  ( 0.0000000000000000000, 0.0000000000000000000, 1.000000000000000000 ) ) ;
#119 = AXIS2_PLACEMENT_3D ( 'NONE', #37, #150, #288 ) ;
#120 = AXIS2_PLACEMENT_3D ( 'NONE', #112, #271, #228 ) ;
#121 = ADVANCED_FACE ( 'NONE', ( #156 ), #222, .T. ) ;
#122 = ORIENTED_EDGE ( 'NONE', *, *, #24, .T. ) ;
#123 = DIRECTION ( 'NONE',  ( 1.000000000000000000, 0.0000000000000000000, 0.0000000000000000000 ) ) ;
#124 = CYLINDRICAL_SURFACE ( 'NONE', #204, 0.1968504999999999838 ) ;
#125 = VERTEX_POINT ( 'NONE', #198 ) ;
#126 = CARTESIAN_POINT ( 'NONE',  ( 1.832148764272786481E-16, 0.0000000000000000000, 1.496062999999999921 ) ) ;
#127 = AXIS2_PLACEMENT_3D ( 'NONE', #232, #211, #280 ) ;
#128 = DIRECTION ( 'NONE',  ( 1.000000000000000000, 0.0000000000000000000, 0.0000000000000000000 ) ) ;
#129 =( CONVERSION_BASED_UNIT ( 'INCH', #30 ) LENGTH_UNIT ( ) NAMED_UNIT ( #18 ) );
#130 = DIRECTION ( 'NONE',  ( 0.7071067811865419106, 8.659560562354863833E-17, -0.7071067811865531239 ) ) ;
#131 = PRODUCT_RELATED_PRODUCT_CATEGORY ( 'part', '', ( #200 ) ) ;
#132 = AXIS2_PLACEMENT_3D ( 'NONE', #104, #22, #237 ) ;
#133 = CIRCLE ( 'NONE', #55, 0.1966536494999999718 ) ;
#134 = DIRECTION ( 'NONE',  ( -1.000000000000000000, 0.0000000000000000000, 1.224646799147353454E-16 ) ) ;
#135 = DIRECTION ( 'NONE',  ( 1.000000000000000000, 0.0000000000000000000, 0.0000000000000000000 ) ) ;
#136 = EDGE_LOOP ( 'NONE', ( #77, #255, #65, #248 ) ) ;
#137 = SURFACE_SIDE_STYLE ('',( #182 ) ) ;
#138 = EDGE_CURVE ( 'NONE', #292, #15, #39, .T. ) ;
#139 = ORIENTED_EDGE ( 'NONE', *, *, #72, .T. ) ;
#140 = FACE_OUTER_BOUND ( 'NONE', #159, .T. ) ;
#141 = ORIENTED_EDGE ( 'NONE', *, *, #101, .T. ) ;
#142 = ORIENTED_EDGE ( 'NONE', *, *, #66, .F. ) ;
#143 = CARTESIAN_POINT ( 'NONE',  ( 0.0000000000000000000, 0.0000000000000000000, 3.922007999999999051 ) ) ;
#144 = VERTEX_POINT ( 'NONE', #274 ) ;
#145 = CARTESIAN_POINT ( 'NONE',  ( -0.1968504999999999838, 0.0000000000000000000, 3.922007999999999051 ) ) ;
#146 = DIRECTION ( 'NONE',  ( -0.1736481776669311916, 2.126576849575783316E-17, 0.9848077530122080203 ) ) ;
#147 = CARTESIAN_POINT ( 'NONE',  ( 0.0000000000000000000, 0.0000000000000000000, 0.0000000000000000000 ) ) ;
#148 = AXIS2_PLACEMENT_3D ( 'NONE', #95, #193, #100 ) ;
#149 =( GEOMETRIC_REPRESENTATION_CONTEXT ( 3 ) GLOBAL_UNCERTAINTY_ASSIGNED_CONTEXT ( ( #3 ) ) GLOBAL_UNIT_ASSIGNED_CONTEXT ( ( #14, #223, #154 ) ) REPRESENTATION_CONTEXT ( 'NONE', 'WORKASPACE' ) );
#150 = DIRECTION ( 'NONE',  ( -1.224646799147353207E-16, -0.0000000000000000000, -1.000000000000000000 ) ) ;
#151 = ADVANCED_BREP_SHAPE_REPRESENTATION ( 'Micro_GELM-100-3X', ( #242, #120 ), #225 ) ;
#152 = DIRECTION ( 'NONE',  ( 0.0000000000000000000, 0.0000000000000000000, 1.000000000000000000 ) ) ;
#153 = FACE_OUTER_BOUND ( 'NONE', #168, .T. ) ;
#154 =( NAMED_UNIT ( * ) SI_UNIT ( $, .STERADIAN. ) SOLID_ANGLE_UNIT ( ) );
#155 = SURFACE_SIDE_STYLE ('',( #51 ) ) ;
#156 = FACE_OUTER_BOUND ( 'NONE', #136, .T. ) ;
#157 = VECTOR ( 'NONE', #201, 39.37007874015748143 ) ;
#158 = DIRECTION ( 'NONE',  ( -0.0000000000000000000, -0.0000000000000000000, -1.000000000000000000 ) ) ;
#159 = EDGE_LOOP ( 'NONE', ( #183, #250, #47, #59 ) ) ;
#160 = EDGE_LOOP ( 'NONE', ( #122, #279, #203, #142 ) ) ;
#161 = STYLED_ITEM ( 'NONE', ( #293 ), #242 ) ;
#162 = ORIENTED_EDGE ( 'NONE', *, *, #72, .F. ) ;
#163 = EDGE_CURVE ( 'NONE', #144, #45, #105, .T. ) ;
#164 = CONICAL_SURFACE ( 'NONE', #42, 0.1818504999999994431, 0.7853981633974403964 ) ;
#165 = MECHANICAL_DESIGN_GEOMETRIC_PRESENTATION_REPRESENTATION (  '', ( #161 ), #149 ) ;
#166 = DIRECTION ( 'NONE',  ( -1.000000000000000000, 0.0000000000000000000, 0.0000000000000000000 ) ) ;
#167 = CLOSED_SHELL ( 'NONE', ( #273, #107, #214, #185, #116, #46, #61, #194, #121, #229 ) ) ;
#168 = EDGE_LOOP ( 'NONE', ( #230, #139, #5, #38 ) ) ;
#169 = DIRECTION ( 'NONE',  ( 1.224646799147353207E-16, 0.0000000000000000000, 1.000000000000000000 ) ) ;
#170 = AXIS2_PLACEMENT_3D ( 'NONE', #94, #90, #166 ) ;
#171 = VECTOR ( 'NONE', #266, 39.37007874015748143 ) ;
#172 = DIRECTION ( 'NONE',  ( 0.0000000000000000000, 0.0000000000000000000, -1.000000000000000000 ) ) ;
#173 = EDGE_CURVE ( 'NONE', #144, #82, #254, .T. ) ;
#174 = LINE ( 'NONE', #258, #34 ) ;
#175 = CARTESIAN_POINT ( 'NONE',  ( -0.1818504999999994431, 0.0000000000000000000, 3.937007999999999619 ) ) ;
#176 = CONICAL_SURFACE ( 'NONE', #187, 0.1966536494999999718, 0.1745329251994338915 ) ;
#177 = COLOUR_RGB ( '',0.7921568627450980005, 0.8196078431372548767, 0.9333333333333333481 ) ;
#178 = DIRECTION ( 'NONE',  ( -1.224646799147353207E-16, -0.0000000000000000000, -1.000000000000000000 ) ) ;
#179 = ORIENTED_EDGE ( 'NONE', *, *, #246, .F. ) ;
#180 = CARTESIAN_POINT ( 'NONE',  ( 0.1966536494999999718, 2.408312624008204862E-17, -2.408312624008204862E-17 ) ) ;
#181 = AXIS2_PLACEMENT_3D ( 'NONE', #218, #118, #98 ) ;
#182 = SURFACE_STYLE_FILL_AREA ( #295 ) ;
#183 = ORIENTED_EDGE ( 'NONE', *, *, #138, .F. ) ;
#184 = ORIENTED_EDGE ( 'NONE', *, *, #253, .F. ) ;
#185 = ADVANCED_FACE ( 'NONE', ( #278 ), #192, .T. ) ;
#186 = ORIENTED_EDGE ( 'NONE', *, *, #173, .T. ) ;
#187 = AXIS2_PLACEMENT_3D ( 'NONE', #189, #169, #123 ) ;
#188 = DIRECTION ( 'NONE',  ( -0.0000000000000000000, -0.0000000000000000000, -1.000000000000000000 ) ) ;
#189 = CARTESIAN_POINT ( 'NONE',  ( 1.832148764272786481E-16, 0.0000000000000000000, 1.496062999999999921 ) ) ;
#190 = ORIENTED_EDGE ( 'NONE', *, *, #66, .T. ) ;
#191 = VECTOR ( 'NONE', #217, 39.37007874015748143 ) ;
#192 = CYLINDRICAL_SURFACE ( 'NONE', #127, 0.1968504999999999838 ) ;
#193 = DIRECTION ( 'NONE',  ( -1.224646799147353207E-16, -0.0000000000000000000, -1.000000000000000000 ) ) ;
#194 = ADVANCED_FACE ( 'NONE', ( #283 ), #176, .T. ) ;
#195 = FACE_OUTER_BOUND ( 'NONE', #113, .T. ) ;
#196 = LINE ( 'NONE', #93, #234 ) ;
#197 =( LENGTH_UNIT ( ) NAMED_UNIT ( * ) SI_UNIT ( $, .METRE. ) );
#198 = CARTESIAN_POINT ( 'NONE',  ( -0.1968504999999998173, 0.0000000000000000000, 1.497179394661832808 ) ) ;
#199 = PRESENTATION_LAYER_ASSIGNMENT (  '', '', ( #161 ) ) ;
#200 = PRODUCT ( 'Micro_GELM-100-3X', 'Micro_GELM-100-3X', '', ( #83 ) ) ;
#201 = DIRECTION ( 'NONE',  ( -0.7071067811865419106, 0.0000000000000000000, -0.7071067811865531239 ) ) ;
#202 = CARTESIAN_POINT ( 'NONE',  ( 0.0000000000000000000, 0.0000000000000000000, 3.937007999999999619 ) ) ;
#203 = ORIENTED_EDGE ( 'NONE', *, *, #264, .F. ) ;
#204 = AXIS2_PLACEMENT_3D ( 'NONE', #97, #158, #52 ) ;
#205 = PRODUCT_DEFINITION_FORMATION_WITH_SPECIFIED_SOURCE ( 'ANY', '', #200, .NOT_KNOWN. ) ;
#206 = FILL_AREA_STYLE_COLOUR ( '', #177 ) ;
#207 = EDGE_LOOP ( 'NONE', ( #21, #28 ) ) ;
#208 = PRESENTATION_LAYER_ASSIGNMENT (  '', '', ( #68 ) ) ;
#209 = CARTESIAN_POINT ( 'NONE',  ( 0.0000000000000000000, 0.0000000000000000000, 0.0000000000000000000 ) ) ;
#210 = VERTEX_POINT ( 'NONE', #145 ) ;
#211 = DIRECTION ( 'NONE',  ( -0.0000000000000000000, -0.0000000000000000000, -1.000000000000000000 ) ) ;
#212 = UNCERTAINTY_MEASURE_WITH_UNIT (LENGTH_MEASURE( 1.000000000000000082E-05 ), #129, 'distance_accuracy_value', 'NONE');
#213 = DIRECTION ( 'NONE',  ( 0.1736481776669313859, 0.0000000000000000000, 0.9848077530122077983 ) ) ;
#214 = ADVANCED_FACE ( 'NONE', ( #140 ), #272, .T. ) ;
#215 = CARTESIAN_POINT ( 'NONE',  ( -0.1966536494999999718, 0.0000000000000000000, 2.408312624008204862E-17 ) ) ;
#216 = DIRECTION ( 'NONE',  ( 0.0000000000000000000, 0.0000000000000000000, -1.000000000000000000 ) ) ;
#217 = DIRECTION ( 'NONE',  ( -1.224646799147353207E-16, -0.0000000000000000000, -1.000000000000000000 ) ) ;
#218 = CARTESIAN_POINT ( 'NONE',  ( 0.0000000000000000000, 0.0000000000000000000, 3.937007999999999619 ) ) ;
#219 =( LENGTH_UNIT ( ) NAMED_UNIT ( * ) SI_UNIT ( $, .METRE. ) );
#220 = EDGE_CURVE ( 'NONE', #8, #210, #91, .T. ) ;
#221 = LINE ( 'NONE', #180, #106 ) ;
#222 = CYLINDRICAL_SURFACE ( 'NONE', #115, 0.1966536494999999718 ) ;
#223 =( NAMED_UNIT ( * ) PLANE_ANGLE_UNIT ( ) SI_UNIT ( $, .RADIAN. ) );
#224 = CIRCLE ( 'NONE', #84, 0.1966536494999999996 ) ;
#225 =( GEOMETRIC_REPRESENTATION_CONTEXT ( 3 ) GLOBAL_UNCERTAINTY_ASSIGNED_CONTEXT ( ( #212 ) ) GLOBAL_UNIT_ASSIGNED_CONTEXT ( ( #129, #226, #291 ) ) REPRESENTATION_CONTEXT ( 'NONE', 'WORKASPACE' ) );
#226 =( NAMED_UNIT ( * ) PLANE_ANGLE_UNIT ( ) SI_UNIT ( $, .RADIAN. ) );
#227 = AXIS2_PLACEMENT_3D ( 'NONE', #19, #64, #256 ) ;
#228 = DIRECTION ( 'NONE',  ( 1.000000000000000000, 0.0000000000000000000, 0.0000000000000000000 ) ) ;
#229 = ADVANCED_FACE ( 'NONE', ( #96 ), #117, .F. ) ;
#230 = ORIENTED_EDGE ( 'NONE', *, *, #298, .F. ) ;
#231 = DIRECTION ( 'NONE',  ( -1.000000000000000000, 0.0000000000000000000, 0.0000000000000000000 ) ) ;
#232 = CARTESIAN_POINT ( 'NONE',  ( 0.0000000000000000000, 0.0000000000000000000, 3.937007999999999619 ) ) ;
#233 = VERTEX_POINT ( 'NONE', #240 ) ;
#234 = VECTOR ( 'NONE', #188, 39.37007874015748143 ) ;
#235 = EDGE_CURVE ( 'NONE', #15, #210, #245, .T. ) ;
#236 = EDGE_LOOP ( 'NONE', ( #184, #20, #190, #80 ) ) ;
#237 = DIRECTION ( 'NONE',  ( 1.000000000000000000, 0.0000000000000000000, 0.0000000000000000000 ) ) ;
#238 = FACE_OUTER_BOUND ( 'NONE', #207, .T. ) ;
#239 = APPLICATION_CONTEXT ( 'automotive_design' ) ;
#240 = CARTESIAN_POINT ( 'NONE',  ( 0.1966536494999999996, 2.408312624008205170E-17, -3.791200677927629740E-33 ) ) ;
#241 = ORIENTED_EDGE ( 'NONE', *, *, #13, .F. ) ;
#242 = MANIFOLD_SOLID_BREP ( 'Cut-Revolve1', #167 ) ;
#243 = CARTESIAN_POINT ( 'NONE',  ( 0.1818504999999994431, 2.318874837419505661E-17, 3.937007999999999619 ) ) ;
#244 = CYLINDRICAL_SURFACE ( 'NONE', #277, 0.1966536494999999718 ) ;
#245 = LINE ( 'NONE', #262, #157 ) ;
#246 = EDGE_CURVE ( 'NONE', #15, #292, #85, .T. ) ;
#247 = CARTESIAN_POINT ( 'NONE',  ( 0.0000000000000000000, 0.0000000000000000000, 0.0000000000000000000 ) ) ;
#248 = ORIENTED_EDGE ( 'NONE', *, *, #7, .F. ) ;
#249 = PRESENTATION_STYLE_ASSIGNMENT (( #114 ) ) ;
#250 = ORIENTED_EDGE ( 'NONE', *, *, #259, .T. ) ;
#251 =( LENGTH_UNIT ( ) NAMED_UNIT ( * ) SI_UNIT ( $, .METRE. ) );
#252 = APPLICATION_PROTOCOL_DEFINITION ( 'draft international standard', 'automotive_design', 1998, #239 ) ;
#253 = EDGE_CURVE ( 'NONE', #8, #82, #32, .T. ) ;
#254 = LINE ( 'NONE', #43, #282 ) ;
#255 = ORIENTED_EDGE ( 'NONE', *, *, #163, .T. ) ;
#256 = DIRECTION ( 'NONE',  ( -1.000000000000000000, 0.0000000000000000000, 0.0000000000000000000 ) ) ;
#257 = CARTESIAN_POINT ( 'NONE',  ( -0.1966536494999998053, 2.409517985681882600E-17, 1.496062999999999921 ) ) ;
#258 = CARTESIAN_POINT ( 'NONE',  ( -0.1966536494999998053, 2.408312624008204862E-17, 1.496062999999999921 ) ) ;
#259 = EDGE_CURVE ( 'NONE', #292, #8, #53, .T. ) ;
#260 = CARTESIAN_POINT ( 'NONE',  ( -0.1966536494999999996, 0.0000000000000000000, 4.816625248016410340E-17 ) ) ;
#261 = AXIS2_PLACEMENT_3D ( 'NONE', #209, #88, #299 ) ;
#262 = CARTESIAN_POINT ( 'NONE',  ( -0.1818504999999994431, 0.0000000000000000000, 3.937007999999999619 ) ) ;
#263 = VECTOR ( 'NONE', #130, 39.37007874015748143 ) ;
#264 = EDGE_CURVE ( 'NONE', #125, #82, #79, .T. ) ;
#265 = ORIENTED_EDGE ( 'NONE', *, *, #235, .T. ) ;
#266 = DIRECTION ( 'NONE',  ( -0.0000000000000000000, -0.0000000000000000000, -1.000000000000000000 ) ) ;
#267 = CIRCLE ( 'NONE', #33, 0.1968504999999999838 ) ;
#268 = EDGE_LOOP ( 'NONE', ( #270, #50, #241, #109 ) ) ;
#269 = EDGE_LOOP ( 'NONE', ( #162, #296, #186, #141 ) ) ;
#270 = ORIENTED_EDGE ( 'NONE', *, *, #298, .T. ) ;
#271 = DIRECTION ( 'NONE',  ( 0.0000000000000000000, 0.0000000000000000000, 1.000000000000000000 ) ) ;
#272 = CONICAL_SURFACE ( 'NONE', #227, 0.1818504999999994431, 0.7853981633974403964 ) ;
#273 = ADVANCED_FACE ( 'NONE', ( #108 ), #244, .T. ) ;
#274 = CARTESIAN_POINT ( 'NONE',  ( 0.1966536495000001383, 0.0000000000000000000, 1.496062999999999921 ) ) ;
#275 = DIMENSIONAL_EXPONENTS ( 1.000000000000000000, 0.0000000000000000000, 0.0000000000000000000, 0.0000000000000000000, 0.0000000000000000000, 0.0000000000000000000, 0.0000000000000000000 ) ;
#276 = CIRCLE ( 'NONE', #148, 0.1966536494999999996 ) ;
#277 = AXIS2_PLACEMENT_3D ( 'NONE', #147, #178, #134 ) ;
#278 = FACE_OUTER_BOUND ( 'NONE', #160, .T. ) ;
#279 = ORIENTED_EDGE ( 'NONE', *, *, #253, .T. ) ;
#280 = DIRECTION ( 'NONE',  ( -1.000000000000000000, 0.0000000000000000000, 0.0000000000000000000 ) ) ;
#281 = CARTESIAN_POINT ( 'NONE',  ( 2.949332346337811403E-33, 0.0000000000000000000, 2.408312624008205170E-17 ) ) ;
#282 = VECTOR ( 'NONE', #213, 39.37007874015748143 ) ;
#283 = FACE_OUTER_BOUND ( 'NONE', #269, .T. ) ;
#284 = CARTESIAN_POINT ( 'NONE',  ( 0.0000000000000000000, 0.0000000000000000000, 3.937007999999999619 ) ) ;
#285 = CARTESIAN_POINT ( 'NONE',  ( 0.0000000000000000000, 0.0000000000000000000, 3.937007999999999619 ) ) ;
#286 = LINE ( 'NONE', #215, #191 ) ;
#287 = FILL_AREA_STYLE_COLOUR ( '', #73 ) ;
#288 = DIRECTION ( 'NONE',  ( 1.000000000000000000, 0.0000000000000000000, 0.0000000000000000000 ) ) ;
#289 = SURFACE_STYLE_USAGE ( .BOTH. , #155 ) ;
#290 = EDGE_CURVE ( 'NONE', #144, #233, #221, .T. ) ;
#291 =( NAMED_UNIT ( * ) SI_UNIT ( $, .STERADIAN. ) SOLID_ANGLE_UNIT ( ) );
#292 = VERTEX_POINT ( 'NONE', #243 ) ;
#293 = PRESENTATION_STYLE_ASSIGNMENT (( #289 ) ) ;
#294 = DIRECTION ( 'NONE',  ( 0.0000000000000000000, 0.0000000000000000000, 1.000000000000000000 ) ) ;
#295 = FILL_AREA_STYLE ('',( #206 ) ) ;
#296 = ORIENTED_EDGE ( 'NONE', *, *, #163, .F. ) ;
#297 = AXIS2_PLACEMENT_3D ( 'NONE', #202, #294, #135 ) ;
#298 = EDGE_CURVE ( 'NONE', #45, #144, #133, .T. ) ;
#299 = DIRECTION ( 'NONE',  ( 1.000000000000000000, 0.0000000000000000000, -0.0000000000000000000 ) ) ;
ENDSEC;
END-ISO-10303-21;
