ISO-10303-21;
HEADER;
FILE_DESCRIPTION (( 'STEP AP214' ),
    '1' );
FILE_NAME ('Micro_GEM-109-4X.STEP',
    '2021-09-01T19:30:38',
    ( '' ),
    ( '' ),
    'SwSTEP 2.0',
    'SolidWorks 2020',
    '' );
FILE_SCHEMA (( 'AUTOMOTIVE_DESIGN' ));
ENDSEC;

DATA;
#1 = AXIS2_PLACEMENT_3D ( 'NONE', #89, #233, #96 ) ;
#2 = ADVANCED_FACE ( 'NONE', ( #7 ), #107, .T. ) ;
#3 = ORIENTED_EDGE ( 'NONE', *, *, #42, .T. ) ;
#4 = PRESENTATION_LAYER_ASSIGNMENT (  '', '', ( #172 ) ) ;
#5 = AXIS2_PLACEMENT_3D ( 'NONE', #82, #291, #153 ) ;
#6 = ADVANCED_FACE ( 'NONE', ( #282 ), #189, .T. ) ;
#7 = FACE_OUTER_BOUND ( 'NONE', #141, .T. ) ;
#8 = PRODUCT_DEFINITION_CONTEXT ( 'detailed design', #206, 'design' ) ;
#9 = CARTESIAN_POINT ( 'NONE',  ( -0.06250000000000002776, 0.0000000000000000000, 1.500000000000000222 ) ) ;
#10 = ORIENTED_EDGE ( 'NONE', *, *, #214, .T. ) ;
#11 = PRODUCT_DEFINITION_SHAPE ( 'NONE', 'NONE',  #68 ) ;
#12 = CARTESIAN_POINT ( 'NONE',  ( 0.0000000000000000000, 0.0000000000000000000, 1.500000000000000222 ) ) ;
#13 = DIRECTION ( 'NONE',  ( -1.000000000000000000, 0.0000000000000000000, 0.0000000000000000000 ) ) ;
#14 = DIRECTION ( 'NONE',  ( -1.224646799147353700E-16, -0.0000000000000000000, -1.000000000000000000 ) ) ;
#15 = EDGE_CURVE ( 'NONE', #185, #274, #247, .T. ) ;
#16 = DIRECTION ( 'NONE',  ( -1.000000000000000000, 0.0000000000000000000, 0.0000000000000000000 ) ) ;
#17 = DIMENSIONAL_EXPONENTS ( 1.000000000000000000, 0.0000000000000000000, 0.0000000000000000000, 0.0000000000000000000, 0.0000000000000000000, 0.0000000000000000000, 0.0000000000000000000 ) ;
#18 = CARTESIAN_POINT ( 'NONE',  ( 4.592425496802576684E-17, 0.0000000000000000000, 0.3750000000000000555 ) ) ;
#19 = VERTEX_POINT ( 'NONE', #211 ) ;
#20 = ORIENTED_EDGE ( 'NONE', *, *, #135, .F. ) ;
#21 = EDGE_CURVE ( 'NONE', #23, #298, #257, .T. ) ;
#22 = ORIENTED_EDGE ( 'NONE', *, *, #284, .F. ) ;
#23 = VERTEX_POINT ( 'NONE', #88 ) ;
#24 = DIRECTION ( 'NONE',  ( -1.000000000000000000, 0.0000000000000000000, 1.224646799147353700E-16 ) ) ;
#25 = EDGE_CURVE ( 'NONE', #67, #208, #49, .T. ) ;
#26 = AXIS2_PLACEMENT_3D ( 'NONE', #61, #112, #116 ) ;
#27 = CARTESIAN_POINT ( 'NONE',  ( 8.195482325149207809E-34, 0.0000000000000000000, 6.692119173344688177E-18 ) ) ;
#28 = CARTESIAN_POINT ( 'NONE',  ( -0.05464529999999999388, 0.0000000000000000000, 1.338423834668937635E-17 ) ) ;
#29 = LINE ( 'NONE', #71, #212 ) ;
#30 = CARTESIAN_POINT ( 'NONE',  ( 0.06250000000000002776, 7.654042494670959086E-18, 1.500000000000000222 ) ) ;
#31 = ORIENTED_EDGE ( 'NONE', *, *, #52, .F. ) ;
#32 = DIRECTION ( 'NONE',  ( -1.224646799147353700E-16, -0.0000000000000000000, -1.000000000000000000 ) ) ;
#33 = DIRECTION ( 'NONE',  ( 0.0000000000000000000, 0.0000000000000000000, -1.000000000000000000 ) ) ;
#34 = DIRECTION ( 'NONE',  ( 0.0000000000000000000, 0.0000000000000000000, 1.000000000000000000 ) ) ;
#35 = CARTESIAN_POINT ( 'NONE',  ( 0.0000000000000000000, 0.0000000000000000000, 1.500000000000000222 ) ) ;
#36 = AXIS2_PLACEMENT_3D ( 'NONE', #169, #288, #79 ) ;
#37 = PLANE ( 'NONE',  #253 ) ;
#38 =( NAMED_UNIT ( * ) PLANE_ANGLE_UNIT ( ) SI_UNIT ( $, .RADIAN. ) );
#39 = ORIENTED_EDGE ( 'NONE', *, *, #292, .T. ) ;
#40 = CONICAL_SURFACE ( 'NONE', #186, 0.04750000000000064587, 0.7853981633974466137 ) ;
#41 = EDGE_LOOP ( 'NONE', ( #216, #188 ) ) ;
#42 = EDGE_CURVE ( 'NONE', #272, #185, #29, .T. ) ;
#43 = EDGE_LOOP ( 'NONE', ( #297, #251, #114, #156 ) ) ;
#44 = AXIS2_PLACEMENT_3D ( 'NONE', #105, #174, #201 ) ;
#45 = CARTESIAN_POINT ( 'NONE',  ( 0.04750000000000064587, 5.817072295950006528E-18, 1.500000000000000222 ) ) ;
#46 = PRESENTATION_LAYER_ASSIGNMENT (  '', '', ( #103 ) ) ;
#47 = SURFACE_STYLE_FILL_AREA ( #268 ) ;
#48 = ORIENTED_EDGE ( 'NONE', *, *, #292, .F. ) ;
#49 = LINE ( 'NONE', #277, #65 ) ;
#50 =( NAMED_UNIT ( * ) PLANE_ANGLE_UNIT ( ) SI_UNIT ( $, .RADIAN. ) );
#51 = VECTOR ( 'NONE', #57, 39.37007874015747433 ) ;
#52 = EDGE_CURVE ( 'NONE', #298, #208, #195, .T. ) ;
#53 = ORIENTED_EDGE ( 'NONE', *, *, #25, .F. ) ;
#54 = PRODUCT ( 'Micro_GEM-109-4X', 'Micro_GEM-109-4X', '', ( #259 ) ) ;
#55 =( NAMED_UNIT ( * ) SI_UNIT ( $, .STERADIAN. ) SOLID_ANGLE_UNIT ( ) );
#56 = ADVANCED_FACE ( 'NONE', ( #167 ), #63, .T. ) ;
#57 = DIRECTION ( 'NONE',  ( -0.1736481776669311639, 2.126576849575783008E-17, 0.9848077530122080203 ) ) ;
#58 = SHAPE_DEFINITION_REPRESENTATION ( #11, #151 ) ;
#59 = EDGE_CURVE ( 'NONE', #19, #274, #69, .T. ) ;
#60 = DIRECTION ( 'NONE',  ( 0.1736481776669313581, 0.0000000000000000000, 0.9848077530122077983 ) ) ;
#61 = CARTESIAN_POINT ( 'NONE',  ( 4.592425496802576684E-17, 0.0000000000000000000, 0.3750000000000000555 ) ) ;
#62 = PLANE ( 'NONE',  #44 ) ;
#63 = CONICAL_SURFACE ( 'NONE', #26, 0.05464529999999999388, 0.1745329251994338637 ) ;
#64 = CYLINDRICAL_SURFACE ( 'NONE', #5, 0.05464529999999999388 ) ;
#65 = VECTOR ( 'NONE', #237, 39.37007874015748143 ) ;
#66 = ORIENTED_EDGE ( 'NONE', *, *, #234, .F. ) ;
#67 = VERTEX_POINT ( 'NONE', #127 ) ;
#68 = PRODUCT_DEFINITION ( 'UNKNOWN', '', #231, #8 ) ;
#69 = LINE ( 'NONE', #45, #230 ) ;
#70 = AXIS2_PLACEMENT_3D ( 'NONE', #97, #33, #221 ) ;
#71 = CARTESIAN_POINT ( 'NONE',  ( -0.04750000000000064587, 0.0000000000000000000, 1.500000000000000222 ) ) ;
#72 = ADVANCED_FACE ( 'NONE', ( #264 ), #81, .T. ) ;
#73 = CARTESIAN_POINT ( 'NONE',  ( 0.0000000000000000000, 0.0000000000000000000, 1.485000000000000764 ) ) ;
#74 = CARTESIAN_POINT ( 'NONE',  ( 0.0000000000000000000, 0.0000000000000000000, 1.500000000000000222 ) ) ;
#75 = DIRECTION ( 'NONE',  ( 1.000000000000000000, 0.0000000000000000000, 0.0000000000000000000 ) ) ;
#76 = CONICAL_SURFACE ( 'NONE', #243, 0.05464529999999999388, 0.1745329251994338637 ) ;
#77 = CARTESIAN_POINT ( 'NONE',  ( 5.137959321212973182E-17, 0.0000000000000000000, 0.4195462173085511837 ) ) ;
#78 = CARTESIAN_POINT ( 'NONE',  ( 0.06250000000000008327, 7.654042494670966789E-18, 0.4195462173085511837 ) ) ;
#79 = DIRECTION ( 'NONE',  ( -1.000000000000000000, 0.0000000000000000000, 1.224646799147353700E-16 ) ) ;
#80 = CIRCLE ( 'NONE', #182, 0.05464529999999999388 ) ;
#81 = CYLINDRICAL_SURFACE ( 'NONE', #178, 0.06250000000000002776 ) ;
#82 = CARTESIAN_POINT ( 'NONE',  ( 0.0000000000000000000, 0.0000000000000000000, 0.0000000000000000000 ) ) ;
#83 = AXIS2_PLACEMENT_3D ( 'NONE', #123, #219, #258 ) ;
#84 =( LENGTH_UNIT ( ) NAMED_UNIT ( * ) SI_UNIT ( $, .METRE. ) );
#85 =( LENGTH_UNIT ( ) NAMED_UNIT ( * ) SI_UNIT ( $, .METRE. ) );
#86 = EDGE_LOOP ( 'NONE', ( #278, #228, #10, #138 ) ) ;
#87 = ORIENTED_EDGE ( 'NONE', *, *, #15, .T. ) ;
#88 = CARTESIAN_POINT ( 'NONE',  ( 0.05464530000000004245, 0.0000000000000000000, 0.3750000000000000555 ) ) ;
#89 = CARTESIAN_POINT ( 'NONE',  ( 0.0000000000000000000, 0.0000000000000000000, 1.500000000000000222 ) ) ;
#90 = EDGE_CURVE ( 'NONE', #23, #67, #80, .T. ) ;
#91 = UNCERTAINTY_MEASURE_WITH_UNIT (LENGTH_MEASURE( 1.000000000000000082E-05 ), #207, 'distance_accuracy_value', 'NONE');
#92 = DIRECTION ( 'NONE',  ( -1.000000000000000000, 0.0000000000000000000, 0.0000000000000000000 ) ) ;
#93 = DIRECTION ( 'NONE',  ( -1.224646799147353700E-16, -0.0000000000000000000, -1.000000000000000000 ) ) ;
#94 = ADVANCED_FACE ( 'NONE', ( #104 ), #62, .F. ) ;
#95 = FACE_OUTER_BOUND ( 'NONE', #181, .T. ) ;
#96 = DIRECTION ( 'NONE',  ( -1.000000000000000000, 0.0000000000000000000, 0.0000000000000000000 ) ) ;
#97 = CARTESIAN_POINT ( 'NONE',  ( 0.0000000000000000000, 0.0000000000000000000, 1.485000000000000764 ) ) ;
#98 = DIRECTION ( 'NONE',  ( 1.000000000000000000, 0.0000000000000000000, 0.0000000000000000000 ) ) ;
#99 = FACE_OUTER_BOUND ( 'NONE', #43, .T. ) ;
#100 = CARTESIAN_POINT ( 'NONE',  ( -0.05464529999999995225, 6.692119173344685866E-18, 0.3750000000000000555 ) ) ;
#101 = FILL_AREA_STYLE_COLOUR ( '', #275 ) ;
#102 = AXIS2_PLACEMENT_3D ( 'NONE', #27, #285, #159 ) ;
#103 = STYLED_ITEM ( 'NONE', ( #245 ), #151 ) ;
#104 = FACE_OUTER_BOUND ( 'NONE', #41, .T. ) ;
#105 = CARTESIAN_POINT ( 'NONE',  ( 0.0000000000000000000, 0.0000000000000000000, 0.0000000000000000000 ) ) ;
#106 = SURFACE_STYLE_FILL_AREA ( #155 ) ;
#107 = CONICAL_SURFACE ( 'NONE', #1, 0.04750000000000064587, 0.7853981633974466137 ) ;
#108 = CIRCLE ( 'NONE', #36, 0.05464529999999999388 ) ;
#109 = ORIENTED_EDGE ( 'NONE', *, *, #184, .T. ) ;
#110 = LENGTH_MEASURE_WITH_UNIT ( LENGTH_MEASURE( 0.02539999999999999897 ), #84 );
#111 = ADVANCED_FACE ( 'NONE', ( #293 ), #64, .T. ) ;
#112 = DIRECTION ( 'NONE',  ( 1.224646799147353700E-16, 0.0000000000000000000, 1.000000000000000000 ) ) ;
#113 = EDGE_CURVE ( 'NONE', #23, #255, #262, .T. ) ;
#114 = ORIENTED_EDGE ( 'NONE', *, *, #190, .T. ) ;
#115 = ORIENTED_EDGE ( 'NONE', *, *, #59, .T. ) ;
#116 = DIRECTION ( 'NONE',  ( 1.000000000000000000, 0.0000000000000000000, 0.0000000000000000000 ) ) ;
#117 =( LENGTH_UNIT ( ) NAMED_UNIT ( * ) SI_UNIT ( $, .METRE. ) );
#118 = DIRECTION ( 'NONE',  ( 1.000000000000000000, 0.0000000000000000000, 0.0000000000000000000 ) ) ;
#119 = ORIENTED_EDGE ( 'NONE', *, *, #266, .T. ) ;
#120 = VECTOR ( 'NONE', #125, 39.37007874015748143 ) ;
#121 = ORIENTED_EDGE ( 'NONE', *, *, #113, .T. ) ;
#122 = ORIENTED_EDGE ( 'NONE', *, *, #214, .F. ) ;
#123 = CARTESIAN_POINT ( 'NONE',  ( 5.137959321212973182E-17, 0.0000000000000000000, 0.4195462173085511837 ) ) ;
#124 = VECTOR ( 'NONE', #60, 39.37007874015748143 ) ;
#125 = DIRECTION ( 'NONE',  ( -0.0000000000000000000, -0.0000000000000000000, -1.000000000000000000 ) ) ;
#126 = ADVANCED_FACE ( 'NONE', ( #244 ), #37, .T. ) ;
#127 = CARTESIAN_POINT ( 'NONE',  ( -0.05464529999999995225, 7.173080834007822861E-18, 0.3750000000000000555 ) ) ;
#128 = MANIFOLD_SOLID_BREP ( 'Cut-Revolve1', #263 ) ;
#129 = CARTESIAN_POINT ( 'NONE',  ( 0.05464530000000004245, 0.0000000000000000000, 0.3750000000000000555 ) ) ;
#130 =( NAMED_UNIT ( * ) SI_UNIT ( $, .STERADIAN. ) SOLID_ANGLE_UNIT ( ) );
#131 = APPLICATION_PROTOCOL_DEFINITION ( 'draft international standard', 'automotive_design', 1998, #252 ) ;
#132 = ORIENTED_EDGE ( 'NONE', *, *, #90, .T. ) ;
#133 = SURFACE_SIDE_STYLE ('',( #106 ) ) ;
#134 = AXIS2_PLACEMENT_3D ( 'NONE', #283, #32, #13 ) ;
#135 = EDGE_CURVE ( 'NONE', #67, #140, #177, .T. ) ;
#136 = DIRECTION ( 'NONE',  ( 1.000000000000000000, 0.0000000000000000000, 0.0000000000000000000 ) ) ;
#137 = ORIENTED_EDGE ( 'NONE', *, *, #150, .T. ) ;
#138 = ORIENTED_EDGE ( 'NONE', *, *, #150, .F. ) ;
#139 = CIRCLE ( 'NONE', #248, 0.04750000000000064587 ) ;
#140 = VERTEX_POINT ( 'NONE', #144 ) ;
#141 = EDGE_LOOP ( 'NONE', ( #183, #270, #3, #66 ) ) ;
#142 = DIRECTION ( 'NONE',  ( -0.7071067811865462405, 0.0000000000000000000, -0.7071067811865486830 ) ) ;
#143 = DIRECTION ( 'NONE',  ( -1.224646799147353700E-16, -0.0000000000000000000, -1.000000000000000000 ) ) ;
#144 = CARTESIAN_POINT ( 'NONE',  ( -0.06249999999999997224, 0.0000000000000000000, 0.4195462173085511837 ) ) ;
#145 = DIRECTION ( 'NONE',  ( 1.000000000000000000, 0.0000000000000000000, 0.0000000000000000000 ) ) ;
#146 = DIRECTION ( 'NONE',  ( -0.0000000000000000000, -0.0000000000000000000, -1.000000000000000000 ) ) ;
#147 = VECTOR ( 'NONE', #143, 39.37007874015748143 ) ;
#148 =( GEOMETRIC_REPRESENTATION_CONTEXT ( 3 ) GLOBAL_UNCERTAINTY_ASSIGNED_CONTEXT ( ( #279 ) ) GLOBAL_UNIT_ASSIGNED_CONTEXT ( ( #269, #289, #199 ) ) REPRESENTATION_CONTEXT ( 'NONE', 'WORKASPACE' ) );
#149 = LENGTH_MEASURE_WITH_UNIT ( LENGTH_MEASURE( 0.02539999999999999897 ), #117 );
#150 = EDGE_CURVE ( 'NONE', #255, #140, #271, .T. ) ;
#151 = ADVANCED_BREP_SHAPE_REPRESENTATION ( 'Micro_GEM-109-4X', ( #128, #276 ), #173 ) ;
#152 = CARTESIAN_POINT ( 'NONE',  ( 0.0000000000000000000, 0.0000000000000000000, 1.500000000000000222 ) ) ;
#153 = DIRECTION ( 'NONE',  ( -1.000000000000000000, 0.0000000000000000000, 1.224646799147353700E-16 ) ) ;
#154 = CARTESIAN_POINT ( 'NONE',  ( 0.05464529999999999388, 6.692119173344685866E-18, 0.0000000000000000000 ) ) ;
#155 = FILL_AREA_STYLE ('',( #203 ) ) ;
#156 = ORIENTED_EDGE ( 'NONE', *, *, #113, .F. ) ;
#157 = ORIENTED_EDGE ( 'NONE', *, *, #25, .T. ) ;
#158 = SURFACE_STYLE_USAGE ( .BOTH. , #273 ) ;
#159 = DIRECTION ( 'NONE',  ( -1.000000000000000000, 0.0000000000000000000, 1.224646799147353700E-16 ) ) ;
#160 = DIRECTION ( 'NONE',  ( 0.0000000000000000000, 0.0000000000000000000, -1.000000000000000000 ) ) ;
#161 = UNCERTAINTY_MEASURE_WITH_UNIT (LENGTH_MEASURE( 1.000000000000000082E-05 ), #165, 'distance_accuracy_value', 'NONE');
#162 = DIRECTION ( 'NONE',  ( 0.0000000000000000000, 0.0000000000000000000, 1.000000000000000000 ) ) ;
#163 = ADVANCED_FACE ( 'NONE', ( #286 ), #40, .T. ) ;
#164 = ORIENTED_EDGE ( 'NONE', *, *, #42, .F. ) ;
#165 =( CONVERSION_BASED_UNIT ( 'INCH', #149 ) LENGTH_UNIT ( ) NAMED_UNIT ( #175 ) );
#166 = PRODUCT_RELATED_PRODUCT_CATEGORY ( 'part', '', ( #54 ) ) ;
#167 = FACE_OUTER_BOUND ( 'NONE', #194, .T. ) ;
#168 = CARTESIAN_POINT ( 'NONE',  ( 0.0000000000000000000, 0.0000000000000000000, 1.500000000000000222 ) ) ;
#169 = CARTESIAN_POINT ( 'NONE',  ( 8.195482325149207809E-34, 0.0000000000000000000, 6.692119173344688177E-18 ) ) ;
#170 = AXIS2_PLACEMENT_3D ( 'NONE', #77, #14, #241 ) ;
#171 = DIRECTION ( 'NONE',  ( 0.0000000000000000000, 0.0000000000000000000, -1.000000000000000000 ) ) ;
#172 = STYLED_ITEM ( 'NONE', ( #235 ), #128 ) ;
#173 =( GEOMETRIC_REPRESENTATION_CONTEXT ( 3 ) GLOBAL_UNCERTAINTY_ASSIGNED_CONTEXT ( ( #91 ) ) GLOBAL_UNIT_ASSIGNED_CONTEXT ( ( #207, #38, #130 ) ) REPRESENTATION_CONTEXT ( 'NONE', 'WORKASPACE' ) );
#174 = DIRECTION ( 'NONE',  ( 0.0000000000000000000, 0.0000000000000000000, 1.000000000000000000 ) ) ;
#175 = DIMENSIONAL_EXPONENTS ( 1.000000000000000000, 0.0000000000000000000, 0.0000000000000000000, 0.0000000000000000000, 0.0000000000000000000, 0.0000000000000000000, 0.0000000000000000000 ) ;
#176 = DIRECTION ( 'NONE',  ( -0.0000000000000000000, -0.0000000000000000000, -1.000000000000000000 ) ) ;
#177 = LINE ( 'NONE', #100, #51 ) ;
#178 = AXIS2_PLACEMENT_3D ( 'NONE', #35, #176, #290 ) ;
#179 = CIRCLE ( 'NONE', #134, 0.05464529999999999388 ) ;
#180 = LENGTH_MEASURE_WITH_UNIT ( LENGTH_MEASURE( 0.02539999999999999897 ), #85 );
#181 = EDGE_LOOP ( 'NONE', ( #87, #109, #267, #122 ) ) ;
#182 = AXIS2_PLACEMENT_3D ( 'NONE', #18, #223, #16 ) ;
#183 = ORIENTED_EDGE ( 'NONE', *, *, #59, .F. ) ;
#184 = EDGE_CURVE ( 'NONE', #274, #255, #242, .T. ) ;
#185 = VERTEX_POINT ( 'NONE', #198 ) ;
#186 = AXIS2_PLACEMENT_3D ( 'NONE', #168, #171, #238 ) ;
#187 = ADVANCED_FACE ( 'NONE', ( #99 ), #76, .T. ) ;
#188 = ORIENTED_EDGE ( 'NONE', *, *, #52, .T. ) ;
#189 = CYLINDRICAL_SURFACE ( 'NONE', #204, 0.05464529999999999388 ) ;
#190 = EDGE_CURVE ( 'NONE', #140, #255, #209, .T. ) ;
#191 = DIRECTION ( 'NONE',  ( 0.0000000000000000000, 0.0000000000000000000, 1.000000000000000000 ) ) ;
#192 = EDGE_LOOP ( 'NONE', ( #48, #115, #249, #164 ) ) ;
#193 = CARTESIAN_POINT ( 'NONE',  ( -0.04750000000000064587, 0.0000000000000000000, 1.500000000000000222 ) ) ;
#194 = EDGE_LOOP ( 'NONE', ( #20, #210, #121, #137 ) ) ;
#195 = CIRCLE ( 'NONE', #102, 0.05464529999999999388 ) ;
#196 = MECHANICAL_DESIGN_GEOMETRIC_PRESENTATION_REPRESENTATION (  '', ( #103 ), #148 ) ;
#197 = CARTESIAN_POINT ( 'NONE',  ( 0.0000000000000000000, 0.0000000000000000000, 1.500000000000000222 ) ) ;
#198 = CARTESIAN_POINT ( 'NONE',  ( -0.06250000000000002776, 0.0000000000000000000, 1.485000000000000764 ) ) ;
#199 =( NAMED_UNIT ( * ) SI_UNIT ( $, .STERADIAN. ) SOLID_ANGLE_UNIT ( ) );
#200 = DIRECTION ( 'NONE',  ( -0.0000000000000000000, -0.0000000000000000000, -1.000000000000000000 ) ) ;
#201 = DIRECTION ( 'NONE',  ( 1.000000000000000000, 0.0000000000000000000, -0.0000000000000000000 ) ) ;
#202 = DIRECTION ( 'NONE',  ( 0.0000000000000000000, 0.0000000000000000000, 1.000000000000000000 ) ) ;
#203 = FILL_AREA_STYLE_COLOUR ( '', #295 ) ;
#204 = AXIS2_PLACEMENT_3D ( 'NONE', #215, #93, #24 ) ;
#205 = AXIS2_PLACEMENT_3D ( 'NONE', #12, #146, #92 ) ;
#206 = APPLICATION_CONTEXT ( 'automotive_design' ) ;
#207 =( CONVERSION_BASED_UNIT ( 'INCH', #180 ) LENGTH_UNIT ( ) NAMED_UNIT ( #232 ) );
#208 = VERTEX_POINT ( 'NONE', #28 ) ;
#209 = CIRCLE ( 'NONE', #83, 0.06250000000000002776 ) ;
#210 = ORIENTED_EDGE ( 'NONE', *, *, #90, .F. ) ;
#211 = CARTESIAN_POINT ( 'NONE',  ( 0.04750000000000064587, 6.735557395310483192E-18, 1.500000000000000222 ) ) ;
#212 = VECTOR ( 'NONE', #142, 39.37007874015748854 ) ;
#213 = ORIENTED_EDGE ( 'NONE', *, *, #280, .T. ) ;
#214 = EDGE_CURVE ( 'NONE', #185, #140, #217, .T. ) ;
#215 = CARTESIAN_POINT ( 'NONE',  ( 0.0000000000000000000, 0.0000000000000000000, 0.0000000000000000000 ) ) ;
#216 = ORIENTED_EDGE ( 'NONE', *, *, #284, .T. ) ;
#217 = LINE ( 'NONE', #9, #294 ) ;
#218 =( GEOMETRIC_REPRESENTATION_CONTEXT ( 3 ) GLOBAL_UNCERTAINTY_ASSIGNED_CONTEXT ( ( #161 ) ) GLOBAL_UNIT_ASSIGNED_CONTEXT ( ( #165, #50, #55 ) ) REPRESENTATION_CONTEXT ( 'NONE', 'WORKASPACE' ) );
#219 = DIRECTION ( 'NONE',  ( -1.224646799147353700E-16, -0.0000000000000000000, -1.000000000000000000 ) ) ;
#220 = APPLICATION_PROTOCOL_DEFINITION ( 'draft international standard', 'automotive_design', 1998, #206 ) ;
#221 = DIRECTION ( 'NONE',  ( 1.000000000000000000, 0.0000000000000000000, 0.0000000000000000000 ) ) ;
#222 = DIRECTION ( 'NONE',  ( 1.224646799147353700E-16, 0.0000000000000000000, 1.000000000000000000 ) ) ;
#223 = DIRECTION ( 'NONE',  ( -1.224646799147353700E-16, -0.0000000000000000000, -1.000000000000000000 ) ) ;
#224 = ADVANCED_FACE ( 'NONE', ( #95 ), #239, .T. ) ;
#225 = DIRECTION ( 'NONE',  ( 0.7071067811865462405, 8.659560562354916834E-17, -0.7071067811865486830 ) ) ;
#226 = ORIENTED_EDGE ( 'NONE', *, *, #21, .F. ) ;
#227 = AXIS2_PLACEMENT_3D ( 'NONE', #73, #160, #118 ) ;
#228 = ORIENTED_EDGE ( 'NONE', *, *, #234, .T. ) ;
#229 = EDGE_LOOP ( 'NONE', ( #119, #39 ) ) ;
#230 = VECTOR ( 'NONE', #225, 39.37007874015748854 ) ;
#231 = PRODUCT_DEFINITION_FORMATION_WITH_SPECIFIED_SOURCE ( 'ANY', '', #54, .NOT_KNOWN. ) ;
#232 = DIMENSIONAL_EXPONENTS ( 1.000000000000000000, 0.0000000000000000000, 0.0000000000000000000, 0.0000000000000000000, 0.0000000000000000000, 0.0000000000000000000, 0.0000000000000000000 ) ;
#233 = DIRECTION ( 'NONE',  ( 0.0000000000000000000, 0.0000000000000000000, -1.000000000000000000 ) ) ;
#234 = EDGE_CURVE ( 'NONE', #274, #185, #240, .T. ) ;
#235 = PRESENTATION_STYLE_ASSIGNMENT (( #158 ) ) ;
#236 = MECHANICAL_DESIGN_GEOMETRIC_PRESENTATION_REPRESENTATION (  '', ( #172 ), #218 ) ;
#237 = DIRECTION ( 'NONE',  ( -1.224646799147353700E-16, -0.0000000000000000000, -1.000000000000000000 ) ) ;
#238 = DIRECTION ( 'NONE',  ( -1.000000000000000000, 0.0000000000000000000, 0.0000000000000000000 ) ) ;
#239 = CYLINDRICAL_SURFACE ( 'NONE', #205, 0.06250000000000002776 ) ;
#240 = CIRCLE ( 'NONE', #70, 0.06250000000000002776 ) ;
#241 = DIRECTION ( 'NONE',  ( 1.000000000000000000, 0.0000000000000000000, 0.0000000000000000000 ) ) ;
#242 = LINE ( 'NONE', #30, #120 ) ;
#243 = AXIS2_PLACEMENT_3D ( 'NONE', #287, #222, #75 ) ;
#244 = FACE_OUTER_BOUND ( 'NONE', #229, .T. ) ;
#245 = PRESENTATION_STYLE_ASSIGNMENT (( #296 ) ) ;
#246 = EDGE_LOOP ( 'NONE', ( #226, #132, #157, #31 ) ) ;
#247 = CIRCLE ( 'NONE', #227, 0.06250000000000002776 ) ;
#248 = AXIS2_PLACEMENT_3D ( 'NONE', #74, #162, #136 ) ;
#249 = ORIENTED_EDGE ( 'NONE', *, *, #15, .F. ) ;
#250 = ORIENTED_EDGE ( 'NONE', *, *, #21, .T. ) ;
#251 = ORIENTED_EDGE ( 'NONE', *, *, #135, .T. ) ;
#252 = APPLICATION_CONTEXT ( 'automotive_design' ) ;
#253 = AXIS2_PLACEMENT_3D ( 'NONE', #152, #202, #265 ) ;
#254 = CIRCLE ( 'NONE', #260, 0.04750000000000064587 ) ;
#255 = VERTEX_POINT ( 'NONE', #78 ) ;
#256 = CARTESIAN_POINT ( 'NONE',  ( 0.05464529999999999388, 6.692119173344685866E-18, -6.692119173344688177E-18 ) ) ;
#257 = LINE ( 'NONE', #256, #147 ) ;
#258 = DIRECTION ( 'NONE',  ( 1.000000000000000000, 0.0000000000000000000, 0.0000000000000000000 ) ) ;
#259 = PRODUCT_CONTEXT ( 'NONE', #252, 'mechanical' ) ;
#260 = AXIS2_PLACEMENT_3D ( 'NONE', #197, #191, #145 ) ;
#261 = CARTESIAN_POINT ( 'NONE',  ( 0.0000000000000000000, 0.0000000000000000000, 0.0000000000000000000 ) ) ;
#262 = LINE ( 'NONE', #129, #124 ) ;
#263 = CLOSED_SHELL ( 'NONE', ( #111, #187, #163, #224, #72, #126, #2, #56, #6, #94 ) ) ;
#264 = FACE_OUTER_BOUND ( 'NONE', #86, .T. ) ;
#265 = DIRECTION ( 'NONE',  ( 1.000000000000000000, 0.0000000000000000000, -0.0000000000000000000 ) ) ;
#266 = EDGE_CURVE ( 'NONE', #272, #19, #254, .T. ) ;
#267 = ORIENTED_EDGE ( 'NONE', *, *, #190, .F. ) ;
#268 = FILL_AREA_STYLE ('',( #101 ) ) ;
#269 =( CONVERSION_BASED_UNIT ( 'INCH', #110 ) LENGTH_UNIT ( ) NAMED_UNIT ( #17 ) );
#270 = ORIENTED_EDGE ( 'NONE', *, *, #266, .F. ) ;
#271 = CIRCLE ( 'NONE', #170, 0.06250000000000002776 ) ;
#272 = VERTEX_POINT ( 'NONE', #193 ) ;
#273 = SURFACE_SIDE_STYLE ('',( #47 ) ) ;
#274 = VERTEX_POINT ( 'NONE', #281 ) ;
#275 = COLOUR_RGB ( '',0.7921568627450980005, 0.8196078431372548767, 0.9333333333333333481 ) ;
#276 = AXIS2_PLACEMENT_3D ( 'NONE', #261, #34, #98 ) ;
#277 = CARTESIAN_POINT ( 'NONE',  ( -0.05464529999999999388, 0.0000000000000000000, 6.692119173344688177E-18 ) ) ;
#278 = ORIENTED_EDGE ( 'NONE', *, *, #184, .F. ) ;
#279 = UNCERTAINTY_MEASURE_WITH_UNIT (LENGTH_MEASURE( 1.000000000000000082E-05 ), #269, 'distance_accuracy_value', 'NONE');
#280 = EDGE_CURVE ( 'NONE', #67, #23, #179, .T. ) ;
#281 = CARTESIAN_POINT ( 'NONE',  ( 0.06250000000000002776, 7.654042494670959086E-18, 1.485000000000000764 ) ) ;
#282 = FACE_OUTER_BOUND ( 'NONE', #246, .T. ) ;
#283 = CARTESIAN_POINT ( 'NONE',  ( 4.592425496802576684E-17, 0.0000000000000000000, 0.3750000000000000555 ) ) ;
#284 = EDGE_CURVE ( 'NONE', #208, #298, #108, .T. ) ;
#285 = DIRECTION ( 'NONE',  ( -1.224646799147353700E-16, -0.0000000000000000000, -1.000000000000000000 ) ) ;
#286 = FACE_OUTER_BOUND ( 'NONE', #192, .T. ) ;
#287 = CARTESIAN_POINT ( 'NONE',  ( 4.592425496802576684E-17, 0.0000000000000000000, 0.3750000000000000555 ) ) ;
#288 = DIRECTION ( 'NONE',  ( -1.224646799147353700E-16, -0.0000000000000000000, -1.000000000000000000 ) ) ;
#289 =( NAMED_UNIT ( * ) PLANE_ANGLE_UNIT ( ) SI_UNIT ( $, .RADIAN. ) );
#290 = DIRECTION ( 'NONE',  ( -1.000000000000000000, 0.0000000000000000000, 0.0000000000000000000 ) ) ;
#291 = DIRECTION ( 'NONE',  ( -1.224646799147353700E-16, -0.0000000000000000000, -1.000000000000000000 ) ) ;
#292 = EDGE_CURVE ( 'NONE', #19, #272, #139, .T. ) ;
#293 = FACE_OUTER_BOUND ( 'NONE', #299, .T. ) ;
#294 = VECTOR ( 'NONE', #200, 39.37007874015748143 ) ;
#295 = COLOUR_RGB ( '',0.7921568627450980005, 0.8196078431372548767, 0.9333333333333333481 ) ;
#296 = SURFACE_STYLE_USAGE ( .BOTH. , #133 ) ;
#297 = ORIENTED_EDGE ( 'NONE', *, *, #280, .F. ) ;
#298 = VERTEX_POINT ( 'NONE', #154 ) ;
#299 = EDGE_LOOP ( 'NONE', ( #213, #250, #22, #53 ) ) ;
ENDSEC;
END-ISO-10303-21;
