ISO-10303-21;
HEADER;
FILE_DESCRIPTION (( 'STEP AP214' ),
    '1' );
FILE_NAME ('83840.STEP',
    '2023-07-05T16:16:36',
    ( '' ),
    ( '' ),
    'SwSTEP 2.0',
    'SolidWorks 2023',
    '' );
FILE_SCHEMA (( 'AUTOMOTIVE_DESIGN' ));
ENDSEC;

DATA;
#1 = DIRECTION ( 'NONE',  ( -1.000000000000000000, 0.000000000000000000, 0.000000000000000000 ) ) ;
#2 = SURFACE_SIDE_STYLE ('',( #65 ) ) ;
#3 = AXIS2_PLACEMENT_3D ( 'NONE', #128, #191, #18 ) ;
#4 = VECTOR ( 'NONE', #254, 39.37007874015748143 ) ;
#5 =( CONVERSION_BASED_UNIT ( 'INCH', #9 ) LENGTH_UNIT ( ) NAMED_UNIT ( #67 ) );
#6 = EDGE_CURVE ( 'NONE', #35, #258, #43, .T. ) ;
#7 = PRESENTATION_STYLE_ASSIGNMENT (( #166 ) ) ;
#8 = FACE_OUTER_BOUND ( 'NONE', #33, .T. ) ;
#9 = LENGTH_MEASURE_WITH_UNIT ( LENGTH_MEASURE( 0.02539999999999999897 ), #230 );
#10 = ORIENTED_EDGE ( 'NONE', *, *, #103, .F. ) ;
#11 = CIRCLE ( 'NONE', #122, 0.1249999999999997780 ) ;
#12 = AXIS2_PLACEMENT_3D ( 'NONE', #133, #88, #136 ) ;
#13 =( LENGTH_UNIT ( ) NAMED_UNIT ( * ) SI_UNIT ( $, .METRE. ) );
#14 = ORIENTED_EDGE ( 'NONE', *, *, #225, .T. ) ;
#15 = CARTESIAN_POINT ( 'NONE',  ( 2.176941369951209721E-16, 0.2165063509461089553, 0.000000000000000000 ) ) ;
#16 = FILL_AREA_STYLE ('',( #198 ) ) ;
#17 =( GEOMETRIC_REPRESENTATION_CONTEXT ( 3 ) GLOBAL_UNCERTAINTY_ASSIGNED_CONTEXT ( ( #154 ) ) GLOBAL_UNIT_ASSIGNED_CONTEXT ( ( #5, #45, #46 ) ) REPRESENTATION_CONTEXT ( 'NONE', 'WORKASPACE' ) );
#18 = DIRECTION ( 'NONE',  ( -1.000000000000000000, 0.000000000000000000, 0.000000000000000000 ) ) ;
#19 = CARTESIAN_POINT ( 'NONE',  ( -6.123233995736766036E-17, 2.500000000000000000, 0.000000000000000000 ) ) ;
#20 =( NAMED_UNIT ( * ) SI_UNIT ( $, .STERADIAN. ) SOLID_ANGLE_UNIT ( ) );
#21 = CONICAL_SURFACE ( 'NONE', #169, 22.73032555864674364, 0.5235987755983000369 ) ;
#22 = LENGTH_MEASURE_WITH_UNIT ( LENGTH_MEASURE( 0.02539999999999999897 ), #224 );
#23 =( NAMED_UNIT ( * ) SI_UNIT ( $, .STERADIAN. ) SOLID_ANGLE_UNIT ( ) );
#24 = PRESENTATION_STYLE_ASSIGNMENT (( #124 ) ) ;
#25 =( GEOMETRIC_REPRESENTATION_CONTEXT ( 3 ) GLOBAL_UNCERTAINTY_ASSIGNED_CONTEXT ( ( #131 ) ) GLOBAL_UNIT_ASSIGNED_CONTEXT ( ( #156, #118, #20 ) ) REPRESENTATION_CONTEXT ( 'NONE', 'WORKASPACE' ) );
#26 = VERTEX_POINT ( 'NONE', #197 ) ;
#27 = DIRECTION ( 'NONE',  ( -1.000000000000000000, 0.000000000000000000, 0.000000000000000000 ) ) ;
#28 = EDGE_CURVE ( 'NONE', #258, #35, #11, .T. ) ;
#29 = VERTEX_POINT ( 'NONE', #97 ) ;
#30 = DIMENSIONAL_EXPONENTS ( 1.000000000000000000, 0.000000000000000000, 0.000000000000000000, 0.000000000000000000, 0.000000000000000000, 0.000000000000000000, 0.000000000000000000 ) ;
#31 = AXIS2_PLACEMENT_3D ( 'NONE', #56, #130, #115 ) ;
#32 = CARTESIAN_POINT ( 'NONE',  ( -6.123233995736766036E-17, 2.500000000000000000, 0.000000000000000000 ) ) ;
#33 = EDGE_LOOP ( 'NONE', ( #53, #235 ) ) ;
#34 = CARTESIAN_POINT ( 'NONE',  ( 0.000000000000000000, 0.000000000000000000, 0.000000000000000000 ) ) ;
#35 = VERTEX_POINT ( 'NONE', #262 ) ;
#36 = COLOUR_RGB ( '',1.000000000000000000, 0.000000000000000000, 0.000000000000000000 ) ;
#37 = ORIENTED_EDGE ( 'NONE', *, *, #28, .F. ) ;
#38 = FILL_AREA_STYLE_COLOUR ( '', #73 ) ;
#39 = DIRECTION ( 'NONE',  ( -1.221490049109858028E-16, 1.000000000000000000, -0.000000000000000000 ) ) ;
#40 = CARTESIAN_POINT ( 'NONE',  ( -0.1249999999999999861, 0.2165063509461090385, 0.000000000000000000 ) ) ;
#41 = SURFACE_STYLE_USAGE ( .BOTH. , #2 ) ;
#42 =( CONVERSION_BASED_UNIT ( 'INCH', #231 ) LENGTH_UNIT ( ) NAMED_UNIT ( #249 ) );
#43 = CIRCLE ( 'NONE', #3, 0.1249999999999997780 ) ;
#44 = AXIS2_PLACEMENT_3D ( 'NONE', #32, #113, #132 ) ;
#45 =( NAMED_UNIT ( * ) PLANE_ANGLE_UNIT ( ) SI_UNIT ( $, .RADIAN. ) );
#46 =( NAMED_UNIT ( * ) SI_UNIT ( $, .STERADIAN. ) SOLID_ANGLE_UNIT ( ) );
#47 = LINE ( 'NONE', #252, #4 ) ;
#48 = AXIS2_PLACEMENT_3D ( 'NONE', #247, #68, #140 ) ;
#49 = EDGE_CURVE ( 'NONE', #237, #95, #260, .T. ) ;
#50 = DIRECTION ( 'NONE',  ( 1.000000000000000000, 0.000000000000000000, 0.000000000000000000 ) ) ;
#51 = ORIENTED_EDGE ( 'NONE', *, *, #123, .F. ) ;
#52 = APPLICATION_PROTOCOL_DEFINITION ( 'draft international standard', 'automotive_design', 1998, #55 ) ;
#53 = ORIENTED_EDGE ( 'NONE', *, *, #171, .F. ) ;
#54 =( GEOMETRIC_REPRESENTATION_CONTEXT ( 3 ) GLOBAL_UNCERTAINTY_ASSIGNED_CONTEXT ( ( #60 ) ) GLOBAL_UNIT_ASSIGNED_CONTEXT ( ( #42, #189, #23 ) ) REPRESENTATION_CONTEXT ( 'NONE', 'WORKASPACE' ) );
#55 = APPLICATION_CONTEXT ( 'automotive_design' ) ;
#56 = CARTESIAN_POINT ( 'NONE',  ( 2.176941369951209721E-16, 0.2165063509461090385, 0.000000000000000000 ) ) ;
#57 = DIRECTION ( 'NONE',  ( -1.221490049109858028E-16, 1.000000000000000000, -0.000000000000000000 ) ) ;
#58 = DIRECTION ( 'NONE',  ( -0.5000000000000009992, 0.8660254037844380415, 0.000000000000000000 ) ) ;
#59 = ADVANCED_FACE ( 'NONE', ( #178 ), #241, .F. ) ;
#60 = UNCERTAINTY_MEASURE_WITH_UNIT (LENGTH_MEASURE( 1.000000000000000082E-05 ), #42, 'distance_accuracy_value', 'NONE');
#61 = EDGE_LOOP ( 'NONE', ( #256, #214, #129, #10 ) ) ;
#62 = CLOSED_SHELL ( 'NONE', ( #106, #59, #255, #209 ) ) ;
#63 = CIRCLE ( 'NONE', #48, 0.1249999999999999861 ) ;
#64 =( LENGTH_UNIT ( ) NAMED_UNIT ( * ) SI_UNIT ( $, .METRE. ) );
#65 = SURFACE_STYLE_FILL_AREA ( #107 ) ;
#66 =( GEOMETRIC_REPRESENTATION_CONTEXT ( 3 ) GLOBAL_UNCERTAINTY_ASSIGNED_CONTEXT ( ( #217 ) ) GLOBAL_UNIT_ASSIGNED_CONTEXT ( ( #196, #150, #215 ) ) REPRESENTATION_CONTEXT ( 'NONE', 'WORKASPACE' ) );
#67 = DIMENSIONAL_EXPONENTS ( 1.000000000000000000, 0.000000000000000000, 0.000000000000000000, 0.000000000000000000, 0.000000000000000000, 0.000000000000000000, 0.000000000000000000 ) ;
#68 = DIRECTION ( 'NONE',  ( -3.635092813512399512E-18, -1.000000000000000000, -0.000000000000000000 ) ) ;
#69 = MECHANICAL_DESIGN_GEOMETRIC_PRESENTATION_REPRESENTATION (  '', ( #126 ), #17 ) ;
#70 =( NAMED_UNIT ( * ) PLANE_ANGLE_UNIT ( ) SI_UNIT ( $, .RADIAN. ) );
#71 = CARTESIAN_POINT ( 'NONE',  ( 7.870206804039943619E-19, 0.2165063509461090385, 0.000000000000000000 ) ) ;
#72 = SURFACE_SIDE_STYLE ('',( #206 ) ) ;
#73 = COLOUR_RGB ( '',0.7921568627450980005, 0.8196078431372548767, 0.9333333333333333481 ) ;
#74 = ORIENTED_EDGE ( 'NONE', *, *, #103, .T. ) ;
#75 = MANIFOLD_SOLID_BREP ( 'Revolve - Tool Body (Pointed)', #62 ) ;
#76 = DIRECTION ( 'NONE',  ( -1.000000000000000000, 0.000000000000000000, 0.000000000000000000 ) ) ;
#77 = CYLINDRICAL_SURFACE ( 'NONE', #264, 0.1249999999999999029 ) ;
#78 = EDGE_LOOP ( 'NONE', ( #219, #37 ) ) ;
#79 = AXIS2_PLACEMENT_3D ( 'NONE', #257, #116, #213 ) ;
#80 = ORIENTED_EDGE ( 'NONE', *, *, #49, .F. ) ;
#81 =( CONVERSION_BASED_UNIT ( 'INCH', #200 ) LENGTH_UNIT ( ) NAMED_UNIT ( #109 ) );
#82 = LENGTH_MEASURE_WITH_UNIT ( LENGTH_MEASURE( 0.02539999999999999897 ), #64 );
#83 = ADVANCED_FACE ( 'NONE', ( #182 ), #208, .T. ) ;
#84 = VECTOR ( 'NONE', #190, 39.37007874015748143 ) ;
#85 = FILL_AREA_STYLE_COLOUR ( '', #157 ) ;
#86 = SURFACE_SIDE_STYLE ('',( #105 ) ) ;
#87 = PRESENTATION_LAYER_ASSIGNMENT (  '', '', ( #158 ) ) ;
#88 = DIRECTION ( 'NONE',  ( 3.635092813512399512E-18, 1.000000000000000000, 0.000000000000000000 ) ) ;
#89 = DIMENSIONAL_EXPONENTS ( 1.000000000000000000, 0.000000000000000000, 0.000000000000000000, 0.000000000000000000, 0.000000000000000000, 0.000000000000000000, 0.000000000000000000 ) ;
#90 = FACE_OUTER_BOUND ( 'NONE', #114, .T. ) ;
#91 = FILL_AREA_STYLE_COLOUR ( '', #232 ) ;
#92 = EDGE_LOOP ( 'NONE', ( #112, #74 ) ) ;
#93 = AXIS2_PLACEMENT_3D ( 'NONE', #34, #94, #50 ) ;
#94 = DIRECTION ( 'NONE',  ( 0.000000000000000000, 0.000000000000000000, 1.000000000000000000 ) ) ;
#95 = VERTEX_POINT ( 'NONE', #40 ) ;
#96 = PLANE ( 'NONE',  #79 ) ;
#97 = CARTESIAN_POINT ( 'NONE',  ( 0.1249999999999999861, 0.2165063509461090385, 1.530808498934191201E-17 ) ) ;
#98 = LENGTH_MEASURE_WITH_UNIT ( LENGTH_MEASURE( 0.02539999999999999897 ), #13 );
#99 = SURFACE_STYLE_FILL_AREA ( #16 ) ;
#100 = UNCERTAINTY_MEASURE_WITH_UNIT (LENGTH_MEASURE( 1.000000000000000082E-05 ), #204, 'distance_accuracy_value', 'NONE');
#101 = ORIENTED_EDGE ( 'NONE', *, *, #6, .T. ) ;
#102 = DIRECTION ( 'NONE',  ( -1.000000000000000000, 0.000000000000000000, 0.000000000000000000 ) ) ;
#103 = EDGE_CURVE ( 'NONE', #149, #26, #108, .T. ) ;
#104 = COLOUR_RGB ( '',0.7921568627450980005, 0.8196078431372548767, 0.9333333333333333481 ) ;
#105 = SURFACE_STYLE_FILL_AREA ( #180 ) ;
#106 = ADVANCED_FACE ( 'NONE', ( #245 ), #138, .T. ) ;
#107 = FILL_AREA_STYLE ('',( #85 ) ) ;
#108 = CIRCLE ( 'NONE', #159, 0.1250000000000000555 ) ;
#109 = DIMENSIONAL_EXPONENTS ( 1.000000000000000000, 0.000000000000000000, 0.000000000000000000, 0.000000000000000000, 0.000000000000000000, 0.000000000000000000, 0.000000000000000000 ) ;
#110 = SURFACE_STYLE_FILL_AREA ( #142 ) ;
#111 = CIRCLE ( 'NONE', #44, 0.1250000000000000555 ) ;
#112 = ORIENTED_EDGE ( 'NONE', *, *, #221, .T. ) ;
#113 = DIRECTION ( 'NONE',  ( -1.221490049109858028E-16, 1.000000000000000000, -0.000000000000000000 ) ) ;
#114 = EDGE_LOOP ( 'NONE', ( #80, #173, #261 ) ) ;
#115 = DIRECTION ( 'NONE',  ( -1.000000000000000000, -1.221490049109858028E-16, 0.000000000000000000 ) ) ;
#116 = DIRECTION ( 'NONE',  ( 1.221490049109858028E-16, -1.000000000000000000, 0.000000000000000000 ) ) ;
#117 = PRESENTATION_LAYER_ASSIGNMENT (  '', '', ( #126 ) ) ;
#118 =( NAMED_UNIT ( * ) PLANE_ANGLE_UNIT ( ) SI_UNIT ( $, .RADIAN. ) );
#119 = CARTESIAN_POINT ( 'NONE',  ( 0.000000000000000000, 0.000000000000000000, 0.000000000000000000 ) ) ;
#120 = DIRECTION ( 'NONE',  ( -3.635092813512399512E-18, -1.000000000000000000, -0.000000000000000000 ) ) ;
#121 = VECTOR ( 'NONE', #58, 39.37007874015748143 ) ;
#122 = AXIS2_PLACEMENT_3D ( 'NONE', #15, #212, #76 ) ;
#123 = EDGE_CURVE ( 'NONE', #237, #29, #263, .T. ) ;
#124 = SURFACE_STYLE_USAGE ( .BOTH. , #72 ) ;
#125 = MECHANICAL_DESIGN_GEOMETRIC_PRESENTATION_REPRESENTATION (  '', ( #238 ), #145 ) ;
#126 = STYLED_ITEM ( 'NONE', ( #7 ), #177 ) ;
#127 = SHAPE_DEFINITION_REPRESENTATION ( #253, #139 ) ;
#128 = CARTESIAN_POINT ( 'NONE',  ( 2.176941369951209721E-16, 0.2165063509461089553, 0.000000000000000000 ) ) ;
#129 = ORIENTED_EDGE ( 'NONE', *, *, #199, .T. ) ;
#130 = DIRECTION ( 'NONE',  ( -1.221490049109858028E-16, 1.000000000000000000, 0.000000000000000000 ) ) ;
#131 = UNCERTAINTY_MEASURE_WITH_UNIT (LENGTH_MEASURE( 1.000000000000000082E-05 ), #156, 'distance_accuracy_value', 'NONE');
#132 = DIRECTION ( 'NONE',  ( -1.000000000000000000, 0.000000000000000000, 0.000000000000000000 ) ) ;
#133 = CARTESIAN_POINT ( 'NONE',  ( 1.431138902957637607E-16, 39.37007874015748143, 0.000000000000000000 ) ) ;
#134 = CLOSED_SHELL ( 'NONE', ( #203, #177, #83 ) ) ;
#135 = PRODUCT ( '83840', '83840', '', ( #211 ) ) ;
#136 = DIRECTION ( 'NONE',  ( -1.000000000000000000, 0.000000000000000000, 0.000000000000000000 ) ) ;
#137 = VECTOR ( 'NONE', #183, 39.37007874015748143 ) ;
#138 = CYLINDRICAL_SURFACE ( 'NONE', #201, 0.1249999999999999029 ) ;
#139 = ADVANCED_BREP_SHAPE_REPRESENTATION ( '83840', ( #160, #75, #93 ), #66 ) ;
#140 = DIRECTION ( 'NONE',  ( 1.000000000000000000, 0.000000000000000000, 0.000000000000000000 ) ) ;
#141 = SURFACE_SIDE_STYLE ('',( #110 ) ) ;
#142 = FILL_AREA_STYLE ('',( #91 ) ) ;
#143 =( LENGTH_UNIT ( ) NAMED_UNIT ( * ) SI_UNIT ( $, .METRE. ) );
#144 = EDGE_CURVE ( 'NONE', #29, #95, #220, .T. ) ;
#145 =( GEOMETRIC_REPRESENTATION_CONTEXT ( 3 ) GLOBAL_UNCERTAINTY_ASSIGNED_CONTEXT ( ( #207 ) ) GLOBAL_UNIT_ASSIGNED_CONTEXT ( ( #81, #184, #223 ) ) REPRESENTATION_CONTEXT ( 'NONE', 'WORKASPACE' ) );
#146 = STYLED_ITEM ( 'NONE', ( #24 ), #203 ) ;
#147 = ORIENTED_EDGE ( 'NONE', *, *, #221, .F. ) ;
#148 = CARTESIAN_POINT ( 'NONE',  ( 0.1250000000000000000, 0.2165063509461089553, 1.530808498934191201E-17 ) ) ;
#149 = VERTEX_POINT ( 'NONE', #244 ) ;
#150 =( NAMED_UNIT ( * ) PLANE_ANGLE_UNIT ( ) SI_UNIT ( $, .RADIAN. ) );
#151 = CARTESIAN_POINT ( 'NONE',  ( 0.000000000000000000, 0.000000000000000000, 0.000000000000000000 ) ) ;
#152 = LINE ( 'NONE', #193, #84 ) ;
#153 = SURFACE_SIDE_STYLE ('',( #99 ) ) ;
#154 = UNCERTAINTY_MEASURE_WITH_UNIT (LENGTH_MEASURE( 1.000000000000000082E-05 ), #5, 'distance_accuracy_value', 'NONE');
#155 =( LENGTH_UNIT ( ) NAMED_UNIT ( * ) SI_UNIT ( $, .METRE. ) );
#156 =( CONVERSION_BASED_UNIT ( 'INCH', #82 ) LENGTH_UNIT ( ) NAMED_UNIT ( #30 ) );
#157 = COLOUR_RGB ( '',1.000000000000000000, 0.000000000000000000, 0.000000000000000000 ) ;
#158 = STYLED_ITEM ( 'NONE', ( #161 ), #160 ) ;
#159 = AXIS2_PLACEMENT_3D ( 'NONE', #19, #39, #102 ) ;
#160 = MANIFOLD_SOLID_BREP ( 'Revolve - Cutting Edge', #134 ) ;
#161 = PRESENTATION_STYLE_ASSIGNMENT (( #265 ) ) ;
#162 = AXIS2_PLACEMENT_3D ( 'NONE', #202, #120, #222 ) ;
#163 = DIRECTION ( 'NONE',  ( -1.221490049109858028E-16, 1.000000000000000000, -0.000000000000000000 ) ) ;
#164 = DIRECTION ( 'NONE',  ( 3.635092813512399512E-18, 1.000000000000000000, 0.000000000000000000 ) ) ;
#165 = AXIS2_PLACEMENT_3D ( 'NONE', #71, #164, #248 ) ;
#166 = SURFACE_STYLE_USAGE ( .BOTH. , #141 ) ;
#167 = PRODUCT_DEFINITION_CONTEXT ( 'detailed design', #55, 'design' ) ;
#168 = FILL_AREA_STYLE_COLOUR ( '', #36 ) ;
#169 = AXIS2_PLACEMENT_3D ( 'NONE', #186, #259, #172 ) ;
#170 = EDGE_LOOP ( 'NONE', ( #51, #216, #176 ) ) ;
#171 = EDGE_CURVE ( 'NONE', #95, #29, #63, .T. ) ;
#172 = DIRECTION ( 'NONE',  ( -1.000000000000000000, 0.000000000000000000, 0.000000000000000000 ) ) ;
#173 = ORIENTED_EDGE ( 'NONE', *, *, #123, .T. ) ;
#174 = CARTESIAN_POINT ( 'NONE',  ( 0.000000000000000000, 0.000000000000000000, 0.000000000000000000 ) ) ;
#175 = EDGE_LOOP ( 'NONE', ( #101, #14, #147, #195 ) ) ;
#176 = ORIENTED_EDGE ( 'NONE', *, *, #171, .T. ) ;
#177 = ADVANCED_FACE ( 'NONE', ( #8 ), #227, .T. ) ;
#178 = FACE_OUTER_BOUND ( 'NONE', #78, .T. ) ;
#179 = CARTESIAN_POINT ( 'NONE',  ( -6.123233995736766036E-17, 2.500000000000000000, 0.000000000000000000 ) ) ;
#180 = FILL_AREA_STYLE ('',( #38 ) ) ;
#181 = MECHANICAL_DESIGN_GEOMETRIC_PRESENTATION_REPRESENTATION (  '', ( #228 ), #25 ) ;
#182 = FACE_OUTER_BOUND ( 'NONE', #170, .T. ) ;
#183 = DIRECTION ( 'NONE',  ( 0.5000000000000009992, 0.8660254037844380415, 6.123233995736778362E-17 ) ) ;
#184 =( NAMED_UNIT ( * ) PLANE_ANGLE_UNIT ( ) SI_UNIT ( $, .RADIAN. ) );
#185 =( NAMED_UNIT ( * ) SI_UNIT ( $, .STERADIAN. ) SOLID_ANGLE_UNIT ( ) );
#186 = CARTESIAN_POINT ( 'NONE',  ( 1.431138902957637607E-16, 39.37007874015748143, 0.000000000000000000 ) ) ;
#187 =( GEOMETRIC_REPRESENTATION_CONTEXT ( 3 ) GLOBAL_UNCERTAINTY_ASSIGNED_CONTEXT ( ( #100 ) ) GLOBAL_UNIT_ASSIGNED_CONTEXT ( ( #204, #70, #185 ) ) REPRESENTATION_CONTEXT ( 'NONE', 'WORKASPACE' ) );
#188 = DIMENSIONAL_EXPONENTS ( 1.000000000000000000, 0.000000000000000000, 0.000000000000000000, 0.000000000000000000, 0.000000000000000000, 0.000000000000000000, 0.000000000000000000 ) ;
#189 =( NAMED_UNIT ( * ) PLANE_ANGLE_UNIT ( ) SI_UNIT ( $, .RADIAN. ) );
#190 = DIRECTION ( 'NONE',  ( -1.221490049109858028E-16, 1.000000000000000000, -0.000000000000000000 ) ) ;
#191 = DIRECTION ( 'NONE',  ( -1.221490049109858028E-16, 1.000000000000000000, -0.000000000000000000 ) ) ;
#192 = PRESENTATION_LAYER_ASSIGNMENT (  '', '', ( #146 ) ) ;
#193 = CARTESIAN_POINT ( 'NONE',  ( 0.1249999999999998335, 2.500000000000000000, 1.530808498934190276E-17 ) ) ;
#194 = PRODUCT_DEFINITION ( 'UNKNOWN', '', #246, #167 ) ;
#195 = ORIENTED_EDGE ( 'NONE', *, *, #199, .F. ) ;
#196 =( CONVERSION_BASED_UNIT ( 'INCH', #98 ) LENGTH_UNIT ( ) NAMED_UNIT ( #89 ) );
#197 = CARTESIAN_POINT ( 'NONE',  ( -0.1250000000000001110, 2.500000000000000000, 0.000000000000000000 ) ) ;
#198 = FILL_AREA_STYLE_COLOUR ( '', #104 ) ;
#199 = EDGE_CURVE ( 'NONE', #35, #26, #47, .T. ) ;
#200 = LENGTH_MEASURE_WITH_UNIT ( LENGTH_MEASURE( 0.02539999999999999897 ), #155 );
#201 = AXIS2_PLACEMENT_3D ( 'NONE', #179, #163, #1 ) ;
#202 = CARTESIAN_POINT ( 'NONE',  ( 7.870206804039944582E-19, 0.2165063509461090385, 0.000000000000000000 ) ) ;
#203 = ADVANCED_FACE ( 'NONE', ( #90 ), #21, .T. ) ;
#204 =( CONVERSION_BASED_UNIT ( 'INCH', #22 ) LENGTH_UNIT ( ) NAMED_UNIT ( #188 ) );
#205 = FILL_AREA_STYLE ('',( #168 ) ) ;
#206 = SURFACE_STYLE_FILL_AREA ( #205 ) ;
#207 = UNCERTAINTY_MEASURE_WITH_UNIT (LENGTH_MEASURE( 1.000000000000000082E-05 ), #81, 'distance_accuracy_value', 'NONE');
#208 = CONICAL_SURFACE ( 'NONE', #12, 22.73032555864674364, 0.5235987755983000369 ) ;
#209 = ADVANCED_FACE ( 'NONE', ( #234 ), #96, .F. ) ;
#210 = APPLICATION_CONTEXT ( 'automotive_design' ) ;
#211 = PRODUCT_CONTEXT ( 'NONE', #210, 'mechanical' ) ;
#212 = DIRECTION ( 'NONE',  ( -1.221490049109858028E-16, 1.000000000000000000, -0.000000000000000000 ) ) ;
#213 = DIRECTION ( 'NONE',  ( 1.000000000000000000, 1.221490049109858028E-16, 0.000000000000000000 ) ) ;
#214 = ORIENTED_EDGE ( 'NONE', *, *, #28, .T. ) ;
#215 =( NAMED_UNIT ( * ) SI_UNIT ( $, .STERADIAN. ) SOLID_ANGLE_UNIT ( ) );
#216 = ORIENTED_EDGE ( 'NONE', *, *, #49, .T. ) ;
#217 = UNCERTAINTY_MEASURE_WITH_UNIT (LENGTH_MEASURE( 1.000000000000000082E-05 ), #196, 'distance_accuracy_value', 'NONE');
#218 = PRESENTATION_LAYER_ASSIGNMENT (  '', '', ( #228 ) ) ;
#219 = ORIENTED_EDGE ( 'NONE', *, *, #6, .F. ) ;
#220 = CIRCLE ( 'NONE', #162, 0.1249999999999999861 ) ;
#221 = EDGE_CURVE ( 'NONE', #26, #149, #111, .T. ) ;
#222 = DIRECTION ( 'NONE',  ( 1.000000000000000000, 0.000000000000000000, 0.000000000000000000 ) ) ;
#223 =( NAMED_UNIT ( * ) SI_UNIT ( $, .STERADIAN. ) SOLID_ANGLE_UNIT ( ) );
#224 =( LENGTH_UNIT ( ) NAMED_UNIT ( * ) SI_UNIT ( $, .METRE. ) );
#225 = EDGE_CURVE ( 'NONE', #258, #149, #152, .T. ) ;
#226 = PRESENTATION_STYLE_ASSIGNMENT (( #41 ) ) ;
#227 = PLANE ( 'NONE',  #165 ) ;
#228 = STYLED_ITEM ( 'NONE', ( #226 ), #83 ) ;
#229 = MECHANICAL_DESIGN_GEOMETRIC_PRESENTATION_REPRESENTATION (  '', ( #146 ), #54 ) ;
#230 =( LENGTH_UNIT ( ) NAMED_UNIT ( * ) SI_UNIT ( $, .METRE. ) );
#231 = LENGTH_MEASURE_WITH_UNIT ( LENGTH_MEASURE( 0.02539999999999999897 ), #143 );
#232 = COLOUR_RGB ( '',1.000000000000000000, 0.000000000000000000, 0.000000000000000000 ) ;
#233 = FACE_OUTER_BOUND ( 'NONE', #61, .T. ) ;
#234 = FACE_OUTER_BOUND ( 'NONE', #92, .T. ) ;
#235 = ORIENTED_EDGE ( 'NONE', *, *, #144, .F. ) ;
#236 = APPLICATION_PROTOCOL_DEFINITION ( 'draft international standard', 'automotive_design', 1998, #210 ) ;
#237 = VERTEX_POINT ( 'NONE', #174 ) ;
#238 = STYLED_ITEM ( 'NONE', ( #242 ), #75 ) ;
#239 = PRODUCT_RELATED_PRODUCT_CATEGORY ( 'part', '', ( #135 ) ) ;
#240 = CARTESIAN_POINT ( 'NONE',  ( -6.123233995736766036E-17, 2.500000000000000000, 0.000000000000000000 ) ) ;
#241 = PLANE ( 'NONE',  #31 ) ;
#242 = PRESENTATION_STYLE_ASSIGNMENT (( #243 ) ) ;
#243 = SURFACE_STYLE_USAGE ( .BOTH. , #153 ) ;
#244 = CARTESIAN_POINT ( 'NONE',  ( 0.1249999999999999861, 2.500000000000000000, 1.530808498934191201E-17 ) ) ;
#245 = FACE_OUTER_BOUND ( 'NONE', #175, .T. ) ;
#246 = PRODUCT_DEFINITION_FORMATION_WITH_SPECIFIED_SOURCE ( 'ANY', '', #135, .NOT_KNOWN. ) ;
#247 = CARTESIAN_POINT ( 'NONE',  ( 7.870206804039944582E-19, 0.2165063509461090385, 0.000000000000000000 ) ) ;
#248 = DIRECTION ( 'NONE',  ( -1.000000000000000000, 3.635092813512399512E-18, 0.000000000000000000 ) ) ;
#249 = DIMENSIONAL_EXPONENTS ( 1.000000000000000000, 0.000000000000000000, 0.000000000000000000, 0.000000000000000000, 0.000000000000000000, 0.000000000000000000, 0.000000000000000000 ) ;
#250 = PRESENTATION_LAYER_ASSIGNMENT (  '', '', ( #238 ) ) ;
#251 = MECHANICAL_DESIGN_GEOMETRIC_PRESENTATION_REPRESENTATION (  '', ( #158 ), #187 ) ;
#252 = CARTESIAN_POINT ( 'NONE',  ( -0.1249999999999999584, 2.500000000000000000, 0.000000000000000000 ) ) ;
#253 = PRODUCT_DEFINITION_SHAPE ( 'NONE', 'NONE',  #194 ) ;
#254 = DIRECTION ( 'NONE',  ( -1.221490049109858028E-16, 1.000000000000000000, -0.000000000000000000 ) ) ;
#255 = ADVANCED_FACE ( 'NONE', ( #233 ), #77, .T. ) ;
#256 = ORIENTED_EDGE ( 'NONE', *, *, #225, .F. ) ;
#257 = CARTESIAN_POINT ( 'NONE',  ( 0.1249999999999999861, 2.500000000000000000, 0.000000000000000000 ) ) ;
#258 = VERTEX_POINT ( 'NONE', #148 ) ;
#259 = DIRECTION ( 'NONE',  ( 3.635092813512399512E-18, 1.000000000000000000, 0.000000000000000000 ) ) ;
#260 = LINE ( 'NONE', #151, #121 ) ;
#261 = ORIENTED_EDGE ( 'NONE', *, *, #144, .T. ) ;
#262 = CARTESIAN_POINT ( 'NONE',  ( -0.1249999999999995559, 0.2165063509461089553, 0.000000000000000000 ) ) ;
#263 = LINE ( 'NONE', #119, #137 ) ;
#264 = AXIS2_PLACEMENT_3D ( 'NONE', #240, #57, #27 ) ;
#265 = SURFACE_STYLE_USAGE ( .BOTH. , #86 ) ;
ENDSEC;
END-ISO-10303-21;
