ISO-10303-21;
HEADER;
FILE_DESCRIPTION (( 'STEP AP214' ),
    '1' );
FILE_NAME ('24572.STEP',
    '2023-06-22T17:20:46',
    ( '' ),
    ( '' ),
    'SwSTEP 2.0',
    'SolidWorks 2023',
    '' );
FILE_SCHEMA (( 'AUTOMOTIVE_DESIGN' ));
ENDSEC;

DATA;
#1 = AXIS2_PLACEMENT_3D ( 'NONE', #304, #127, #233 ) ;
#2 =( NAMED_UNIT ( * ) PLANE_ANGLE_UNIT ( ) SI_UNIT ( $, .RADIAN. ) );
#3 = COLOUR_RGB ( '',1.000000000000000000, 0.000000000000000000, 0.000000000000000000 ) ;
#4 = ORIENTED_EDGE ( 'NONE', *, *, #254, .T. ) ;
#5 =( NAMED_UNIT ( * ) SI_UNIT ( $, .STERADIAN. ) SOLID_ANGLE_UNIT ( ) );
#6 = STYLED_ITEM ( 'NONE', ( #256 ), #201 ) ;
#7 = DIRECTION ( 'NONE',  ( -0.000000000000000000, -1.000000000000000000, -0.000000000000000000 ) ) ;
#8 = ADVANCED_FACE ( 'NONE', ( #159 ), #57, .T. ) ;
#9 = LENGTH_MEASURE_WITH_UNIT ( LENGTH_MEASURE( 0.02539999999999999897 ), #160 );
#10 = DIRECTION ( 'NONE',  ( 0.000000000000000000, 1.000000000000000000, 0.000000000000000000 ) ) ;
#11 = CARTESIAN_POINT ( 'NONE',  ( 0.5000000000000000000, 3.250000000000000000, 6.123233995736767268E-17 ) ) ;
#12 = VECTOR ( 'NONE', #136, 39.37007874015748143 ) ;
#13 = CARTESIAN_POINT ( 'NONE',  ( 0.5000000000000000000, 6.000000000000000888, 6.123233995736767268E-17 ) ) ;
#14 = APPLICATION_PROTOCOL_DEFINITION ( 'draft international standard', 'automotive_design', 1998, #93 ) ;
#15 =( CONVERSION_BASED_UNIT ( 'INCH', #58 ) LENGTH_UNIT ( ) NAMED_UNIT ( #234 ) );
#16 =( LENGTH_UNIT ( ) NAMED_UNIT ( * ) SI_UNIT ( $, .METRE. ) );
#17 = MECHANICAL_DESIGN_GEOMETRIC_PRESENTATION_REPRESENTATION (  '', ( #306 ), #185 ) ;
#18 = MECHANICAL_DESIGN_GEOMETRIC_PRESENTATION_REPRESENTATION (  '', ( #47 ), #283 ) ;
#19 =( NAMED_UNIT ( * ) PLANE_ANGLE_UNIT ( ) SI_UNIT ( $, .RADIAN. ) );
#20 = VERTEX_POINT ( 'NONE', #13 ) ;
#21 = PRESENTATION_STYLE_ASSIGNMENT (( #147 ) ) ;
#22 = ADVANCED_FACE ( 'NONE', ( #113 ), #132, .T. ) ;
#23 = PRESENTATION_STYLE_ASSIGNMENT (( #35 ) ) ;
#24 = ORIENTED_EDGE ( 'NONE', *, *, #110, .F. ) ;
#25 = DIRECTION ( 'NONE',  ( 0.000000000000000000, 0.000000000000000000, -1.000000000000000000 ) ) ;
#26 = VECTOR ( 'NONE', #55, 39.37007874015748143 ) ;
#27 = UNCERTAINTY_MEASURE_WITH_UNIT (LENGTH_MEASURE( 1.000000000000000082E-05 ), #180, 'distance_accuracy_value', 'NONE');
#28 = AXIS2_PLACEMENT_3D ( 'NONE', #296, #190, #94 ) ;
#29 = CARTESIAN_POINT ( 'NONE',  ( 0.000000000000000000, 3.250000000000000000, 0.000000000000000000 ) ) ;
#30 =( CONVERSION_BASED_UNIT ( 'INCH', #9 ) LENGTH_UNIT ( ) NAMED_UNIT ( #252 ) );
#31 = CARTESIAN_POINT ( 'NONE',  ( -0.5000000000000004441, 6.000000000000000888, 0.000000000000000000 ) ) ;
#32 = UNCERTAINTY_MEASURE_WITH_UNIT (LENGTH_MEASURE( 1.000000000000000082E-05 ), #270, 'distance_accuracy_value', 'NONE');
#33 = SURFACE_STYLE_FILL_AREA ( #255 ) ;
#34 = VECTOR ( 'NONE', #135, 39.37007874015748143 ) ;
#35 = SURFACE_STYLE_USAGE ( .BOTH. , #253 ) ;
#36 = ORIENTED_EDGE ( 'NONE', *, *, #103, .F. ) ;
#37 =( NAMED_UNIT ( * ) SI_UNIT ( $, .STERADIAN. ) SOLID_ANGLE_UNIT ( ) );
#38 = EDGE_CURVE ( 'NONE', #176, #20, #279, .T. ) ;
#39 = COLOUR_RGB ( '',0.7921568627450980005, 0.8196078431372548767, 0.9333333333333333481 ) ;
#40 = SURFACE_STYLE_USAGE ( .BOTH. , #65 ) ;
#41 =( NAMED_UNIT ( * ) SI_UNIT ( $, .STERADIAN. ) SOLID_ANGLE_UNIT ( ) );
#42 = EDGE_LOOP ( 'NONE', ( #68, #36 ) ) ;
#43 = PRESENTATION_LAYER_ASSIGNMENT (  '', '', ( #6 ) ) ;
#44 = DIRECTION ( 'NONE',  ( -6.679891631712837132E-17, 1.000000000000000000, -0.000000000000000000 ) ) ;
#45 =( NAMED_UNIT ( * ) PLANE_ANGLE_UNIT ( ) SI_UNIT ( $, .RADIAN. ) );
#46 = AXIS2_PLACEMENT_3D ( 'NONE', #172, #293, #269 ) ;
#47 = STYLED_ITEM ( 'NONE', ( #23 ), #213 ) ;
#48 = ORIENTED_EDGE ( 'NONE', *, *, #50, .T. ) ;
#49 = DIRECTION ( 'NONE',  ( 1.000000000000000000, 0.000000000000000000, 0.000000000000000000 ) ) ;
#50 = EDGE_CURVE ( 'NONE', #20, #176, #140, .T. ) ;
#51 = DIRECTION ( 'NONE',  ( 6.679891631712837132E-17, -1.000000000000000000, 0.000000000000000000 ) ) ;
#52 = DIRECTION ( 'NONE',  ( 1.000000000000000000, 6.679891631712837132E-17, 0.000000000000000000 ) ) ;
#53 = CIRCLE ( 'NONE', #260, 0.5000000000000000000 ) ;
#54 =( GEOMETRIC_REPRESENTATION_CONTEXT ( 3 ) GLOBAL_UNCERTAINTY_ASSIGNED_CONTEXT ( ( #56 ) ) GLOBAL_UNIT_ASSIGNED_CONTEXT ( ( #30, #295, #77 ) ) REPRESENTATION_CONTEXT ( 'NONE', 'WORKASPACE' ) );
#55 = DIRECTION ( 'NONE',  ( -6.679891631712837132E-17, 1.000000000000000000, -0.000000000000000000 ) ) ;
#56 = UNCERTAINTY_MEASURE_WITH_UNIT (LENGTH_MEASURE( 1.000000000000000082E-05 ), #30, 'distance_accuracy_value', 'NONE');
#57 = CYLINDRICAL_SURFACE ( 'NONE', #216, 0.5000000000000000000 ) ;
#58 = LENGTH_MEASURE_WITH_UNIT ( LENGTH_MEASURE( 0.02539999999999999897 ), #231 );
#59 = SURFACE_SIDE_STYLE ('',( #33 ) ) ;
#60 = APPLICATION_CONTEXT ( 'automotive_design' ) ;
#61 = PRODUCT_DEFINITION_FORMATION_WITH_SPECIFIED_SOURCE ( 'ANY', '', #258, .NOT_KNOWN. ) ;
#62 =( LENGTH_UNIT ( ) NAMED_UNIT ( * ) SI_UNIT ( $, .METRE. ) );
#63 = CYLINDRICAL_SURFACE ( 'NONE', #237, 0.5000000000000000000 ) ;
#64 = EDGE_LOOP ( 'NONE', ( #245, #247, #152, #114 ) ) ;
#65 = SURFACE_SIDE_STYLE ('',( #80 ) ) ;
#66 = CIRCLE ( 'NONE', #242, 0.5000000000000000000 ) ;
#67 = ORIENTED_EDGE ( 'NONE', *, *, #38, .F. ) ;
#68 = ORIENTED_EDGE ( 'NONE', *, *, #90, .F. ) ;
#69 = EDGE_CURVE ( 'NONE', #248, #176, #76, .T. ) ;
#70 = FACE_OUTER_BOUND ( 'NONE', #88, .T. ) ;
#71 = STYLED_ITEM ( 'NONE', ( #178 ), #179 ) ;
#72 = MECHANICAL_DESIGN_GEOMETRIC_PRESENTATION_REPRESENTATION (  '', ( #150 ), #143 ) ;
#73 = DIRECTION ( 'NONE',  ( -0.000000000000000000, -1.000000000000000000, -0.000000000000000000 ) ) ;
#74 = VERTEX_POINT ( 'NONE', #11 ) ;
#75 = CARTESIAN_POINT ( 'NONE',  ( 0.4999999999999999445, 6.000000000000000888, 6.123233995736767268E-17 ) ) ;
#76 = LINE ( 'NONE', #168, #26 ) ;
#77 =( NAMED_UNIT ( * ) SI_UNIT ( $, .STERADIAN. ) SOLID_ANGLE_UNIT ( ) );
#78 = FILL_AREA_STYLE_COLOUR ( '', #191 ) ;
#79 = FILL_AREA_STYLE ('',( #300 ) ) ;
#80 = SURFACE_STYLE_FILL_AREA ( #302 ) ;
#81 = MECHANICAL_DESIGN_GEOMETRIC_PRESENTATION_REPRESENTATION (  '', ( #6 ), #128 ) ;
#82 = SURFACE_STYLE_FILL_AREA ( #100 ) ;
#83 = DIRECTION ( 'NONE',  ( -6.679891631712837132E-17, 1.000000000000000000, -0.000000000000000000 ) ) ;
#84 = CARTESIAN_POINT ( 'NONE',  ( 0.000000000000000000, 0.000000000000000000, 0.000000000000000000 ) ) ;
#85 = COLOUR_RGB ( '',1.000000000000000000, 0.000000000000000000, 0.000000000000000000 ) ;
#86 = MECHANICAL_DESIGN_GEOMETRIC_PRESENTATION_REPRESENTATION (  '', ( #71 ), #169 ) ;
#87 = FILL_AREA_STYLE ('',( #174 ) ) ;
#88 = EDGE_LOOP ( 'NONE', ( #278, #236, #154, #280 ) ) ;
#89 = CARTESIAN_POINT ( 'NONE',  ( 0.000000000000000000, 0.000000000000000000, -0.5000000000000000000 ) ) ;
#90 = EDGE_CURVE ( 'NONE', #248, #74, #66, .T. ) ;
#91 = COLOUR_RGB ( '',0.7921568627450980005, 0.8196078431372548767, 0.9333333333333333481 ) ;
#92 = FACE_OUTER_BOUND ( 'NONE', #42, .T. ) ;
#93 = APPLICATION_CONTEXT ( 'automotive_design' ) ;
#94 = DIRECTION ( 'NONE',  ( -1.000000000000000000, -6.679891631712837132E-17, 0.000000000000000000 ) ) ;
#95 = DIRECTION ( 'NONE',  ( -6.679891631712837132E-17, 1.000000000000000000, -0.000000000000000000 ) ) ;
#96 = FACE_OUTER_BOUND ( 'NONE', #133, .T. ) ;
#97 = EDGE_CURVE ( 'NONE', #259, #239, #99, .T. ) ;
#98 =( LENGTH_UNIT ( ) NAMED_UNIT ( * ) SI_UNIT ( $, .METRE. ) );
#99 = CIRCLE ( 'NONE', #249, 0.5000000000000000000 ) ;
#100 = FILL_AREA_STYLE ('',( #78 ) ) ;
#101 = SURFACE_STYLE_FILL_AREA ( #87 ) ;
#102 = MANIFOLD_SOLID_BREP ( 'Revolve - Tool Body (Straight Shanked)', #289 ) ;
#103 = EDGE_CURVE ( 'NONE', #74, #248, #53, .T. ) ;
#104 =( NAMED_UNIT ( * ) PLANE_ANGLE_UNIT ( ) SI_UNIT ( $, .RADIAN. ) );
#105 = CLOSED_SHELL ( 'NONE', ( #179, #225, #8, #201 ) ) ;
#106 = SURFACE_SIDE_STYLE ('',( #82 ) ) ;
#107 = ORIENTED_EDGE ( 'NONE', *, *, #69, .F. ) ;
#108 = EDGE_CURVE ( 'NONE', #192, #259, #116, .T. ) ;
#109 = PRESENTATION_LAYER_ASSIGNMENT (  '', '', ( #47 ) ) ;
#110 = EDGE_CURVE ( 'NONE', #192, #130, #182, .T. ) ;
#111 = FILL_AREA_STYLE_COLOUR ( '', #3 ) ;
#112 = AXIS2_PLACEMENT_3D ( 'NONE', #188, #286, #263 ) ;
#113 = FACE_OUTER_BOUND ( 'NONE', #267, .T. ) ;
#114 = ORIENTED_EDGE ( 'NONE', *, *, #97, .F. ) ;
#115 = CARTESIAN_POINT ( 'NONE',  ( 0.000000000000000000, 0.000000000000000000, 0.000000000000000000 ) ) ;
#116 = LINE ( 'NONE', #196, #12 ) ;
#117 = PRODUCT_DEFINITION ( 'UNKNOWN', '', #61, #251 ) ;
#118 = DIMENSIONAL_EXPONENTS ( 1.000000000000000000, 0.000000000000000000, 0.000000000000000000, 0.000000000000000000, 0.000000000000000000, 0.000000000000000000, 0.000000000000000000 ) ;
#119 =( NAMED_UNIT ( * ) PLANE_ANGLE_UNIT ( ) SI_UNIT ( $, .RADIAN. ) );
#120 = CARTESIAN_POINT ( 'NONE',  ( -1.836970198721030427E-16, 6.000000000000000888, 0.000000000000000000 ) ) ;
#121 = PRESENTATION_LAYER_ASSIGNMENT (  '', '', ( #306 ) ) ;
#122 =( NAMED_UNIT ( * ) SI_UNIT ( $, .STERADIAN. ) SOLID_ANGLE_UNIT ( ) );
#123 = DIMENSIONAL_EXPONENTS ( 1.000000000000000000, 0.000000000000000000, 0.000000000000000000, 0.000000000000000000, 0.000000000000000000, 0.000000000000000000, 0.000000000000000000 ) ;
#124 = DIRECTION ( 'NONE',  ( 0.000000000000000000, 0.000000000000000000, -1.000000000000000000 ) ) ;
#125 = FILL_AREA_STYLE_COLOUR ( '', #85 ) ;
#126 = CARTESIAN_POINT ( 'NONE',  ( 0.000000000000000000, 3.250000000000000000, 0.000000000000000000 ) ) ;
#127 = DIRECTION ( 'NONE',  ( 0.000000000000000000, -1.000000000000000000, -0.000000000000000000 ) ) ;
#128 =( GEOMETRIC_REPRESENTATION_CONTEXT ( 3 ) GLOBAL_UNCERTAINTY_ASSIGNED_CONTEXT ( ( #171 ) ) GLOBAL_UNIT_ASSIGNED_CONTEXT ( ( #15, #104, #122 ) ) REPRESENTATION_CONTEXT ( 'NONE', 'WORKASPACE' ) );
#129 = PLANE ( 'NONE',  #212 ) ;
#130 = VERTEX_POINT ( 'NONE', #265 ) ;
#131 = ORIENTED_EDGE ( 'NONE', *, *, #38, .T. ) ;
#132 = CYLINDRICAL_SURFACE ( 'NONE', #112, 0.5000000000000001110 ) ;
#133 = EDGE_LOOP ( 'NONE', ( #131, #48 ) ) ;
#134 = ADVANCED_FACE ( 'NONE', ( #92 ), #223, .F. ) ;
#135 = DIRECTION ( 'NONE',  ( -0.000000000000000000, -1.000000000000000000, -0.000000000000000000 ) ) ;
#136 = DIRECTION ( 'NONE',  ( -0.000000000000000000, -1.000000000000000000, -0.000000000000000000 ) ) ;
#137 = PRODUCT_CONTEXT ( 'NONE', #60, 'mechanical' ) ;
#138 = LINE ( 'NONE', #75, #198 ) ;
#139 = ORIENTED_EDGE ( 'NONE', *, *, #149, .T. ) ;
#140 = CIRCLE ( 'NONE', #197, 0.5000000000000002220 ) ;
#141 = PLANE ( 'NONE',  #170 ) ;
#142 = DIMENSIONAL_EXPONENTS ( 1.000000000000000000, 0.000000000000000000, 0.000000000000000000, 0.000000000000000000, 0.000000000000000000, 0.000000000000000000, 0.000000000000000000 ) ;
#143 =( GEOMETRIC_REPRESENTATION_CONTEXT ( 3 ) GLOBAL_UNCERTAINTY_ASSIGNED_CONTEXT ( ( #161 ) ) GLOBAL_UNIT_ASSIGNED_CONTEXT ( ( #210, #119, #222 ) ) REPRESENTATION_CONTEXT ( 'NONE', 'WORKASPACE' ) );
#144 = SURFACE_STYLE_FILL_AREA ( #79 ) ;
#145 = CARTESIAN_POINT ( 'NONE',  ( 0.000000000000000000, 3.250000000000000000, 0.000000000000000000 ) ) ;
#146 = FILL_AREA_STYLE_COLOUR ( '', #91 ) ;
#147 = SURFACE_STYLE_USAGE ( .BOTH. , #59 ) ;
#148 = ORIENTED_EDGE ( 'NONE', *, *, #149, .F. ) ;
#149 = EDGE_CURVE ( 'NONE', #130, #192, #264, .T. ) ;
#150 = STYLED_ITEM ( 'NONE', ( #183 ), #225 ) ;
#151 = PRODUCT_DEFINITION_SHAPE ( 'NONE', 'NONE',  #117 ) ;
#152 = ORIENTED_EDGE ( 'NONE', *, *, #288, .T. ) ;
#153 = EDGE_CURVE ( 'NONE', #239, #259, #221, .T. ) ;
#154 = ORIENTED_EDGE ( 'NONE', *, *, #69, .T. ) ;
#155 = FILL_AREA_STYLE ('',( #111 ) ) ;
#156 = AXIS2_PLACEMENT_3D ( 'NONE', #29, #7, #162 ) ;
#157 = UNCERTAINTY_MEASURE_WITH_UNIT (LENGTH_MEASURE( 1.000000000000000082E-05 ), #309, 'distance_accuracy_value', 'NONE');
#158 = CARTESIAN_POINT ( 'NONE',  ( 0.000000000000000000, 0.000000000000000000, 0.000000000000000000 ) ) ;
#159 = FACE_OUTER_BOUND ( 'NONE', #64, .T. ) ;
#160 =( LENGTH_UNIT ( ) NAMED_UNIT ( * ) SI_UNIT ( $, .METRE. ) );
#161 = UNCERTAINTY_MEASURE_WITH_UNIT (LENGTH_MEASURE( 1.000000000000000082E-05 ), #210, 'distance_accuracy_value', 'NONE');
#162 = DIRECTION ( 'NONE',  ( 0.000000000000000000, 0.000000000000000000, -1.000000000000000000 ) ) ;
#163 = COLOUR_RGB ( '',1.000000000000000000, 0.000000000000000000, 0.000000000000000000 ) ;
#164 = APPLICATION_PROTOCOL_DEFINITION ( 'draft international standard', 'automotive_design', 1998, #60 ) ;
#165 = DIRECTION ( 'NONE',  ( 0.000000000000000000, 0.000000000000000000, -1.000000000000000000 ) ) ;
#166 = CARTESIAN_POINT ( 'NONE',  ( 0.000000000000000000, 0.000000000000000000, -0.5000000000000000000 ) ) ;
#167 = DIRECTION ( 'NONE',  ( -6.679891631712837132E-17, 1.000000000000000000, -0.000000000000000000 ) ) ;
#168 = CARTESIAN_POINT ( 'NONE',  ( -0.5000000000000003331, 6.000000000000000888, 0.000000000000000000 ) ) ;
#169 =( GEOMETRIC_REPRESENTATION_CONTEXT ( 3 ) GLOBAL_UNCERTAINTY_ASSIGNED_CONTEXT ( ( #220 ) ) GLOBAL_UNIT_ASSIGNED_CONTEXT ( ( #230, #272, #37 ) ) REPRESENTATION_CONTEXT ( 'NONE', 'WORKASPACE' ) );
#170 = AXIS2_PLACEMENT_3D ( 'NONE', #246, #51, #52 ) ;
#171 = UNCERTAINTY_MEASURE_WITH_UNIT (LENGTH_MEASURE( 1.000000000000000082E-05 ), #15, 'distance_accuracy_value', 'NONE');
#172 = CARTESIAN_POINT ( 'NONE',  ( 0.000000000000000000, 3.250000000000000000, 0.000000000000000000 ) ) ;
#173 = DIRECTION ( 'NONE',  ( -0.000000000000000000, -1.000000000000000000, -0.000000000000000000 ) ) ;
#174 = FILL_AREA_STYLE_COLOUR ( '', #163 ) ;
#175 = SHAPE_DEFINITION_REPRESENTATION ( #151, #203 ) ;
#176 = VERTEX_POINT ( 'NONE', #31 ) ;
#177 = LENGTH_MEASURE_WITH_UNIT ( LENGTH_MEASURE( 0.02539999999999999897 ), #16 );
#178 = PRESENTATION_STYLE_ASSIGNMENT (( #40 ) ) ;
#179 = ADVANCED_FACE ( 'NONE', ( #199 ), #63, .T. ) ;
#180 =( CONVERSION_BASED_UNIT ( 'INCH', #177 ) LENGTH_UNIT ( ) NAMED_UNIT ( #229 ) );
#181 = EDGE_LOOP ( 'NONE', ( #139, #291, #187, #305 ) ) ;
#182 = CIRCLE ( 'NONE', #156, 0.5000000000000000000 ) ;
#183 = PRESENTATION_STYLE_ASSIGNMENT (( #215 ) ) ;
#184 = SURFACE_SIDE_STYLE ('',( #262 ) ) ;
#185 =( GEOMETRIC_REPRESENTATION_CONTEXT ( 3 ) GLOBAL_UNCERTAINTY_ASSIGNED_CONTEXT ( ( #27 ) ) GLOBAL_UNIT_ASSIGNED_CONTEXT ( ( #180, #19, #277 ) ) REPRESENTATION_CONTEXT ( 'NONE', 'WORKASPACE' ) );
#186 =( LENGTH_UNIT ( ) NAMED_UNIT ( * ) SI_UNIT ( $, .METRE. ) );
#187 = ORIENTED_EDGE ( 'NONE', *, *, #153, .F. ) ;
#188 = CARTESIAN_POINT ( 'NONE',  ( -1.836970198721030427E-16, 6.000000000000000888, 0.000000000000000000 ) ) ;
#189 = CARTESIAN_POINT ( 'NONE',  ( -1.836970198721030427E-16, 6.000000000000000888, 0.000000000000000000 ) ) ;
#190 = DIRECTION ( 'NONE',  ( -6.679891631712837132E-17, 1.000000000000000000, 0.000000000000000000 ) ) ;
#191 = COLOUR_RGB ( '',1.000000000000000000, 0.000000000000000000, 0.000000000000000000 ) ;
#192 = VERTEX_POINT ( 'NONE', #298 ) ;
#193 = CARTESIAN_POINT ( 'NONE',  ( -0.5000000000000000000, 3.250000000000000000, 0.000000000000000000 ) ) ;
#194 = DIRECTION ( 'NONE',  ( -6.679891631712837132E-17, 1.000000000000000000, -0.000000000000000000 ) ) ;
#195 = CYLINDRICAL_SURFACE ( 'NONE', #207, 0.5000000000000001110 ) ;
#196 = CARTESIAN_POINT ( 'NONE',  ( 6.123233995736766036E-17, 0.000000000000000000, 0.5000000000000000000 ) ) ;
#197 = AXIS2_PLACEMENT_3D ( 'NONE', #120, #194, #294 ) ;
#198 = VECTOR ( 'NONE', #167, 39.37007874015748143 ) ;
#199 = FACE_OUTER_BOUND ( 'NONE', #181, .T. ) ;
#200 = LENGTH_MEASURE_WITH_UNIT ( LENGTH_MEASURE( 0.02539999999999999897 ), #98 );
#201 = ADVANCED_FACE ( 'NONE', ( #275 ), #202, .T. ) ;
#202 = PLANE ( 'NONE',  #1 ) ;
#203 = ADVANCED_BREP_SHAPE_REPRESENTATION ( '24572', ( #213, #102, #232 ), #54 ) ;
#204 = SURFACE_STYLE_USAGE ( .BOTH. , #106 ) ;
#205 = PRODUCT_RELATED_PRODUCT_CATEGORY ( 'part', '', ( #258 ) ) ;
#206 = MECHANICAL_DESIGN_GEOMETRIC_PRESENTATION_REPRESENTATION (  '', ( #257 ), #297 ) ;
#207 = AXIS2_PLACEMENT_3D ( 'NONE', #189, #250, #244 ) ;
#208 = DIRECTION ( 'NONE',  ( 0.000000000000000000, 0.000000000000000000, -1.000000000000000000 ) ) ;
#209 = EDGE_LOOP ( 'NONE', ( #148, #24 ) ) ;
#210 =( CONVERSION_BASED_UNIT ( 'INCH', #214 ) LENGTH_UNIT ( ) NAMED_UNIT ( #307 ) );
#211 = LENGTH_MEASURE_WITH_UNIT ( LENGTH_MEASURE( 0.02539999999999999897 ), #186 );
#212 = AXIS2_PLACEMENT_3D ( 'NONE', #219, #10, #268 ) ;
#213 = MANIFOLD_SOLID_BREP ( 'Revolve - Cutting Edge', #105 ) ;
#214 = LENGTH_MEASURE_WITH_UNIT ( LENGTH_MEASURE( 0.02539999999999999897 ), #281 );
#215 = SURFACE_STYLE_USAGE ( .BOTH. , #184 ) ;
#216 = AXIS2_PLACEMENT_3D ( 'NONE', #158, #261, #25 ) ;
#217 = ORIENTED_EDGE ( 'NONE', *, *, #97, .T. ) ;
#218 = CARTESIAN_POINT ( 'NONE',  ( -1.836970198721030427E-16, 6.000000000000000888, 0.000000000000000000 ) ) ;
#219 = CARTESIAN_POINT ( 'NONE',  ( 0.000000000000000000, 3.250000000000000000, 0.000000000000000000 ) ) ;
#220 = UNCERTAINTY_MEASURE_WITH_UNIT (LENGTH_MEASURE( 1.000000000000000082E-05 ), #230, 'distance_accuracy_value', 'NONE');
#221 = CIRCLE ( 'NONE', #226, 0.5000000000000000000 ) ;
#222 =( NAMED_UNIT ( * ) SI_UNIT ( $, .STERADIAN. ) SOLID_ANGLE_UNIT ( ) );
#223 = PLANE ( 'NONE',  #28 ) ;
#224 = DIRECTION ( 'NONE',  ( -1.000000000000000000, 0.000000000000000000, 0.000000000000000000 ) ) ;
#225 = ADVANCED_FACE ( 'NONE', ( #238 ), #129, .T. ) ;
#226 = AXIS2_PLACEMENT_3D ( 'NONE', #290, #73, #165 ) ;
#227 = PRESENTATION_LAYER_ASSIGNMENT (  '', '', ( #150 ) ) ;
#228 = LENGTH_MEASURE_WITH_UNIT ( LENGTH_MEASURE( 0.02539999999999999897 ), #62 );
#229 = DIMENSIONAL_EXPONENTS ( 1.000000000000000000, 0.000000000000000000, 0.000000000000000000, 0.000000000000000000, 0.000000000000000000, 0.000000000000000000, 0.000000000000000000 ) ;
#230 =( CONVERSION_BASED_UNIT ( 'INCH', #228 ) LENGTH_UNIT ( ) NAMED_UNIT ( #123 ) );
#231 =( LENGTH_UNIT ( ) NAMED_UNIT ( * ) SI_UNIT ( $, .METRE. ) );
#232 = AXIS2_PLACEMENT_3D ( 'NONE', #115, #266, #49 ) ;
#233 = DIRECTION ( 'NONE',  ( 0.000000000000000000, 0.000000000000000000, -1.000000000000000000 ) ) ;
#234 = DIMENSIONAL_EXPONENTS ( 1.000000000000000000, 0.000000000000000000, 0.000000000000000000, 0.000000000000000000, 0.000000000000000000, 0.000000000000000000, 0.000000000000000000 ) ;
#235 = ADVANCED_FACE ( 'NONE', ( #96 ), #141, .F. ) ;
#236 = ORIENTED_EDGE ( 'NONE', *, *, #103, .T. ) ;
#237 = AXIS2_PLACEMENT_3D ( 'NONE', #84, #173, #124 ) ;
#238 = FACE_OUTER_BOUND ( 'NONE', #209, .T. ) ;
#239 = VERTEX_POINT ( 'NONE', #166 ) ;
#240 = SURFACE_SIDE_STYLE ('',( #101 ) ) ;
#241 = PRESENTATION_STYLE_ASSIGNMENT (( #271 ) ) ;
#242 = AXIS2_PLACEMENT_3D ( 'NONE', #126, #83, #276 ) ;
#243 = ORIENTED_EDGE ( 'NONE', *, *, #90, .T. ) ;
#244 = DIRECTION ( 'NONE',  ( -1.000000000000000000, 0.000000000000000000, 0.000000000000000000 ) ) ;
#245 = ORIENTED_EDGE ( 'NONE', *, *, #108, .F. ) ;
#246 = CARTESIAN_POINT ( 'NONE',  ( 0.5000000000000000000, 6.000000000000000888, 0.000000000000000000 ) ) ;
#247 = ORIENTED_EDGE ( 'NONE', *, *, #110, .T. ) ;
#248 = VERTEX_POINT ( 'NONE', #193 ) ;
#249 = AXIS2_PLACEMENT_3D ( 'NONE', #273, #301, #208 ) ;
#250 = DIRECTION ( 'NONE',  ( -6.679891631712837132E-17, 1.000000000000000000, -0.000000000000000000 ) ) ;
#251 = PRODUCT_DEFINITION_CONTEXT ( 'detailed design', #93, 'design' ) ;
#252 = DIMENSIONAL_EXPONENTS ( 1.000000000000000000, 0.000000000000000000, 0.000000000000000000, 0.000000000000000000, 0.000000000000000000, 0.000000000000000000, 0.000000000000000000 ) ;
#253 = SURFACE_SIDE_STYLE ('',( #144 ) ) ;
#254 = EDGE_CURVE ( 'NONE', #74, #20, #138, .T. ) ;
#255 = FILL_AREA_STYLE ('',( #146 ) ) ;
#256 = PRESENTATION_STYLE_ASSIGNMENT (( #204 ) ) ;
#257 = STYLED_ITEM ( 'NONE', ( #241 ), #8 ) ;
#258 = PRODUCT ( '24572', '24572', '', ( #137 ) ) ;
#259 = VERTEX_POINT ( 'NONE', #292 ) ;
#260 = AXIS2_PLACEMENT_3D ( 'NONE', #145, #44, #285 ) ;
#261 = DIRECTION ( 'NONE',  ( -0.000000000000000000, -1.000000000000000000, -0.000000000000000000 ) ) ;
#262 = SURFACE_STYLE_FILL_AREA ( #155 ) ;
#263 = DIRECTION ( 'NONE',  ( -1.000000000000000000, 0.000000000000000000, 0.000000000000000000 ) ) ;
#264 = CIRCLE ( 'NONE', #46, 0.5000000000000000000 ) ;
#265 = CARTESIAN_POINT ( 'NONE',  ( 0.000000000000000000, 3.250000000000000000, -0.5000000000000000000 ) ) ;
#266 = DIRECTION ( 'NONE',  ( 0.000000000000000000, 0.000000000000000000, 1.000000000000000000 ) ) ;
#267 = EDGE_LOOP ( 'NONE', ( #243, #4, #67, #107 ) ) ;
#268 = DIRECTION ( 'NONE',  ( 0.000000000000000000, -0.000000000000000000, 1.000000000000000000 ) ) ;
#269 = DIRECTION ( 'NONE',  ( 0.000000000000000000, 0.000000000000000000, -1.000000000000000000 ) ) ;
#270 =( CONVERSION_BASED_UNIT ( 'INCH', #200 ) LENGTH_UNIT ( ) NAMED_UNIT ( #118 ) );
#271 = SURFACE_STYLE_USAGE ( .BOTH. , #240 ) ;
#272 =( NAMED_UNIT ( * ) PLANE_ANGLE_UNIT ( ) SI_UNIT ( $, .RADIAN. ) );
#273 = CARTESIAN_POINT ( 'NONE',  ( 0.000000000000000000, 0.000000000000000000, 0.000000000000000000 ) ) ;
#274 = AXIS2_PLACEMENT_3D ( 'NONE', #218, #95, #224 ) ;
#275 = FACE_OUTER_BOUND ( 'NONE', #284, .T. ) ;
#276 = DIRECTION ( 'NONE',  ( -1.000000000000000000, 0.000000000000000000, 0.000000000000000000 ) ) ;
#277 =( NAMED_UNIT ( * ) SI_UNIT ( $, .STERADIAN. ) SOLID_ANGLE_UNIT ( ) );
#278 = ORIENTED_EDGE ( 'NONE', *, *, #254, .F. ) ;
#279 = CIRCLE ( 'NONE', #274, 0.5000000000000002220 ) ;
#280 = ORIENTED_EDGE ( 'NONE', *, *, #50, .F. ) ;
#281 =( LENGTH_UNIT ( ) NAMED_UNIT ( * ) SI_UNIT ( $, .METRE. ) );
#282 = PRESENTATION_LAYER_ASSIGNMENT (  '', '', ( #257 ) ) ;
#283 =( GEOMETRIC_REPRESENTATION_CONTEXT ( 3 ) GLOBAL_UNCERTAINTY_ASSIGNED_CONTEXT ( ( #157 ) ) GLOBAL_UNIT_ASSIGNED_CONTEXT ( ( #309, #2, #41 ) ) REPRESENTATION_CONTEXT ( 'NONE', 'WORKASPACE' ) );
#284 = EDGE_LOOP ( 'NONE', ( #299, #217 ) ) ;
#285 = DIRECTION ( 'NONE',  ( -1.000000000000000000, 0.000000000000000000, 0.000000000000000000 ) ) ;
#286 = DIRECTION ( 'NONE',  ( -6.679891631712837132E-17, 1.000000000000000000, -0.000000000000000000 ) ) ;
#287 = LINE ( 'NONE', #89, #34 ) ;
#288 = EDGE_CURVE ( 'NONE', #130, #239, #287, .T. ) ;
#289 = CLOSED_SHELL ( 'NONE', ( #22, #134, #308, #235 ) ) ;
#290 = CARTESIAN_POINT ( 'NONE',  ( 0.000000000000000000, 0.000000000000000000, 0.000000000000000000 ) ) ;
#291 = ORIENTED_EDGE ( 'NONE', *, *, #108, .T. ) ;
#292 = CARTESIAN_POINT ( 'NONE',  ( 6.123233995736766036E-17, 0.000000000000000000, 0.5000000000000000000 ) ) ;
#293 = DIRECTION ( 'NONE',  ( -0.000000000000000000, -1.000000000000000000, -0.000000000000000000 ) ) ;
#294 = DIRECTION ( 'NONE',  ( -1.000000000000000000, 0.000000000000000000, 0.000000000000000000 ) ) ;
#295 =( NAMED_UNIT ( * ) PLANE_ANGLE_UNIT ( ) SI_UNIT ( $, .RADIAN. ) );
#296 = CARTESIAN_POINT ( 'NONE',  ( 1.115523805285679723E-33, 3.250000000000000000, 0.000000000000000000 ) ) ;
#297 =( GEOMETRIC_REPRESENTATION_CONTEXT ( 3 ) GLOBAL_UNCERTAINTY_ASSIGNED_CONTEXT ( ( #32 ) ) GLOBAL_UNIT_ASSIGNED_CONTEXT ( ( #270, #45, #5 ) ) REPRESENTATION_CONTEXT ( 'NONE', 'WORKASPACE' ) );
#298 = CARTESIAN_POINT ( 'NONE',  ( 6.123233995736766036E-17, 3.250000000000000000, 0.5000000000000000000 ) ) ;
#299 = ORIENTED_EDGE ( 'NONE', *, *, #153, .T. ) ;
#300 = FILL_AREA_STYLE_COLOUR ( '', #39 ) ;
#301 = DIRECTION ( 'NONE',  ( -0.000000000000000000, -1.000000000000000000, -0.000000000000000000 ) ) ;
#302 = FILL_AREA_STYLE ('',( #125 ) ) ;
#303 = PRESENTATION_LAYER_ASSIGNMENT (  '', '', ( #71 ) ) ;
#304 = CARTESIAN_POINT ( 'NONE',  ( 0.000000000000000000, 0.000000000000000000, 0.000000000000000000 ) ) ;
#305 = ORIENTED_EDGE ( 'NONE', *, *, #288, .F. ) ;
#306 = STYLED_ITEM ( 'NONE', ( #21 ), #102 ) ;
#307 = DIMENSIONAL_EXPONENTS ( 1.000000000000000000, 0.000000000000000000, 0.000000000000000000, 0.000000000000000000, 0.000000000000000000, 0.000000000000000000, 0.000000000000000000 ) ;
#308 = ADVANCED_FACE ( 'NONE', ( #70 ), #195, .T. ) ;
#309 =( CONVERSION_BASED_UNIT ( 'INCH', #211 ) LENGTH_UNIT ( ) NAMED_UNIT ( #142 ) );
ENDSEC;
END-ISO-10303-21;
