ISO-10303-21;
HEADER;
FILE_DESCRIPTION (( 'STEP AP214' ),
    '1' );
FILE_NAME ('03392.STEP',
    '2023-06-22T15:15:49',
    ( '' ),
    ( '' ),
    'SwSTEP 2.0',
    'SolidWorks 2023',
    '' );
FILE_SCHEMA (( 'AUTOMOTIVE_DESIGN' ));
ENDSEC;

DATA;
#1 = ADVANCED_FACE ( 'NONE', ( #135 ), #292, .T. ) ;
#2 = FACE_OUTER_BOUND ( 'NONE', #298, .T. ) ;
#3 =( GEOMETRIC_REPRESENTATION_CONTEXT ( 3 ) GLOBAL_UNCERTAINTY_ASSIGNED_CONTEXT ( ( #163 ) ) GLOBAL_UNIT_ASSIGNED_CONTEXT ( ( #44, #272, #113 ) ) REPRESENTATION_CONTEXT ( 'NONE', 'WORKASPACE' ) );
#4 = CARTESIAN_POINT ( 'NONE',  ( 0.000000000000000000, 0.000000000000000000, 0.000000000000000000 ) ) ;
#5 = DIRECTION ( 'NONE',  ( -0.000000000000000000, -1.000000000000000000, -0.000000000000000000 ) ) ;
#6 = DIRECTION ( 'NONE',  ( -3.061616997868383018E-17, 1.000000000000000000, 0.000000000000000000 ) ) ;
#7 =( NAMED_UNIT ( * ) PLANE_ANGLE_UNIT ( ) SI_UNIT ( $, .RADIAN. ) );
#8 = SURFACE_SIDE_STYLE ('',( #150 ) ) ;
#9 = DIRECTION ( 'NONE',  ( 0.000000000000000000, 0.000000000000000000, -1.000000000000000000 ) ) ;
#10 = ORIENTED_EDGE ( 'NONE', *, *, #299, .F. ) ;
#11 = FILL_AREA_STYLE ('',( #195 ) ) ;
#12 = STYLED_ITEM ( 'NONE', ( #119 ), #143 ) ;
#13 = ORIENTED_EDGE ( 'NONE', *, *, #86, .T. ) ;
#14 =( CONVERSION_BASED_UNIT ( 'INCH', #264 ) LENGTH_UNIT ( ) NAMED_UNIT ( #235 ) );
#15 = ORIENTED_EDGE ( 'NONE', *, *, #246, .T. ) ;
#16 = LENGTH_MEASURE_WITH_UNIT ( LENGTH_MEASURE( 0.02539999999999999897 ), #159 );
#17 = COLOUR_RGB ( '',0.7921568627450980005, 0.8196078431372548767, 0.9333333333333333481 ) ;
#18 = CYLINDRICAL_SURFACE ( 'NONE', #232, 0.1875000000000000555 ) ;
#19 = DIMENSIONAL_EXPONENTS ( 1.000000000000000000, 0.000000000000000000, 0.000000000000000000, 0.000000000000000000, 0.000000000000000000, 0.000000000000000000, 0.000000000000000000 ) ;
#20 = PRODUCT_CONTEXT ( 'NONE', #115, 'mechanical' ) ;
#21 = DIRECTION ( 'NONE',  ( 0.000000000000000000, 1.000000000000000000, 0.000000000000000000 ) ) ;
#22 = LINE ( 'NONE', #233, #68 ) ;
#23 = DIMENSIONAL_EXPONENTS ( 1.000000000000000000, 0.000000000000000000, 0.000000000000000000, 0.000000000000000000, 0.000000000000000000, 0.000000000000000000, 0.000000000000000000 ) ;
#24 =( NAMED_UNIT ( * ) PLANE_ANGLE_UNIT ( ) SI_UNIT ( $, .RADIAN. ) );
#25 = CIRCLE ( 'NONE', #153, 0.1875000000000000278 ) ;
#26 = CYLINDRICAL_SURFACE ( 'NONE', #104, 0.1875000000000000278 ) ;
#27 = DIRECTION ( 'NONE',  ( -1.000000000000000000, 0.000000000000000000, 0.000000000000000000 ) ) ;
#28 = EDGE_CURVE ( 'NONE', #227, #228, #184, .T. ) ;
#29 = PRESENTATION_LAYER_ASSIGNMENT (  '', '', ( #84 ) ) ;
#30 =( NAMED_UNIT ( * ) SI_UNIT ( $, .STERADIAN. ) SOLID_ANGLE_UNIT ( ) );
#31 = CIRCLE ( 'NONE', #225, 0.1875000000000000278 ) ;
#32 = FILL_AREA_STYLE ('',( #98 ) ) ;
#33 = SURFACE_STYLE_USAGE ( .BOTH. , #8 ) ;
#34 = ORIENTED_EDGE ( 'NONE', *, *, #28, .F. ) ;
#35 = STYLED_ITEM ( 'NONE', ( #78 ), #1 ) ;
#36 = FACE_OUTER_BOUND ( 'NONE', #220, .T. ) ;
#37 = EDGE_LOOP ( 'NONE', ( #76, #58, #34, #199 ) ) ;
#38 = APPLICATION_PROTOCOL_DEFINITION ( 'draft international standard', 'automotive_design', 1998, #145 ) ;
#39 = EDGE_LOOP ( 'NONE', ( #128, #109, #82, #254 ) ) ;
#40 = DIRECTION ( 'NONE',  ( -3.061616997868383018E-17, 1.000000000000000000, -0.000000000000000000 ) ) ;
#41 = DIRECTION ( 'NONE',  ( -3.061616997868383018E-17, 1.000000000000000000, -0.000000000000000000 ) ) ;
#42 = COLOUR_RGB ( '',1.000000000000000000, 0.000000000000000000, 0.000000000000000000 ) ;
#43 = LINE ( 'NONE', #141, #175 ) ;
#44 =( CONVERSION_BASED_UNIT ( 'INCH', #16 ) LENGTH_UNIT ( ) NAMED_UNIT ( #23 ) );
#45 = CIRCLE ( 'NONE', #138, 0.1875000000000000278 ) ;
#46 = DIMENSIONAL_EXPONENTS ( 1.000000000000000000, 0.000000000000000000, 0.000000000000000000, 0.000000000000000000, 0.000000000000000000, 0.000000000000000000, 0.000000000000000000 ) ;
#47 = CYLINDRICAL_SURFACE ( 'NONE', #91, 0.1875000000000000278 ) ;
#48 = STYLED_ITEM ( 'NONE', ( #297 ), #245 ) ;
#49 = FILL_AREA_STYLE_COLOUR ( '', #169 ) ;
#50 = LINE ( 'NONE', #188, #248 ) ;
#51 = EDGE_CURVE ( 'NONE', #130, #196, #146, .T. ) ;
#52 =( CONVERSION_BASED_UNIT ( 'INCH', #83 ) LENGTH_UNIT ( ) NAMED_UNIT ( #19 ) );
#53 = SURFACE_STYLE_USAGE ( .BOTH. , #176 ) ;
#54 = ORIENTED_EDGE ( 'NONE', *, *, #28, .T. ) ;
#55 = DIRECTION ( 'NONE',  ( -0.000000000000000000, -1.000000000000000000, -0.000000000000000000 ) ) ;
#56 = ORIENTED_EDGE ( 'NONE', *, *, #125, .F. ) ;
#57 = CIRCLE ( 'NONE', #219, 0.1875000000000000278 ) ;
#58 = ORIENTED_EDGE ( 'NONE', *, *, #142, .T. ) ;
#59 = CARTESIAN_POINT ( 'NONE',  ( 0.000000000000000000, 0.000000000000000000, 0.000000000000000000 ) ) ;
#60 = FACE_OUTER_BOUND ( 'NONE', #37, .T. ) ;
#61 = PRODUCT_DEFINITION_CONTEXT ( 'detailed design', #145, 'design' ) ;
#62 = FILL_AREA_STYLE ('',( #136 ) ) ;
#63 = DIRECTION ( 'NONE',  ( 0.000000000000000000, 0.000000000000000000, -1.000000000000000000 ) ) ;
#64 = ADVANCED_BREP_SHAPE_REPRESENTATION ( '03392', ( #245, #243, #139 ), #271 ) ;
#65 = CARTESIAN_POINT ( 'NONE',  ( -6.123233995736766036E-17, 4.000000000000000000, 0.000000000000000000 ) ) ;
#66 = ADVANCED_FACE ( 'NONE', ( #60 ), #280, .T. ) ;
#67 = CARTESIAN_POINT ( 'NONE',  ( -0.1875000000000001388, 4.000000000000000000, 0.000000000000000000 ) ) ;
#68 = VECTOR ( 'NONE', #207, 39.37007874015748143 ) ;
#69 =( GEOMETRIC_REPRESENTATION_CONTEXT ( 3 ) GLOBAL_UNCERTAINTY_ASSIGNED_CONTEXT ( ( #275 ) ) GLOBAL_UNIT_ASSIGNED_CONTEXT ( ( #14, #7, #226 ) ) REPRESENTATION_CONTEXT ( 'NONE', 'WORKASPACE' ) );
#70 = EDGE_CURVE ( 'NONE', #252, #151, #45, .T. ) ;
#71 = SURFACE_STYLE_FILL_AREA ( #241 ) ;
#72 = SURFACE_STYLE_FILL_AREA ( #288 ) ;
#73 = PRESENTATION_LAYER_ASSIGNMENT (  '', '', ( #35 ) ) ;
#74 = AXIS2_PLACEMENT_3D ( 'NONE', #251, #108, #300 ) ;
#75 =( CONVERSION_BASED_UNIT ( 'INCH', #285 ) LENGTH_UNIT ( ) NAMED_UNIT ( #46 ) );
#76 = ORIENTED_EDGE ( 'NONE', *, *, #299, .T. ) ;
#77 = UNCERTAINTY_MEASURE_WITH_UNIT (LENGTH_MEASURE( 1.000000000000000082E-05 ), #123, 'distance_accuracy_value', 'NONE');
#78 = PRESENTATION_STYLE_ASSIGNMENT (( #33 ) ) ;
#79 = PLANE ( 'NONE',  #283 ) ;
#80 = EDGE_LOOP ( 'NONE', ( #101, #155, #172, #178 ) ) ;
#81 = FACE_OUTER_BOUND ( 'NONE', #296, .T. ) ;
#82 = ORIENTED_EDGE ( 'NONE', *, *, #218, .T. ) ;
#83 = LENGTH_MEASURE_WITH_UNIT ( LENGTH_MEASURE( 0.02539999999999999897 ), #266 );
#84 = STYLED_ITEM ( 'NONE', ( #94 ), #182 ) ;
#85 = DIRECTION ( 'NONE',  ( -1.000000000000000000, 0.000000000000000000, 0.000000000000000000 ) ) ;
#86 = EDGE_CURVE ( 'NONE', #196, #174, #22, .T. ) ;
#87 = DIRECTION ( 'NONE',  ( 0.000000000000000000, 0.000000000000000000, 1.000000000000000000 ) ) ;
#88 = DIRECTION ( 'NONE',  ( -0.000000000000000000, -1.000000000000000000, -0.000000000000000000 ) ) ;
#89 = DIRECTION ( 'NONE',  ( 0.000000000000000000, 0.000000000000000000, -1.000000000000000000 ) ) ;
#90 = CARTESIAN_POINT ( 'NONE',  ( 0.000000000000000000, 2.000000000000000000, 0.000000000000000000 ) ) ;
#91 = AXIS2_PLACEMENT_3D ( 'NONE', #239, #5, #240 ) ;
#92 = PRODUCT_DEFINITION_SHAPE ( 'NONE', 'NONE',  #229 ) ;
#93 =( NAMED_UNIT ( * ) PLANE_ANGLE_UNIT ( ) SI_UNIT ( $, .RADIAN. ) );
#94 = PRESENTATION_STYLE_ASSIGNMENT (( #166 ) ) ;
#95 = ADVANCED_FACE ( 'NONE', ( #186 ), #18, .T. ) ;
#96 = DIRECTION ( 'NONE',  ( 0.000000000000000000, 0.000000000000000000, -1.000000000000000000 ) ) ;
#97 = CIRCLE ( 'NONE', #154, 0.1875000000000000278 ) ;
#98 = FILL_AREA_STYLE_COLOUR ( '', #185 ) ;
#99 = ORIENTED_EDGE ( 'NONE', *, *, #51, .F. ) ;
#100 = CARTESIAN_POINT ( 'NONE',  ( 0.000000000000000000, 0.000000000000000000, 0.000000000000000000 ) ) ;
#101 = ORIENTED_EDGE ( 'NONE', *, *, #168, .T. ) ;
#102 = CARTESIAN_POINT ( 'NONE',  ( 0.1875000000000000278, 2.000000000000000000, 2.296212748401288342E-17 ) ) ;
#103 = EDGE_LOOP ( 'NONE', ( #197, #99 ) ) ;
#104 = AXIS2_PLACEMENT_3D ( 'NONE', #4, #216, #96 ) ;
#105 = LENGTH_MEASURE_WITH_UNIT ( LENGTH_MEASURE( 0.02539999999999999897 ), #267 );
#106 = CIRCLE ( 'NONE', #284, 0.1875000000000000833 ) ;
#107 = EDGE_LOOP ( 'NONE', ( #15, #224 ) ) ;
#108 = DIRECTION ( 'NONE',  ( 3.061616997868383018E-17, -1.000000000000000000, 0.000000000000000000 ) ) ;
#109 = ORIENTED_EDGE ( 'NONE', *, *, #70, .T. ) ;
#110 = CARTESIAN_POINT ( 'NONE',  ( 2.296212748401287726E-17, 2.000000000000000000, 0.1875000000000000278 ) ) ;
#111 =( CONVERSION_BASED_UNIT ( 'INCH', #304 ) LENGTH_UNIT ( ) NAMED_UNIT ( #144 ) );
#112 = PLANE ( 'NONE',  #210 ) ;
#113 =( NAMED_UNIT ( * ) SI_UNIT ( $, .STERADIAN. ) SOLID_ANGLE_UNIT ( ) );
#114 = FACE_OUTER_BOUND ( 'NONE', #80, .T. ) ;
#115 = APPLICATION_CONTEXT ( 'automotive_design' ) ;
#116 = ADVANCED_FACE ( 'NONE', ( #164 ), #112, .T. ) ;
#117 = DIRECTION ( 'NONE',  ( -0.000000000000000000, -1.000000000000000000, -0.000000000000000000 ) ) ;
#118 = PRESENTATION_LAYER_ASSIGNMENT (  '', '', ( #295 ) ) ;
#119 = PRESENTATION_STYLE_ASSIGNMENT (( #212 ) ) ;
#120 = DIRECTION ( 'NONE',  ( 0.000000000000000000, 0.000000000000000000, -1.000000000000000000 ) ) ;
#121 =( LENGTH_UNIT ( ) NAMED_UNIT ( * ) SI_UNIT ( $, .METRE. ) );
#122 =( GEOMETRIC_REPRESENTATION_CONTEXT ( 3 ) GLOBAL_UNCERTAINTY_ASSIGNED_CONTEXT ( ( #231 ) ) GLOBAL_UNIT_ASSIGNED_CONTEXT ( ( #52, #127, #180 ) ) REPRESENTATION_CONTEXT ( 'NONE', 'WORKASPACE' ) );
#123 =( CONVERSION_BASED_UNIT ( 'INCH', #147 ) LENGTH_UNIT ( ) NAMED_UNIT ( #209 ) );
#124 = FILL_AREA_STYLE_COLOUR ( '', #42 ) ;
#125 = EDGE_CURVE ( 'NONE', #291, #174, #25, .T. ) ;
#126 = SURFACE_STYLE_FILL_AREA ( #11 ) ;
#127 =( NAMED_UNIT ( * ) PLANE_ANGLE_UNIT ( ) SI_UNIT ( $, .RADIAN. ) );
#128 = ORIENTED_EDGE ( 'NONE', *, *, #142, .F. ) ;
#129 = CARTESIAN_POINT ( 'NONE',  ( 8.787654976534324059E-35, 2.000000000000000000, 0.000000000000000000 ) ) ;
#130 = VERTEX_POINT ( 'NONE', #110 ) ;
#131 = CLOSED_SHELL ( 'NONE', ( #66, #237, #95, #278 ) ) ;
#132 = MECHANICAL_DESIGN_GEOMETRIC_PRESENTATION_REPRESENTATION (  '', ( #48 ), #69 ) ;
#133 = ORIENTED_EDGE ( 'NONE', *, *, #282, .T. ) ;
#134 = SHAPE_DEFINITION_REPRESENTATION ( #92, #64 ) ;
#135 = FACE_OUTER_BOUND ( 'NONE', #103, .T. ) ;
#136 = FILL_AREA_STYLE_COLOUR ( '', #200 ) ;
#137 = DIRECTION ( 'NONE',  ( 1.000000000000000000, 0.000000000000000000, 0.000000000000000000 ) ) ;
#138 = AXIS2_PLACEMENT_3D ( 'NONE', #90, #40, #161 ) ;
#139 = AXIS2_PLACEMENT_3D ( 'NONE', #59, #87, #137 ) ;
#140 = DIRECTION ( 'NONE',  ( -1.000000000000000000, 0.000000000000000000, 0.000000000000000000 ) ) ;
#141 = CARTESIAN_POINT ( 'NONE',  ( 0.1874999999999999722, 4.000000000000000000, 2.296212748401288034E-17 ) ) ;
#142 = EDGE_CURVE ( 'NONE', #252, #228, #43, .T. ) ;
#143 = ADVANCED_FACE ( 'NONE', ( #114 ), #47, .T. ) ;
#144 = DIMENSIONAL_EXPONENTS ( 1.000000000000000000, 0.000000000000000000, 0.000000000000000000, 0.000000000000000000, 0.000000000000000000, 0.000000000000000000, 0.000000000000000000 ) ;
#145 = APPLICATION_CONTEXT ( 'automotive_design' ) ;
#146 = CIRCLE ( 'NONE', #309, 0.1875000000000000278 ) ;
#147 = LENGTH_MEASURE_WITH_UNIT ( LENGTH_MEASURE( 0.02539999999999999897 ), #121 );
#148 = SURFACE_SIDE_STYLE ('',( #126 ) ) ;
#149 = MECHANICAL_DESIGN_GEOMETRIC_PRESENTATION_REPRESENTATION (  '', ( #84 ), #204 ) ;
#150 = SURFACE_STYLE_FILL_AREA ( #263 ) ;
#151 = VERTEX_POINT ( 'NONE', #286 ) ;
#152 = MECHANICAL_DESIGN_GEOMETRIC_PRESENTATION_REPRESENTATION (  '', ( #35 ), #122 ) ;
#153 = AXIS2_PLACEMENT_3D ( 'NONE', #183, #117, #211 ) ;
#154 = AXIS2_PLACEMENT_3D ( 'NONE', #230, #273, #140 ) ;
#155 = ORIENTED_EDGE ( 'NONE', *, *, #258, .T. ) ;
#156 = APPLICATION_PROTOCOL_DEFINITION ( 'draft international standard', 'automotive_design', 1998, #115 ) ;
#157 = DIRECTION ( 'NONE',  ( -3.061616997868383018E-17, 1.000000000000000000, -0.000000000000000000 ) ) ;
#158 =( NAMED_UNIT ( * ) PLANE_ANGLE_UNIT ( ) SI_UNIT ( $, .RADIAN. ) );
#159 =( LENGTH_UNIT ( ) NAMED_UNIT ( * ) SI_UNIT ( $, .METRE. ) );
#160 = DIMENSIONAL_EXPONENTS ( 1.000000000000000000, 0.000000000000000000, 0.000000000000000000, 0.000000000000000000, 0.000000000000000000, 0.000000000000000000, 0.000000000000000000 ) ;
#161 = DIRECTION ( 'NONE',  ( -1.000000000000000000, 0.000000000000000000, 0.000000000000000000 ) ) ;
#162 = PRESENTATION_STYLE_ASSIGNMENT (( #257 ) ) ;
#163 = UNCERTAINTY_MEASURE_WITH_UNIT (LENGTH_MEASURE( 1.000000000000000082E-05 ), #44, 'distance_accuracy_value', 'NONE');
#164 = FACE_OUTER_BOUND ( 'NONE', #107, .T. ) ;
#165 = CARTESIAN_POINT ( 'NONE',  ( 0.1875000000000000278, 4.000000000000000000, 2.296212748401288342E-17 ) ) ;
#166 = SURFACE_STYLE_USAGE ( .BOTH. , #191 ) ;
#167 =( NAMED_UNIT ( * ) SI_UNIT ( $, .STERADIAN. ) SOLID_ANGLE_UNIT ( ) );
#168 = EDGE_CURVE ( 'NONE', #196, #130, #57, .T. ) ;
#169 = COLOUR_RGB ( '',1.000000000000000000, 0.000000000000000000, 0.000000000000000000 ) ;
#170 =( NAMED_UNIT ( * ) SI_UNIT ( $, .STERADIAN. ) SOLID_ANGLE_UNIT ( ) );
#171 = DIRECTION ( 'NONE',  ( -1.000000000000000000, -3.061616997868383018E-17, 0.000000000000000000 ) ) ;
#172 = ORIENTED_EDGE ( 'NONE', *, *, #246, .F. ) ;
#173 = SURFACE_STYLE_FILL_AREA ( #32 ) ;
#174 = VERTEX_POINT ( 'NONE', #244 ) ;
#175 = VECTOR ( 'NONE', #203, 39.37007874015748143 ) ;
#176 = SURFACE_SIDE_STYLE ('',( #173 ) ) ;
#177 = PLANE ( 'NONE',  #74 ) ;
#178 = ORIENTED_EDGE ( 'NONE', *, *, #86, .F. ) ;
#179 = CARTESIAN_POINT ( 'NONE',  ( -6.123233995736766036E-17, 4.000000000000000000, 0.000000000000000000 ) ) ;
#180 =( NAMED_UNIT ( * ) SI_UNIT ( $, .STERADIAN. ) SOLID_ANGLE_UNIT ( ) );
#181 = SURFACE_STYLE_FILL_AREA ( #62 ) ;
#182 = ADVANCED_FACE ( 'NONE', ( #2 ), #26, .T. ) ;
#183 = CARTESIAN_POINT ( 'NONE',  ( 0.000000000000000000, 0.000000000000000000, 0.000000000000000000 ) ) ;
#184 = CIRCLE ( 'NONE', #238, 0.1875000000000000833 ) ;
#185 = COLOUR_RGB ( '',0.7921568627450980005, 0.8196078431372548767, 0.9333333333333333481 ) ;
#186 = FACE_OUTER_BOUND ( 'NONE', #39, .T. ) ;
#187 = CARTESIAN_POINT ( 'NONE',  ( 0.000000000000000000, 2.000000000000000000, 0.000000000000000000 ) ) ;
#188 = CARTESIAN_POINT ( 'NONE',  ( -0.1875000000000001110, 4.000000000000000000, 0.000000000000000000 ) ) ;
#189 = CARTESIAN_POINT ( 'NONE',  ( 0.000000000000000000, 2.000000000000000000, 0.000000000000000000 ) ) ;
#190 = STYLED_ITEM ( 'NONE', ( #198 ), #243 ) ;
#191 = SURFACE_SIDE_STYLE ('',( #72 ) ) ;
#192 = CARTESIAN_POINT ( 'NONE',  ( 0.000000000000000000, 2.000000000000000000, -0.1875000000000000278 ) ) ;
#193 = AXIS2_PLACEMENT_3D ( 'NONE', #236, #41, #208 ) ;
#194 = PRODUCT_DEFINITION_FORMATION_WITH_SPECIFIED_SOURCE ( 'ANY', '', #217, .NOT_KNOWN. ) ;
#195 = FILL_AREA_STYLE_COLOUR ( '', #17 ) ;
#196 = VERTEX_POINT ( 'NONE', #192 ) ;
#197 = ORIENTED_EDGE ( 'NONE', *, *, #168, .F. ) ;
#198 = PRESENTATION_STYLE_ASSIGNMENT (( #262 ) ) ;
#199 = ORIENTED_EDGE ( 'NONE', *, *, #218, .F. ) ;
#200 = COLOUR_RGB ( '',1.000000000000000000, 0.000000000000000000, 0.000000000000000000 ) ;
#201 =( CONVERSION_BASED_UNIT ( 'INCH', #105 ) LENGTH_UNIT ( ) NAMED_UNIT ( #160 ) );
#202 = FILL_AREA_STYLE_COLOUR ( '', #308 ) ;
#203 = DIRECTION ( 'NONE',  ( -3.061616997868383018E-17, 1.000000000000000000, -0.000000000000000000 ) ) ;
#204 =( GEOMETRIC_REPRESENTATION_CONTEXT ( 3 ) GLOBAL_UNCERTAINTY_ASSIGNED_CONTEXT ( ( #293 ) ) GLOBAL_UNIT_ASSIGNED_CONTEXT ( ( #75, #93, #167 ) ) REPRESENTATION_CONTEXT ( 'NONE', 'WORKASPACE' ) );
#205 = CARTESIAN_POINT ( 'NONE',  ( 2.296212748401287726E-17, 0.000000000000000000, 0.1875000000000000278 ) ) ;
#206 = PRODUCT_RELATED_PRODUCT_CATEGORY ( 'part', '', ( #217 ) ) ;
#207 = DIRECTION ( 'NONE',  ( -0.000000000000000000, -1.000000000000000000, -0.000000000000000000 ) ) ;
#208 = DIRECTION ( 'NONE',  ( -1.000000000000000000, 0.000000000000000000, 0.000000000000000000 ) ) ;
#209 = DIMENSIONAL_EXPONENTS ( 1.000000000000000000, 0.000000000000000000, 0.000000000000000000, 0.000000000000000000, 0.000000000000000000, 0.000000000000000000, 0.000000000000000000 ) ;
#210 = AXIS2_PLACEMENT_3D ( 'NONE', #274, #305, #89 ) ;
#211 = DIRECTION ( 'NONE',  ( 0.000000000000000000, 0.000000000000000000, -1.000000000000000000 ) ) ;
#212 = SURFACE_STYLE_USAGE ( .BOTH. , #213 ) ;
#213 = SURFACE_SIDE_STYLE ('',( #71 ) ) ;
#214 = DIRECTION ( 'NONE',  ( -0.000000000000000000, -1.000000000000000000, -0.000000000000000000 ) ) ;
#215 = MECHANICAL_DESIGN_GEOMETRIC_PRESENTATION_REPRESENTATION (  '', ( #190 ), #256 ) ;
#216 = DIRECTION ( 'NONE',  ( -0.000000000000000000, -1.000000000000000000, -0.000000000000000000 ) ) ;
#217 = PRODUCT ( '03392', '03392', '', ( #20 ) ) ;
#218 = EDGE_CURVE ( 'NONE', #151, #227, #50, .T. ) ;
#219 = AXIS2_PLACEMENT_3D ( 'NONE', #189, #214, #120 ) ;
#220 = EDGE_LOOP ( 'NONE', ( #10, #222 ) ) ;
#221 = DIRECTION ( 'NONE',  ( -0.000000000000000000, -1.000000000000000000, -0.000000000000000000 ) ) ;
#222 = ORIENTED_EDGE ( 'NONE', *, *, #70, .F. ) ;
#223 = CARTESIAN_POINT ( 'NONE',  ( 2.296212748401287726E-17, 0.000000000000000000, 0.1875000000000000278 ) ) ;
#224 = ORIENTED_EDGE ( 'NONE', *, *, #125, .T. ) ;
#225 = AXIS2_PLACEMENT_3D ( 'NONE', #100, #221, #9 ) ;
#226 =( NAMED_UNIT ( * ) SI_UNIT ( $, .STERADIAN. ) SOLID_ANGLE_UNIT ( ) );
#227 = VERTEX_POINT ( 'NONE', #67 ) ;
#228 = VERTEX_POINT ( 'NONE', #165 ) ;
#229 = PRODUCT_DEFINITION ( 'UNKNOWN', '', #194, #61 ) ;
#230 = CARTESIAN_POINT ( 'NONE',  ( 0.000000000000000000, 2.000000000000000000, 0.000000000000000000 ) ) ;
#231 = UNCERTAINTY_MEASURE_WITH_UNIT (LENGTH_MEASURE( 1.000000000000000082E-05 ), #52, 'distance_accuracy_value', 'NONE');
#232 = AXIS2_PLACEMENT_3D ( 'NONE', #65, #157, #279 ) ;
#233 = CARTESIAN_POINT ( 'NONE',  ( 0.000000000000000000, 0.000000000000000000, -0.1875000000000000278 ) ) ;
#234 =( NAMED_UNIT ( * ) SI_UNIT ( $, .STERADIAN. ) SOLID_ANGLE_UNIT ( ) );
#235 = DIMENSIONAL_EXPONENTS ( 1.000000000000000000, 0.000000000000000000, 0.000000000000000000, 0.000000000000000000, 0.000000000000000000, 0.000000000000000000, 0.000000000000000000 ) ;
#236 = CARTESIAN_POINT ( 'NONE',  ( -6.123233995736766036E-17, 4.000000000000000000, 0.000000000000000000 ) ) ;
#237 = ADVANCED_FACE ( 'NONE', ( #36 ), #79, .F. ) ;
#238 = AXIS2_PLACEMENT_3D ( 'NONE', #303, #301, #85 ) ;
#239 = CARTESIAN_POINT ( 'NONE',  ( 0.000000000000000000, 0.000000000000000000, 0.000000000000000000 ) ) ;
#240 = DIRECTION ( 'NONE',  ( 0.000000000000000000, 0.000000000000000000, -1.000000000000000000 ) ) ;
#241 = FILL_AREA_STYLE ('',( #124 ) ) ;
#242 =( GEOMETRIC_REPRESENTATION_CONTEXT ( 3 ) GLOBAL_UNCERTAINTY_ASSIGNED_CONTEXT ( ( #77 ) ) GLOBAL_UNIT_ASSIGNED_CONTEXT ( ( #123, #24, #170 ) ) REPRESENTATION_CONTEXT ( 'NONE', 'WORKASPACE' ) );
#243 = MANIFOLD_SOLID_BREP ( 'Revolve - Tool Body (Straight Shanked)', #131 ) ;
#244 = CARTESIAN_POINT ( 'NONE',  ( 0.000000000000000000, 0.000000000000000000, -0.1875000000000000278 ) ) ;
#245 = MANIFOLD_SOLID_BREP ( 'Revolve - Cutting Edge', #260 ) ;
#246 = EDGE_CURVE ( 'NONE', #174, #291, #31, .T. ) ;
#247 =( NAMED_UNIT ( * ) PLANE_ANGLE_UNIT ( ) SI_UNIT ( $, .RADIAN. ) );
#248 = VECTOR ( 'NONE', #281, 39.37007874015748143 ) ;
#249 =( LENGTH_UNIT ( ) NAMED_UNIT ( * ) SI_UNIT ( $, .METRE. ) );
#250 = ORIENTED_EDGE ( 'NONE', *, *, #258, .F. ) ;
#251 = CARTESIAN_POINT ( 'NONE',  ( 0.1875000000000000278, 4.000000000000000000, 0.000000000000000000 ) ) ;
#252 = VERTEX_POINT ( 'NONE', #102 ) ;
#253 = UNCERTAINTY_MEASURE_WITH_UNIT (LENGTH_MEASURE( 1.000000000000000082E-05 ), #201, 'distance_accuracy_value', 'NONE');
#254 = ORIENTED_EDGE ( 'NONE', *, *, #282, .F. ) ;
#255 = SURFACE_SIDE_STYLE ('',( #181 ) ) ;
#256 =( GEOMETRIC_REPRESENTATION_CONTEXT ( 3 ) GLOBAL_UNCERTAINTY_ASSIGNED_CONTEXT ( ( #253 ) ) GLOBAL_UNIT_ASSIGNED_CONTEXT ( ( #201, #247, #30 ) ) REPRESENTATION_CONTEXT ( 'NONE', 'WORKASPACE' ) );
#257 = SURFACE_STYLE_USAGE ( .BOTH. , #255 ) ;
#258 = EDGE_CURVE ( 'NONE', #130, #291, #294, .T. ) ;
#259 =( LENGTH_UNIT ( ) NAMED_UNIT ( * ) SI_UNIT ( $, .METRE. ) );
#260 = CLOSED_SHELL ( 'NONE', ( #143, #1, #182, #116 ) ) ;
#261 = PRESENTATION_LAYER_ASSIGNMENT (  '', '', ( #48 ) ) ;
#262 = SURFACE_STYLE_USAGE ( .BOTH. , #148 ) ;
#263 = FILL_AREA_STYLE ('',( #202 ) ) ;
#264 = LENGTH_MEASURE_WITH_UNIT ( LENGTH_MEASURE( 0.02539999999999999897 ), #249 );
#265 = PRESENTATION_LAYER_ASSIGNMENT (  '', '', ( #190 ) ) ;
#266 =( LENGTH_UNIT ( ) NAMED_UNIT ( * ) SI_UNIT ( $, .METRE. ) );
#267 =( LENGTH_UNIT ( ) NAMED_UNIT ( * ) SI_UNIT ( $, .METRE. ) );
#268 = ORIENTED_EDGE ( 'NONE', *, *, #51, .T. ) ;
#269 = DIRECTION ( 'NONE',  ( -3.061616997868383018E-17, 1.000000000000000000, -0.000000000000000000 ) ) ;
#270 = PRESENTATION_LAYER_ASSIGNMENT (  '', '', ( #12 ) ) ;
#271 =( GEOMETRIC_REPRESENTATION_CONTEXT ( 3 ) GLOBAL_UNCERTAINTY_ASSIGNED_CONTEXT ( ( #290 ) ) GLOBAL_UNIT_ASSIGNED_CONTEXT ( ( #111, #158, #234 ) ) REPRESENTATION_CONTEXT ( 'NONE', 'WORKASPACE' ) );
#272 =( NAMED_UNIT ( * ) PLANE_ANGLE_UNIT ( ) SI_UNIT ( $, .RADIAN. ) );
#273 = DIRECTION ( 'NONE',  ( -3.061616997868383018E-17, 1.000000000000000000, -0.000000000000000000 ) ) ;
#274 = CARTESIAN_POINT ( 'NONE',  ( 0.000000000000000000, 0.000000000000000000, 0.000000000000000000 ) ) ;
#275 = UNCERTAINTY_MEASURE_WITH_UNIT (LENGTH_MEASURE( 1.000000000000000082E-05 ), #14, 'distance_accuracy_value', 'NONE');
#276 = DIRECTION ( 'NONE',  ( 0.000000000000000000, -0.000000000000000000, 1.000000000000000000 ) ) ;
#277 = AXIS2_PLACEMENT_3D ( 'NONE', #307, #21, #276 ) ;
#278 = ADVANCED_FACE ( 'NONE', ( #81 ), #177, .F. ) ;
#279 = DIRECTION ( 'NONE',  ( -1.000000000000000000, 0.000000000000000000, 0.000000000000000000 ) ) ;
#280 = CYLINDRICAL_SURFACE ( 'NONE', #193, 0.1875000000000000555 ) ;
#281 = DIRECTION ( 'NONE',  ( -3.061616997868383018E-17, 1.000000000000000000, -0.000000000000000000 ) ) ;
#282 = EDGE_CURVE ( 'NONE', #228, #227, #106, .T. ) ;
#283 = AXIS2_PLACEMENT_3D ( 'NONE', #129, #6, #171 ) ;
#284 = AXIS2_PLACEMENT_3D ( 'NONE', #179, #269, #27 ) ;
#285 = LENGTH_MEASURE_WITH_UNIT ( LENGTH_MEASURE( 0.02539999999999999897 ), #259 );
#286 = CARTESIAN_POINT ( 'NONE',  ( -0.1875000000000000278, 2.000000000000000000, 0.000000000000000000 ) ) ;
#287 = MECHANICAL_DESIGN_GEOMETRIC_PRESENTATION_REPRESENTATION (  '', ( #295 ), #3 ) ;
#288 = FILL_AREA_STYLE ('',( #49 ) ) ;
#289 = VECTOR ( 'NONE', #55, 39.37007874015748143 ) ;
#290 = UNCERTAINTY_MEASURE_WITH_UNIT (LENGTH_MEASURE( 1.000000000000000082E-05 ), #111, 'distance_accuracy_value', 'NONE');
#291 = VERTEX_POINT ( 'NONE', #205 ) ;
#292 = PLANE ( 'NONE',  #277 ) ;
#293 = UNCERTAINTY_MEASURE_WITH_UNIT (LENGTH_MEASURE( 1.000000000000000082E-05 ), #75, 'distance_accuracy_value', 'NONE');
#294 = LINE ( 'NONE', #223, #289 ) ;
#295 = STYLED_ITEM ( 'NONE', ( #162 ), #116 ) ;
#296 = EDGE_LOOP ( 'NONE', ( #54, #133 ) ) ;
#297 = PRESENTATION_STYLE_ASSIGNMENT (( #53 ) ) ;
#298 = EDGE_LOOP ( 'NONE', ( #250, #268, #13, #56 ) ) ;
#299 = EDGE_CURVE ( 'NONE', #151, #252, #97, .T. ) ;
#300 = DIRECTION ( 'NONE',  ( 1.000000000000000000, 3.061616997868383018E-17, 0.000000000000000000 ) ) ;
#301 = DIRECTION ( 'NONE',  ( -3.061616997868383018E-17, 1.000000000000000000, -0.000000000000000000 ) ) ;
#302 = MECHANICAL_DESIGN_GEOMETRIC_PRESENTATION_REPRESENTATION (  '', ( #12 ), #242 ) ;
#303 = CARTESIAN_POINT ( 'NONE',  ( -6.123233995736766036E-17, 4.000000000000000000, 0.000000000000000000 ) ) ;
#304 = LENGTH_MEASURE_WITH_UNIT ( LENGTH_MEASURE( 0.02539999999999999897 ), #306 );
#305 = DIRECTION ( 'NONE',  ( 0.000000000000000000, -1.000000000000000000, -0.000000000000000000 ) ) ;
#306 =( LENGTH_UNIT ( ) NAMED_UNIT ( * ) SI_UNIT ( $, .METRE. ) );
#307 = CARTESIAN_POINT ( 'NONE',  ( 0.000000000000000000, 2.000000000000000000, 0.000000000000000000 ) ) ;
#308 = COLOUR_RGB ( '',1.000000000000000000, 0.000000000000000000, 0.000000000000000000 ) ;
#309 = AXIS2_PLACEMENT_3D ( 'NONE', #187, #88, #63 ) ;
ENDSEC;
END-ISO-10303-21;
