ISO-10303-21;
HEADER;
FILE_DESCRIPTION (( 'STEP AP214' ),
    '1' );
FILE_NAME ('49271.STEP',
    '2023-06-30T21:59:38',
    ( '' ),
    ( '' ),
    'SwSTEP 2.0',
    'SolidWorks 2023',
    '' );
FILE_SCHEMA (( 'AUTOMOTIVE_DESIGN' ));
ENDSEC;

DATA;
#1 = VECTOR ( 'NONE', #361, 39.37007874015748143 ) ;
#2 = DIRECTION ( 'NONE',  ( -0.000000000000000000, -1.000000000000000000, -0.000000000000000000 ) ) ;
#3 = FACE_OUTER_BOUND ( 'NONE', #64, .T. ) ;
#4 =( LENGTH_UNIT ( ) NAMED_UNIT ( * ) SI_UNIT ( $, .METRE. ) );
#5 = VERTEX_POINT ( 'NONE', #290 ) ;
#6 = CIRCLE ( 'NONE', #222, 0.2499999999999999722 ) ;
#7 = AXIS2_PLACEMENT_3D ( 'NONE', #146, #144, #205 ) ;
#8 = MECHANICAL_DESIGN_GEOMETRIC_PRESENTATION_REPRESENTATION (  '', ( #13 ), #171 ) ;
#9 = PRESENTATION_STYLE_ASSIGNMENT (( #298 ) ) ;
#10 = ORIENTED_EDGE ( 'NONE', *, *, #155, .T. ) ;
#11 = DIRECTION ( 'NONE',  ( 0.000000000000000000, 0.000000000000000000, -1.000000000000000000 ) ) ;
#12 = FACE_OUTER_BOUND ( 'NONE', #344, .T. ) ;
#13 = STYLED_ITEM ( 'NONE', ( #245 ), #338 ) ;
#14 = EDGE_CURVE ( 'NONE', #273, #136, #371, .T. ) ;
#15 = DIRECTION ( 'NONE',  ( -1.000000000000000000, 0.000000000000000000, 0.000000000000000000 ) ) ;
#16 = CARTESIAN_POINT ( 'NONE',  ( 1.836970198721030181E-16, 1.000000000000000000, 0.000000000000000000 ) ) ;
#17 = DIRECTION ( 'NONE',  ( 0.000000000000000000, 0.000000000000000000, 1.000000000000000000 ) ) ;
#18 = LENGTH_MEASURE_WITH_UNIT ( LENGTH_MEASURE( 0.02539999999999999897 ), #133 );
#19 = CARTESIAN_POINT ( 'NONE',  ( 3.061616997868383018E-17, 0.2500000000000000555, 0.2500000000000000000 ) ) ;
#20 = ORIENTED_EDGE ( 'NONE', *, *, #85, .T. ) ;
#21 = AXIS2_PLACEMENT_3D ( 'NONE', #16, #174, #253 ) ;
#22 = MECHANICAL_DESIGN_GEOMETRIC_PRESENTATION_REPRESENTATION (  '', ( #242 ), #178 ) ;
#23 = SURFACE_STYLE_USAGE ( .BOTH. , #169 ) ;
#24 = CARTESIAN_POINT ( 'NONE',  ( 0.2499999999999999167, 3.000000000000000444, 3.061616997868382402E-17 ) ) ;
#25 = FILL_AREA_STYLE_COLOUR ( '', #350 ) ;
#26 = ORIENTED_EDGE ( 'NONE', *, *, #234, .T. ) ;
#27 = PRESENTATION_LAYER_ASSIGNMENT (  '', '', ( #372 ) ) ;
#28 = DIRECTION ( 'NONE',  ( 0.000000000000000000, 0.000000000000000000, -1.000000000000000000 ) ) ;
#29 = DIMENSIONAL_EXPONENTS ( 1.000000000000000000, 0.000000000000000000, 0.000000000000000000, 0.000000000000000000, 0.000000000000000000, 0.000000000000000000, 0.000000000000000000 ) ;
#30 = FILL_AREA_STYLE_COLOUR ( '', #223 ) ;
#31 = CIRCLE ( 'NONE', #151, 0.2499999999999998890 ) ;
#32 = FACE_OUTER_BOUND ( 'NONE', #244, .T. ) ;
#33 = DIRECTION ( 'NONE',  ( -1.000000000000000000, 0.000000000000000000, 0.000000000000000000 ) ) ;
#34 = DIRECTION ( 'NONE',  ( 1.000000000000000000, 1.224646799147353700E-16, 0.000000000000000000 ) ) ;
#35 = CARTESIAN_POINT ( 'NONE',  ( -0.2500000000000000000, 0.2500000000000000555, 3.061616997868382402E-17 ) ) ;
#36 = ORIENTED_EDGE ( 'NONE', *, *, #127, .F. ) ;
#37 = CARTESIAN_POINT ( 'NONE',  ( 0.000000000000000000, 0.000000000000000000, -0.2499999999999999167 ) ) ;
#38 = ORIENTED_EDGE ( 'NONE', *, *, #155, .F. ) ;
#39 = SURFACE_STYLE_USAGE ( .BOTH. , #327 ) ;
#40 = LINE ( 'NONE', #276, #99 ) ;
#41 = UNCERTAINTY_MEASURE_WITH_UNIT (LENGTH_MEASURE( 1.000000000000000082E-05 ), #120, 'distance_accuracy_value', 'NONE');
#42 = ORIENTED_EDGE ( 'NONE', *, *, #182, .T. ) ;
#43 = PRESENTATION_LAYER_ASSIGNMENT (  '', '', ( #323 ) ) ;
#44 = PRESENTATION_LAYER_ASSIGNMENT (  '', '', ( #242 ) ) ;
#45 = PRODUCT_CONTEXT ( 'NONE', #73, 'mechanical' ) ;
#46 = EDGE_CURVE ( 'NONE', #50, #111, #90, .T. ) ;
#47 = PRESENTATION_STYLE_ASSIGNMENT (( #113 ) ) ;
#48 = CARTESIAN_POINT ( 'NONE',  ( 0.000000000000000000, 0.2500000000000000555, 0.000000000000000000 ) ) ;
#49 =( LENGTH_UNIT ( ) NAMED_UNIT ( * ) SI_UNIT ( $, .METRE. ) );
#50 = VERTEX_POINT ( 'NONE', #141 ) ;
#51 = UNCERTAINTY_MEASURE_WITH_UNIT (LENGTH_MEASURE( 1.000000000000000082E-05 ), #324, 'distance_accuracy_value', 'NONE');
#52 = PRESENTATION_STYLE_ASSIGNMENT (( #352 ) ) ;
#53 = ADVANCED_FACE ( 'NONE', ( #289 ), #335, .F. ) ;
#54 = CARTESIAN_POINT ( 'NONE',  ( 0.000000000000000000, 0.000000000000000000, 0.000000000000000000 ) ) ;
#55 = FILL_AREA_STYLE_COLOUR ( '', #161 ) ;
#56 = PRESENTATION_LAYER_ASSIGNMENT (  '', '', ( #67 ) ) ;
#57 = CIRCLE ( 'NONE', #345, 0.2500000000000000000 ) ;
#58 = LENGTH_MEASURE_WITH_UNIT ( LENGTH_MEASURE( 0.02539999999999999897 ), #321 );
#59 = CARTESIAN_POINT ( 'NONE',  ( 0.000000000000000000, 0.000000000000000000, 0.000000000000000000 ) ) ;
#60 = MECHANICAL_DESIGN_GEOMETRIC_PRESENTATION_REPRESENTATION (  '', ( #323 ), #339 ) ;
#61 = FACE_OUTER_BOUND ( 'NONE', #103, .T. ) ;
#62 = CARTESIAN_POINT ( 'NONE',  ( 0.2499999999999998890, 3.000000000000000444, 0.000000000000000000 ) ) ;
#63 = DIMENSIONAL_EXPONENTS ( 1.000000000000000000, 0.000000000000000000, 0.000000000000000000, 0.000000000000000000, 0.000000000000000000, 0.000000000000000000, 0.000000000000000000 ) ;
#64 = EDGE_LOOP ( 'NONE', ( #198, #237, #341, #343, #357 ) ) ;
#65 =( NAMED_UNIT ( * ) PLANE_ANGLE_UNIT ( ) SI_UNIT ( $, .RADIAN. ) );
#66 = LINE ( 'NONE', #353, #183 ) ;
#67 = STYLED_ITEM ( 'NONE', ( #9 ), #147 ) ;
#68 = STYLED_ITEM ( 'NONE', ( #333 ), #347 ) ;
#69 = DIRECTION ( 'NONE',  ( -0.000000000000000000, -1.000000000000000000, -0.000000000000000000 ) ) ;
#70 = VERTEX_POINT ( 'NONE', #24 ) ;
#71 = SPHERICAL_SURFACE ( 'NONE', #308, 0.2500000000000000000 ) ;
#72 = DIRECTION ( 'NONE',  ( 0.000000000000000000, 0.000000000000000000, -1.000000000000000000 ) ) ;
#73 = APPLICATION_CONTEXT ( 'automotive_design' ) ;
#74 = ORIENTED_EDGE ( 'NONE', *, *, #172, .T. ) ;
#75 = AXIS2_PLACEMENT_3D ( 'NONE', #59, #69, #149 ) ;
#76 = PRESENTATION_LAYER_ASSIGNMENT (  '', '', ( #68 ) ) ;
#77 =( LENGTH_UNIT ( ) NAMED_UNIT ( * ) SI_UNIT ( $, .METRE. ) );
#78 = EDGE_CURVE ( 'NONE', #70, #315, #6, .T. ) ;
#79 = LENGTH_MEASURE_WITH_UNIT ( LENGTH_MEASURE( 0.02539999999999999897 ), #49 );
#80 = DIRECTION ( 'NONE',  ( -1.000000000000000000, 0.000000000000000000, 0.000000000000000000 ) ) ;
#81 =( CONVERSION_BASED_UNIT ( 'INCH', #79 ) LENGTH_UNIT ( ) NAMED_UNIT ( #63 ) );
#82 = MANIFOLD_SOLID_BREP ( 'Revolve - Tool Body (Straight Shanked)', #159 ) ;
#83 = CIRCLE ( 'NONE', #88, 0.2499999999999998890 ) ;
#84 = EDGE_LOOP ( 'NONE', ( #38, #20, #299, #26 ) ) ;
#85 = EDGE_CURVE ( 'NONE', #136, #96, #130, .T. ) ;
#86 = UNCERTAINTY_MEASURE_WITH_UNIT (LENGTH_MEASURE( 1.000000000000000082E-05 ), #349, 'distance_accuracy_value', 'NONE');
#87 = MANIFOLD_SOLID_BREP ( 'Revolve - Cutting Edge', #189 ) ;
#88 = AXIS2_PLACEMENT_3D ( 'NONE', #319, #2, #28 ) ;
#89 = SURFACE_SIDE_STYLE ('',( #291 ) ) ;
#90 = CIRCLE ( 'NONE', #336, 0.2499999999999997224 ) ;
#91 = VECTOR ( 'NONE', #208, 39.37007874015748143 ) ;
#92 = CIRCLE ( 'NONE', #224, 0.2500000000000000000 ) ;
#93 = PLANE ( 'NONE',  #318 ) ;
#94 =( NAMED_UNIT ( * ) SI_UNIT ( $, .STERADIAN. ) SOLID_ANGLE_UNIT ( ) );
#95 = VERTEX_POINT ( 'NONE', #145 ) ;
#96 = VERTEX_POINT ( 'NONE', #293 ) ;
#97 = DIRECTION ( 'NONE',  ( -0.000000000000000000, -1.000000000000000000, -0.000000000000000000 ) ) ;
#98 = DIRECTION ( 'NONE',  ( 0.000000000000000000, 0.000000000000000000, 1.000000000000000000 ) ) ;
#99 = VECTOR ( 'NONE', #124, 39.37007874015748143 ) ;
#100 =( CONVERSION_BASED_UNIT ( 'INCH', #217 ) LENGTH_UNIT ( ) NAMED_UNIT ( #101 ) );
#101 = DIMENSIONAL_EXPONENTS ( 1.000000000000000000, 0.000000000000000000, 0.000000000000000000, 0.000000000000000000, 0.000000000000000000, 0.000000000000000000, 0.000000000000000000 ) ;
#102 = DIRECTION ( 'NONE',  ( -1.224646799147353700E-16, 1.000000000000000000, -0.000000000000000000 ) ) ;
#103 = EDGE_LOOP ( 'NONE', ( #42, #275, #153, #187 ) ) ;
#104 = ADVANCED_FACE ( 'NONE', ( #32 ), #117, .T. ) ;
#105 = SHAPE_DEFINITION_REPRESENTATION ( #202, #297 ) ;
#106 = PLANE ( 'NONE',  #209 ) ;
#107 = DIRECTION ( 'NONE',  ( -1.000000000000000000, 0.000000000000000000, 0.000000000000000000 ) ) ;
#108 = AXIS2_PLACEMENT_3D ( 'NONE', #190, #305, #272 ) ;
#109 = FACE_OUTER_BOUND ( 'NONE', #307, .T. ) ;
#110 = DIRECTION ( 'NONE',  ( -1.224646799147353700E-16, 1.000000000000000000, -0.000000000000000000 ) ) ;
#111 = VERTEX_POINT ( 'NONE', #317 ) ;
#112 = UNCERTAINTY_MEASURE_WITH_UNIT (LENGTH_MEASURE( 1.000000000000000082E-05 ), #166, 'distance_accuracy_value', 'NONE');
#113 = SURFACE_STYLE_USAGE ( .BOTH. , #281 ) ;
#114 = AXIS2_PLACEMENT_3D ( 'NONE', #239, #358, #301 ) ;
#115 = CYLINDRICAL_SURFACE ( 'NONE', #75, 0.2499999999999999167 ) ;
#116 = APPLICATION_CONTEXT ( 'automotive_design' ) ;
#117 = CYLINDRICAL_SURFACE ( 'NONE', #7, 0.2499999999999998612 ) ;
#118 = MECHANICAL_DESIGN_GEOMETRIC_PRESENTATION_REPRESENTATION (  '', ( #67 ), #271 ) ;
#119 = PRODUCT_DEFINITION_FORMATION_WITH_SPECIFIED_SOURCE ( 'ANY', '', #254, .NOT_KNOWN. ) ;
#120 =( CONVERSION_BASED_UNIT ( 'INCH', #58 ) LENGTH_UNIT ( ) NAMED_UNIT ( #262 ) );
#121 = FILL_AREA_STYLE ('',( #30 ) ) ;
#122 =( NAMED_UNIT ( * ) PLANE_ANGLE_UNIT ( ) SI_UNIT ( $, .RADIAN. ) );
#123 = DIRECTION ( 'NONE',  ( 1.224646799147353207E-16, -0.000000000000000000, 1.000000000000000000 ) ) ;
#124 = DIRECTION ( 'NONE',  ( -1.224646799147353700E-16, 1.000000000000000000, -0.000000000000000000 ) ) ;
#125 = EDGE_LOOP ( 'NONE', ( #241, #332 ) ) ;
#126 =( NAMED_UNIT ( * ) PLANE_ANGLE_UNIT ( ) SI_UNIT ( $, .RADIAN. ) );
#127 = EDGE_CURVE ( 'NONE', #95, #168, #83, .T. ) ;
#128 = FILL_AREA_STYLE ('',( #274 ) ) ;
#129 = DIRECTION ( 'NONE',  ( 1.224646799147353700E-16, -1.000000000000000000, 0.000000000000000000 ) ) ;
#130 = CIRCLE ( 'NONE', #238, 0.2500000000000000000 ) ;
#131 =( NAMED_UNIT ( * ) SI_UNIT ( $, .STERADIAN. ) SOLID_ANGLE_UNIT ( ) );
#132 =( NAMED_UNIT ( * ) SI_UNIT ( $, .STERADIAN. ) SOLID_ANGLE_UNIT ( ) );
#133 =( LENGTH_UNIT ( ) NAMED_UNIT ( * ) SI_UNIT ( $, .METRE. ) );
#134 = ADVANCED_FACE ( 'NONE', ( #3 ), #115, .T. ) ;
#135 = SURFACE_STYLE_FILL_AREA ( #256 ) ;
#136 = VERTEX_POINT ( 'NONE', #35 ) ;
#137 =( GEOMETRIC_REPRESENTATION_CONTEXT ( 3 ) GLOBAL_UNCERTAINTY_ASSIGNED_CONTEXT ( ( #86 ) ) GLOBAL_UNIT_ASSIGNED_CONTEXT ( ( #349, #180, #263 ) ) REPRESENTATION_CONTEXT ( 'NONE', 'WORKASPACE' ) );
#138 = UNCERTAINTY_MEASURE_WITH_UNIT (LENGTH_MEASURE( 1.000000000000000082E-05 ), #81, 'distance_accuracy_value', 'NONE');
#139 = CARTESIAN_POINT ( 'NONE',  ( -0.2500000000000000555, 3.000000000000000444, 0.000000000000000000 ) ) ;
#140 = CARTESIAN_POINT ( 'NONE',  ( -6.123233995736772199E-17, 3.000000000000000444, 0.000000000000000000 ) ) ;
#141 = CARTESIAN_POINT ( 'NONE',  ( 0.2499999999999999167, 1.000000000000000000, 3.061616997868382402E-17 ) ) ;
#142 = CIRCLE ( 'NONE', #215, 0.2500000000000000000 ) ;
#143 =( LENGTH_UNIT ( ) NAMED_UNIT ( * ) SI_UNIT ( $, .METRE. ) );
#144 = DIRECTION ( 'NONE',  ( -1.224646799147353700E-16, 1.000000000000000000, -0.000000000000000000 ) ) ;
#145 = CARTESIAN_POINT ( 'NONE',  ( 0.000000000000000000, 1.000000000000000000, -0.2499999999999998890 ) ) ;
#146 = CARTESIAN_POINT ( 'NONE',  ( -6.123233995736772199E-17, 3.000000000000000444, 0.000000000000000000 ) ) ;
#147 = ADVANCED_FACE ( 'NONE', ( #325 ), #157, .T. ) ;
#148 = DIRECTION ( 'NONE',  ( -0.000000000000000000, -1.000000000000000000, -0.000000000000000000 ) ) ;
#149 = DIRECTION ( 'NONE',  ( 0.000000000000000000, 0.000000000000000000, -1.000000000000000000 ) ) ;
#150 = LINE ( 'NONE', #37, #91 ) ;
#151 = AXIS2_PLACEMENT_3D ( 'NONE', #199, #219, #72 ) ;
#152 = DIRECTION ( 'NONE',  ( 1.000000000000000000, 0.000000000000000000, 0.000000000000000000 ) ) ;
#153 = ORIENTED_EDGE ( 'NONE', *, *, #282, .F. ) ;
#154 = SURFACE_STYLE_FILL_AREA ( #186 ) ;
#155 = EDGE_CURVE ( 'NONE', #136, #252, #142, .T. ) ;
#156 = DIRECTION ( 'NONE',  ( 1.000000000000000000, 0.000000000000000000, 0.000000000000000000 ) ) ;
#157 = SPHERICAL_SURFACE ( 'NONE', #260, 0.2500000000000000000 ) ;
#158 = CARTESIAN_POINT ( 'NONE',  ( -3.061616997868383018E-17, 0.2500000000000000000, 0.000000000000000000 ) ) ;
#159 = CLOSED_SHELL ( 'NONE', ( #259, #53, #104, #211 ) ) ;
#160 = FILL_AREA_STYLE ('',( #365 ) ) ;
#161 = COLOUR_RGB ( '',0.7921568627450980005, 0.8196078431372548767, 0.9333333333333333481 ) ;
#162 = DIMENSIONAL_EXPONENTS ( 1.000000000000000000, 0.000000000000000000, 0.000000000000000000, 0.000000000000000000, 0.000000000000000000, 0.000000000000000000, 0.000000000000000000 ) ;
#163 = DIRECTION ( 'NONE',  ( -0.000000000000000000, -1.000000000000000000, -0.000000000000000000 ) ) ;
#164 = CARTESIAN_POINT ( 'NONE',  ( 0.000000000000000000, 0.000000000000000000, 0.000000000000000000 ) ) ;
#165 =( NAMED_UNIT ( * ) PLANE_ANGLE_UNIT ( ) SI_UNIT ( $, .RADIAN. ) );
#166 =( CONVERSION_BASED_UNIT ( 'INCH', #228 ) LENGTH_UNIT ( ) NAMED_UNIT ( #206 ) );
#167 =( NAMED_UNIT ( * ) SI_UNIT ( $, .STERADIAN. ) SOLID_ANGLE_UNIT ( ) );
#168 = VERTEX_POINT ( 'NONE', #216 ) ;
#169 = SURFACE_SIDE_STYLE ('',( #135 ) ) ;
#170 = DIRECTION ( 'NONE',  ( 0.000000000000000000, 0.000000000000000000, -1.000000000000000000 ) ) ;
#171 =( GEOMETRIC_REPRESENTATION_CONTEXT ( 3 ) GLOBAL_UNCERTAINTY_ASSIGNED_CONTEXT ( ( #255 ) ) GLOBAL_UNIT_ASSIGNED_CONTEXT ( ( #331, #165, #248 ) ) REPRESENTATION_CONTEXT ( 'NONE', 'WORKASPACE' ) );
#172 = EDGE_CURVE ( 'NONE', #111, #315, #210, .T. ) ;
#173 = UNCERTAINTY_MEASURE_WITH_UNIT (LENGTH_MEASURE( 1.000000000000000082E-05 ), #247, 'distance_accuracy_value', 'NONE');
#174 = DIRECTION ( 'NONE',  ( -1.224646799147353700E-16, 1.000000000000000000, 0.000000000000000000 ) ) ;
#175 = PRODUCT_DEFINITION ( 'UNKNOWN', '', #119, #304 ) ;
#176 = EDGE_CURVE ( 'NONE', #168, #273, #66, .T. ) ;
#177 = SURFACE_SIDE_STYLE ('',( #316 ) ) ;
#178 =( GEOMETRIC_REPRESENTATION_CONTEXT ( 3 ) GLOBAL_UNCERTAINTY_ASSIGNED_CONTEXT ( ( #112 ) ) GLOBAL_UNIT_ASSIGNED_CONTEXT ( ( #166, #249, #231 ) ) REPRESENTATION_CONTEXT ( 'NONE', 'WORKASPACE' ) );
#179 =( GEOMETRIC_REPRESENTATION_CONTEXT ( 3 ) GLOBAL_UNCERTAINTY_ASSIGNED_CONTEXT ( ( #173 ) ) GLOBAL_UNIT_ASSIGNED_CONTEXT ( ( #247, #126, #131 ) ) REPRESENTATION_CONTEXT ( 'NONE', 'WORKASPACE' ) );
#180 =( NAMED_UNIT ( * ) PLANE_ANGLE_UNIT ( ) SI_UNIT ( $, .RADIAN. ) );
#181 = PRESENTATION_STYLE_ASSIGNMENT (( #261 ) ) ;
#182 = EDGE_CURVE ( 'NONE', #111, #50, #265, .T. ) ;
#183 = VECTOR ( 'NONE', #192, 39.37007874015748143 ) ;
#184 = MECHANICAL_DESIGN_GEOMETRIC_PRESENTATION_REPRESENTATION (  '', ( #68 ), #179 ) ;
#185 = CARTESIAN_POINT ( 'NONE',  ( -6.123233995736772199E-17, 3.000000000000000444, 0.000000000000000000 ) ) ;
#186 = FILL_AREA_STYLE ('',( #212 ) ) ;
#187 = ORIENTED_EDGE ( 'NONE', *, *, #172, .F. ) ;
#188 = DIRECTION ( 'NONE',  ( -0.000000000000000000, -1.000000000000000000, -0.000000000000000000 ) ) ;
#189 = CLOSED_SHELL ( 'NONE', ( #147, #338, #269, #134, #347 ) ) ;
#190 = CARTESIAN_POINT ( 'NONE',  ( 1.836970198721030427E-16, 1.000000000000000000, 0.000000000000000000 ) ) ;
#191 = FACE_OUTER_BOUND ( 'NONE', #84, .T. ) ;
#192 = DIRECTION ( 'NONE',  ( -0.000000000000000000, -1.000000000000000000, -0.000000000000000000 ) ) ;
#193 = ORIENTED_EDGE ( 'NONE', *, *, #348, .F. ) ;
#194 = DIRECTION ( 'NONE',  ( 1.000000000000000000, 0.000000000000000000, 0.000000000000000000 ) ) ;
#195 = SURFACE_SIDE_STYLE ('',( #203 ) ) ;
#196 = COLOUR_RGB ( '',1.000000000000000000, 0.000000000000000000, 0.000000000000000000 ) ;
#197 = CIRCLE ( 'NONE', #230, 0.2499999999999999722 ) ;
#198 = ORIENTED_EDGE ( 'NONE', *, *, #176, .F. ) ;
#199 = CARTESIAN_POINT ( 'NONE',  ( 0.000000000000000000, 1.000000000000000000, 0.000000000000000000 ) ) ;
#200 = EDGE_CURVE ( 'NONE', #50, #70, #40, .T. ) ;
#201 = FILL_AREA_STYLE_COLOUR ( '', #270 ) ;
#202 = PRODUCT_DEFINITION_SHAPE ( 'NONE', 'NONE',  #175 ) ;
#203 = SURFACE_STYLE_FILL_AREA ( #160 ) ;
#204 = ORIENTED_EDGE ( 'NONE', *, *, #78, .T. ) ;
#205 = DIRECTION ( 'NONE',  ( -1.000000000000000000, 0.000000000000000000, 0.000000000000000000 ) ) ;
#206 = DIMENSIONAL_EXPONENTS ( 1.000000000000000000, 0.000000000000000000, 0.000000000000000000, 0.000000000000000000, 0.000000000000000000, 0.000000000000000000, 0.000000000000000000 ) ;
#207 = MECHANICAL_DESIGN_GEOMETRIC_PRESENTATION_REPRESENTATION (  '', ( #372 ), #229 ) ;
#208 = DIRECTION ( 'NONE',  ( -0.000000000000000000, -1.000000000000000000, -0.000000000000000000 ) ) ;
#209 = AXIS2_PLACEMENT_3D ( 'NONE', #334, #284, #251 ) ;
#210 = LINE ( 'NONE', #240, #1 ) ;
#211 = ADVANCED_FACE ( 'NONE', ( #12 ), #93, .F. ) ;
#212 = FILL_AREA_STYLE_COLOUR ( '', #292 ) ;
#213 = ORIENTED_EDGE ( 'NONE', *, *, #127, .T. ) ;
#214 = CARTESIAN_POINT ( 'NONE',  ( 0.000000000000000000, 0.2500000000000000555, 0.000000000000000000 ) ) ;
#215 = AXIS2_PLACEMENT_3D ( 'NONE', #326, #123, #267 ) ;
#216 = CARTESIAN_POINT ( 'NONE',  ( 3.061616997868381785E-17, 1.000000000000000000, 0.2499999999999998890 ) ) ;
#217 = LENGTH_MEASURE_WITH_UNIT ( LENGTH_MEASURE( 0.02539999999999999897 ), #337 );
#218 = ORIENTED_EDGE ( 'NONE', *, *, #78, .F. ) ;
#219 = DIRECTION ( 'NONE',  ( -0.000000000000000000, -1.000000000000000000, -0.000000000000000000 ) ) ;
#220 = ORIENTED_EDGE ( 'NONE', *, *, #234, .F. ) ;
#221 = DIRECTION ( 'NONE',  ( 0.000000000000000000, 0.000000000000000000, -1.000000000000000000 ) ) ;
#222 = AXIS2_PLACEMENT_3D ( 'NONE', #227, #310, #80 ) ;
#223 = COLOUR_RGB ( '',1.000000000000000000, 0.000000000000000000, 0.000000000000000000 ) ;
#224 = AXIS2_PLACEMENT_3D ( 'NONE', #359, #188, #306 ) ;
#225 = ORIENTED_EDGE ( 'NONE', *, *, #243, .F. ) ;
#226 = ORIENTED_EDGE ( 'NONE', *, *, #176, .T. ) ;
#227 = CARTESIAN_POINT ( 'NONE',  ( -6.123233995736772199E-17, 3.000000000000000444, 0.000000000000000000 ) ) ;
#228 = LENGTH_MEASURE_WITH_UNIT ( LENGTH_MEASURE( 0.02539999999999999897 ), #369 );
#229 =( GEOMETRIC_REPRESENTATION_CONTEXT ( 3 ) GLOBAL_UNCERTAINTY_ASSIGNED_CONTEXT ( ( #138 ) ) GLOBAL_UNIT_ASSIGNED_CONTEXT ( ( #81, #314, #132 ) ) REPRESENTATION_CONTEXT ( 'NONE', 'WORKASPACE' ) );
#230 = AXIS2_PLACEMENT_3D ( 'NONE', #140, #102, #15 ) ;
#231 =( NAMED_UNIT ( * ) SI_UNIT ( $, .STERADIAN. ) SOLID_ANGLE_UNIT ( ) );
#232 = PRODUCT_RELATED_PRODUCT_CATEGORY ( 'part', '', ( #254 ) ) ;
#233 = LENGTH_MEASURE_WITH_UNIT ( LENGTH_MEASURE( 0.02539999999999999897 ), #143 );
#234 = EDGE_CURVE ( 'NONE', #5, #252, #354, .T. ) ;
#235 =( NAMED_UNIT ( * ) SI_UNIT ( $, .STERADIAN. ) SOLID_ANGLE_UNIT ( ) );
#236 = CARTESIAN_POINT ( 'NONE',  ( -3.061616997868383018E-17, 0.2500000000000000000, 0.000000000000000000 ) ) ;
#237 = ORIENTED_EDGE ( 'NONE', *, *, #264, .T. ) ;
#238 = AXIS2_PLACEMENT_3D ( 'NONE', #48, #266, #351 ) ;
#239 = CARTESIAN_POINT ( 'NONE',  ( -3.061616997868383018E-17, 0.2500000000000000000, 0.000000000000000000 ) ) ;
#240 = CARTESIAN_POINT ( 'NONE',  ( -0.2499999999999999167, 3.000000000000000444, 0.000000000000000000 ) ) ;
#241 = ORIENTED_EDGE ( 'NONE', *, *, #182, .F. ) ;
#242 = STYLED_ITEM ( 'NONE', ( #47 ), #82 ) ;
#243 = EDGE_CURVE ( 'NONE', #95, #96, #150, .T. ) ;
#244 = EDGE_LOOP ( 'NONE', ( #363, #246, #74, #218 ) ) ;
#245 = PRESENTATION_STYLE_ASSIGNMENT (( #23 ) ) ;
#246 = ORIENTED_EDGE ( 'NONE', *, *, #46, .T. ) ;
#247 =( CONVERSION_BASED_UNIT ( 'INCH', #18 ) LENGTH_UNIT ( ) NAMED_UNIT ( #302 ) );
#248 =( NAMED_UNIT ( * ) SI_UNIT ( $, .STERADIAN. ) SOLID_ANGLE_UNIT ( ) );
#249 =( NAMED_UNIT ( * ) PLANE_ANGLE_UNIT ( ) SI_UNIT ( $, .RADIAN. ) );
#250 = AXIS2_PLACEMENT_3D ( 'NONE', #185, #296, #33 ) ;
#251 = DIRECTION ( 'NONE',  ( 0.000000000000000000, -0.000000000000000000, 1.000000000000000000 ) ) ;
#252 = VERTEX_POINT ( 'NONE', #322 ) ;
#253 = DIRECTION ( 'NONE',  ( -1.000000000000000000, -1.224646799147353700E-16, 0.000000000000000000 ) ) ;
#254 = PRODUCT ( '49271', '49271', '', ( #45 ) ) ;
#255 = UNCERTAINTY_MEASURE_WITH_UNIT (LENGTH_MEASURE( 1.000000000000000082E-05 ), #331, 'distance_accuracy_value', 'NONE');
#256 = FILL_AREA_STYLE ('',( #25 ) ) ;
#257 = FILL_AREA_STYLE ('',( #201 ) ) ;
#258 = AXIS2_PLACEMENT_3D ( 'NONE', #285, #163, #170 ) ;
#259 = ADVANCED_FACE ( 'NONE', ( #61 ), #356, .T. ) ;
#260 = AXIS2_PLACEMENT_3D ( 'NONE', #236, #98, #152 ) ;
#261 = SURFACE_STYLE_USAGE ( .BOTH. , #89 ) ;
#262 = DIMENSIONAL_EXPONENTS ( 1.000000000000000000, 0.000000000000000000, 0.000000000000000000, 0.000000000000000000, 0.000000000000000000, 0.000000000000000000, 0.000000000000000000 ) ;
#263 =( NAMED_UNIT ( * ) SI_UNIT ( $, .STERADIAN. ) SOLID_ANGLE_UNIT ( ) );
#264 = EDGE_CURVE ( 'NONE', #168, #95, #31, .T. ) ;
#265 = CIRCLE ( 'NONE', #108, 0.2499999999999997224 ) ;
#266 = DIRECTION ( 'NONE',  ( -0.000000000000000000, -1.000000000000000000, -0.000000000000000000 ) ) ;
#267 = DIRECTION ( 'NONE',  ( 1.000000000000000000, 0.000000000000000000, -1.224646799147353207E-16 ) ) ;
#268 = SURFACE_SIDE_STYLE ('',( #154 ) ) ;
#269 = ADVANCED_FACE ( 'NONE', ( #280 ), #106, .T. ) ;
#270 = COLOUR_RGB ( '',0.7921568627450980005, 0.8196078431372548767, 0.9333333333333333481 ) ;
#271 =( GEOMETRIC_REPRESENTATION_CONTEXT ( 3 ) GLOBAL_UNCERTAINTY_ASSIGNED_CONTEXT ( ( #51 ) ) GLOBAL_UNIT_ASSIGNED_CONTEXT ( ( #324, #122, #94 ) ) REPRESENTATION_CONTEXT ( 'NONE', 'WORKASPACE' ) );
#272 = DIRECTION ( 'NONE',  ( -1.000000000000000000, 0.000000000000000000, 0.000000000000000000 ) ) ;
#273 = VERTEX_POINT ( 'NONE', #19 ) ;
#274 = FILL_AREA_STYLE_COLOUR ( '', #320 ) ;
#275 = ORIENTED_EDGE ( 'NONE', *, *, #200, .T. ) ;
#276 = CARTESIAN_POINT ( 'NONE',  ( 0.2499999999999998057, 3.000000000000000444, 3.061616997868381785E-17 ) ) ;
#277 = SURFACE_STYLE_FILL_AREA ( #128 ) ;
#278 = STYLED_ITEM ( 'NONE', ( #52 ), #134 ) ;
#279 = AXIS2_PLACEMENT_3D ( 'NONE', #164, #17, #156 ) ;
#280 = FACE_OUTER_BOUND ( 'NONE', #370, .T. ) ;
#281 = SURFACE_SIDE_STYLE ('',( #313 ) ) ;
#282 = EDGE_CURVE ( 'NONE', #315, #70, #197, .T. ) ;
#283 = ORIENTED_EDGE ( 'NONE', *, *, #282, .T. ) ;
#284 = DIRECTION ( 'NONE',  ( 0.000000000000000000, 1.000000000000000000, 0.000000000000000000 ) ) ;
#285 = CARTESIAN_POINT ( 'NONE',  ( 0.000000000000000000, 0.2500000000000000555, 0.000000000000000000 ) ) ;
#286 = MECHANICAL_DESIGN_GEOMETRIC_PRESENTATION_REPRESENTATION (  '', ( #278 ), #137 ) ;
#287 = LENGTH_MEASURE_WITH_UNIT ( LENGTH_MEASURE( 0.02539999999999999897 ), #77 );
#288 = AXIS2_PLACEMENT_3D ( 'NONE', #54, #148, #221 ) ;
#289 = FACE_OUTER_BOUND ( 'NONE', #125, .T. ) ;
#290 = CARTESIAN_POINT ( 'NONE',  ( 0.2500000000000000000, 0.2500000000000000555, 0.000000000000000000 ) ) ;
#291 = SURFACE_STYLE_FILL_AREA ( #373 ) ;
#292 = COLOUR_RGB ( '',1.000000000000000000, 0.000000000000000000, 0.000000000000000000 ) ;
#293 = CARTESIAN_POINT ( 'NONE',  ( 0.000000000000000000, 0.2500000000000000555, -0.2500000000000000000 ) ) ;
#294 =( GEOMETRIC_REPRESENTATION_CONTEXT ( 3 ) GLOBAL_UNCERTAINTY_ASSIGNED_CONTEXT ( ( #368 ) ) GLOBAL_UNIT_ASSIGNED_CONTEXT ( ( #100, #65, #167 ) ) REPRESENTATION_CONTEXT ( 'NONE', 'WORKASPACE' ) );
#295 =( NAMED_UNIT ( * ) PLANE_ANGLE_UNIT ( ) SI_UNIT ( $, .RADIAN. ) );
#296 = DIRECTION ( 'NONE',  ( -1.224646799147353700E-16, 1.000000000000000000, -0.000000000000000000 ) ) ;
#297 = ADVANCED_BREP_SHAPE_REPRESENTATION ( '49271', ( #87, #82, #279 ), #294 ) ;
#298 = SURFACE_STYLE_USAGE ( .BOTH. , #268 ) ;
#299 = ORIENTED_EDGE ( 'NONE', *, *, #348, .T. ) ;
#300 = PRESENTATION_LAYER_ASSIGNMENT (  '', '', ( #278 ) ) ;
#301 = DIRECTION ( 'NONE',  ( -1.000000000000000000, 0.000000000000000000, 0.000000000000000000 ) ) ;
#302 = DIMENSIONAL_EXPONENTS ( 1.000000000000000000, 0.000000000000000000, 0.000000000000000000, 0.000000000000000000, 0.000000000000000000, 0.000000000000000000, 0.000000000000000000 ) ;
#303 = ORIENTED_EDGE ( 'NONE', *, *, #14, .T. ) ;
#304 = PRODUCT_DEFINITION_CONTEXT ( 'detailed design', #116, 'design' ) ;
#305 = DIRECTION ( 'NONE',  ( -1.224646799147353700E-16, 1.000000000000000000, -0.000000000000000000 ) ) ;
#306 = DIRECTION ( 'NONE',  ( 0.000000000000000000, 0.000000000000000000, -1.000000000000000000 ) ) ;
#307 = EDGE_LOOP ( 'NONE', ( #213, #226, #367, #193, #225 ) ) ;
#308 = AXIS2_PLACEMENT_3D ( 'NONE', #158, #362, #194 ) ;
#309 = PRESENTATION_STYLE_ASSIGNMENT (( #342 ) ) ;
#310 = DIRECTION ( 'NONE',  ( -1.224646799147353700E-16, 1.000000000000000000, -0.000000000000000000 ) ) ;
#311 = CYLINDRICAL_SURFACE ( 'NONE', #288, 0.2499999999999999167 ) ;
#312 = CARTESIAN_POINT ( 'NONE',  ( 1.836970198721030427E-16, 1.000000000000000000, 0.000000000000000000 ) ) ;
#313 = SURFACE_STYLE_FILL_AREA ( #257 ) ;
#314 =( NAMED_UNIT ( * ) PLANE_ANGLE_UNIT ( ) SI_UNIT ( $, .RADIAN. ) );
#315 = VERTEX_POINT ( 'NONE', #139 ) ;
#316 = SURFACE_STYLE_FILL_AREA ( #121 ) ;
#317 = CARTESIAN_POINT ( 'NONE',  ( -0.2499999999999995559, 1.000000000000000000, 0.000000000000000000 ) ) ;
#318 = AXIS2_PLACEMENT_3D ( 'NONE', #62, #129, #34 ) ;
#319 = CARTESIAN_POINT ( 'NONE',  ( 0.000000000000000000, 1.000000000000000000, 0.000000000000000000 ) ) ;
#320 = COLOUR_RGB ( '',1.000000000000000000, 0.000000000000000000, 0.000000000000000000 ) ;
#321 =( LENGTH_UNIT ( ) NAMED_UNIT ( * ) SI_UNIT ( $, .METRE. ) );
#322 = CARTESIAN_POINT ( 'NONE',  ( -1.530808498934191509E-17, 0.000000000000000000, 0.000000000000000000 ) ) ;
#323 = STYLED_ITEM ( 'NONE', ( #181 ), #87 ) ;
#324 =( CONVERSION_BASED_UNIT ( 'INCH', #328 ) LENGTH_UNIT ( ) NAMED_UNIT ( #162 ) );
#325 = FACE_OUTER_BOUND ( 'NONE', #366, .T. ) ;
#326 = CARTESIAN_POINT ( 'NONE',  ( -3.061616997868383018E-17, 0.2500000000000000000, 0.000000000000000000 ) ) ;
#327 = SURFACE_SIDE_STYLE ('',( #277 ) ) ;
#328 = LENGTH_MEASURE_WITH_UNIT ( LENGTH_MEASURE( 0.02539999999999999897 ), #4 );
#329 = ORIENTED_EDGE ( 'NONE', *, *, #264, .F. ) ;
#330 = APPLICATION_PROTOCOL_DEFINITION ( 'draft international standard', 'automotive_design', 1998, #73 ) ;
#331 =( CONVERSION_BASED_UNIT ( 'INCH', #287 ) LENGTH_UNIT ( ) NAMED_UNIT ( #360 ) );
#332 = ORIENTED_EDGE ( 'NONE', *, *, #46, .F. ) ;
#333 = PRESENTATION_STYLE_ASSIGNMENT (( #39 ) ) ;
#334 = CARTESIAN_POINT ( 'NONE',  ( 0.000000000000000000, 1.000000000000000000, 0.000000000000000000 ) ) ;
#335 = PLANE ( 'NONE',  #21 ) ;
#336 = AXIS2_PLACEMENT_3D ( 'NONE', #312, #110, #107 ) ;
#337 =( LENGTH_UNIT ( ) NAMED_UNIT ( * ) SI_UNIT ( $, .METRE. ) );
#338 = ADVANCED_FACE ( 'NONE', ( #109 ), #311, .T. ) ;
#339 =( GEOMETRIC_REPRESENTATION_CONTEXT ( 3 ) GLOBAL_UNCERTAINTY_ASSIGNED_CONTEXT ( ( #41 ) ) GLOBAL_UNIT_ASSIGNED_CONTEXT ( ( #120, #295, #235 ) ) REPRESENTATION_CONTEXT ( 'NONE', 'WORKASPACE' ) );
#340 = PRESENTATION_LAYER_ASSIGNMENT (  '', '', ( #13 ) ) ;
#341 = ORIENTED_EDGE ( 'NONE', *, *, #243, .T. ) ;
#342 = SURFACE_STYLE_USAGE ( .BOTH. , #195 ) ;
#343 = ORIENTED_EDGE ( 'NONE', *, *, #85, .F. ) ;
#344 = EDGE_LOOP ( 'NONE', ( #283, #204 ) ) ;
#345 = AXIS2_PLACEMENT_3D ( 'NONE', #214, #97, #11 ) ;
#346 = ORIENTED_EDGE ( 'NONE', *, *, #355, .T. ) ;
#347 = ADVANCED_FACE ( 'NONE', ( #191 ), #71, .T. ) ;
#348 = EDGE_CURVE ( 'NONE', #96, #5, #92, .T. ) ;
#349 =( CONVERSION_BASED_UNIT ( 'INCH', #233 ) LENGTH_UNIT ( ) NAMED_UNIT ( #29 ) );
#350 = COLOUR_RGB ( '',1.000000000000000000, 0.000000000000000000, 0.000000000000000000 ) ;
#351 = DIRECTION ( 'NONE',  ( 0.000000000000000000, 0.000000000000000000, -1.000000000000000000 ) ) ;
#352 = SURFACE_STYLE_USAGE ( .BOTH. , #177 ) ;
#353 = CARTESIAN_POINT ( 'NONE',  ( 3.061616997868382402E-17, 0.000000000000000000, 0.2499999999999999167 ) ) ;
#354 = CIRCLE ( 'NONE', #114, 0.2500000000000000000 ) ;
#355 = EDGE_CURVE ( 'NONE', #5, #273, #57, .T. ) ;
#356 = CYLINDRICAL_SURFACE ( 'NONE', #250, 0.2499999999999998612 ) ;
#357 = ORIENTED_EDGE ( 'NONE', *, *, #14, .F. ) ;
#358 = DIRECTION ( 'NONE',  ( 0.000000000000000000, 0.000000000000000000, -1.000000000000000000 ) ) ;
#359 = CARTESIAN_POINT ( 'NONE',  ( 0.000000000000000000, 0.2500000000000000555, 0.000000000000000000 ) ) ;
#360 = DIMENSIONAL_EXPONENTS ( 1.000000000000000000, 0.000000000000000000, 0.000000000000000000, 0.000000000000000000, 0.000000000000000000, 0.000000000000000000, 0.000000000000000000 ) ;
#361 = DIRECTION ( 'NONE',  ( -1.224646799147353700E-16, 1.000000000000000000, -0.000000000000000000 ) ) ;
#362 = DIRECTION ( 'NONE',  ( 0.000000000000000000, 0.000000000000000000, 1.000000000000000000 ) ) ;
#363 = ORIENTED_EDGE ( 'NONE', *, *, #200, .F. ) ;
#364 = APPLICATION_PROTOCOL_DEFINITION ( 'draft international standard', 'automotive_design', 1998, #116 ) ;
#365 = FILL_AREA_STYLE_COLOUR ( '', #196 ) ;
#366 = EDGE_LOOP ( 'NONE', ( #303, #10, #220, #346 ) ) ;
#367 = ORIENTED_EDGE ( 'NONE', *, *, #355, .F. ) ;
#368 = UNCERTAINTY_MEASURE_WITH_UNIT (LENGTH_MEASURE( 1.000000000000000082E-05 ), #100, 'distance_accuracy_value', 'NONE');
#369 =( LENGTH_UNIT ( ) NAMED_UNIT ( * ) SI_UNIT ( $, .METRE. ) );
#370 = EDGE_LOOP ( 'NONE', ( #36, #329 ) ) ;
#371 = CIRCLE ( 'NONE', #258, 0.2500000000000000000 ) ;
#372 = STYLED_ITEM ( 'NONE', ( #309 ), #269 ) ;
#373 = FILL_AREA_STYLE ('',( #55 ) ) ;
ENDSEC;
END-ISO-10303-21;
