ISO-10303-21;
HEADER;
FILE_DESCRIPTION (( 'STEP AP214' ),
    '1' );
FILE_NAME ('59581.STEP',
    '2023-07-24T15:12:37',
    ( '' ),
    ( '' ),
    'SwSTEP 2.0',
    'SolidWorks 2023',
    '' );
FILE_SCHEMA (( 'AUTOMOTIVE_DESIGN' ));
ENDSEC;

DATA;
#1 = PRESENTATION_STYLE_ASSIGNMENT (( #280 ) ) ;
#2 = DIRECTION ( 'NONE',  ( -0.000000000000000000, -1.000000000000000000, -0.000000000000000000 ) ) ;
#3 = FACE_OUTER_BOUND ( 'NONE', #274, .T. ) ;
#4 = PRESENTATION_STYLE_ASSIGNMENT (( #139 ) ) ;
#5 = ORIENTED_EDGE ( 'NONE', *, *, #182, .F. ) ;
#6 = ORIENTED_EDGE ( 'NONE', *, *, #119, .T. ) ;
#7 = COLOUR_RGB ( '',1.000000000000000000, 0.000000000000000000, 0.000000000000000000 ) ;
#8 = ADVANCED_FACE ( 'NONE', ( #192 ), #84, .F. ) ;
#9 = CARTESIAN_POINT ( 'NONE',  ( 0.000000000000000000, 0.000000000000000000, -4.500000000000000888 ) ) ;
#10 =( LENGTH_UNIT ( ) NAMED_UNIT ( * ) SI_UNIT ( .MILLI., .METRE. ) );
#11 = DIRECTION ( 'NONE',  ( -0.000000000000000000, -1.000000000000000000, -0.000000000000000000 ) ) ;
#12 = ORIENTED_EDGE ( 'NONE', *, *, #147, .T. ) ;
#13 = FILL_AREA_STYLE_COLOUR ( '', #238 ) ;
#14 = EDGE_LOOP ( 'NONE', ( #79, #6, #352, #257 ) ) ;
#15 = AXIS2_PLACEMENT_3D ( 'NONE', #215, #11, #76 ) ;
#16 = STYLED_ITEM ( 'NONE', ( #254 ), #296 ) ;
#17 = CARTESIAN_POINT ( 'NONE',  ( 0.000000000000000000, 0.000000000000000000, 0.000000000000000000 ) ) ;
#18 = FACE_OUTER_BOUND ( 'NONE', #202, .T. ) ;
#19 = DIRECTION ( 'NONE',  ( -0.000000000000000000, -1.000000000000000000, -0.000000000000000000 ) ) ;
#20 = FILL_AREA_STYLE_COLOUR ( '', #133 ) ;
#21 = CARTESIAN_POINT ( 'NONE',  ( 0.000000000000000000, 0.5000000000000000000, -5.000000000000000000 ) ) ;
#22 = ORIENTED_EDGE ( 'NONE', *, *, #119, .F. ) ;
#23 = PRODUCT_DEFINITION_FORMATION_WITH_SPECIFIED_SOURCE ( 'ANY', '', #353, .NOT_KNOWN. ) ;
#24 = DIRECTION ( 'NONE',  ( 0.000000000000000000, 0.000000000000000000, -1.000000000000000000 ) ) ;
#25 = CARTESIAN_POINT ( 'NONE',  ( 6.123233995736766282E-16, 0.000000000000000000, 5.000000000000000000 ) ) ;
#26 = DIRECTION ( 'NONE',  ( -0.000000000000000000, -1.000000000000000000, -0.000000000000000000 ) ) ;
#27 = EDGE_CURVE ( 'NONE', #169, #95, #42, .T. ) ;
#28 = SURFACE_STYLE_FILL_AREA ( #287 ) ;
#29 = DIRECTION ( 'NONE',  ( 0.000000000000000000, 0.000000000000000000, -1.000000000000000000 ) ) ;
#30 = CARTESIAN_POINT ( 'NONE',  ( -4.999999999999987566, 15.00000000000000000, 0.000000000000000000 ) ) ;
#31 = DIRECTION ( 'NONE',  ( -0.000000000000000000, -1.000000000000000000, -0.000000000000000000 ) ) ;
#32 = AXIS2_PLACEMENT_3D ( 'NONE', #367, #286, #62 ) ;
#33 = PLANE ( 'NONE',  #205 ) ;
#34 = VERTEX_POINT ( 'NONE', #30 ) ;
#35 = MECHANICAL_DESIGN_GEOMETRIC_PRESENTATION_REPRESENTATION (  '', ( #358 ), #181 ) ;
#36 = CARTESIAN_POINT ( 'NONE',  ( 5.854691731421723944E-15, 15.00000000000000000, 0.000000000000000000 ) ) ;
#37 = ADVANCED_FACE ( 'NONE', ( #3 ), #66, .T. ) ;
#38 = PRODUCT_DEFINITION_SHAPE ( 'NONE', 'NONE',  #249 ) ;
#39 = PRESENTATION_LAYER_ASSIGNMENT (  '', '', ( #270 ) ) ;
#40 = DIRECTION ( 'NONE',  ( 0.000000000000000000, 0.000000000000000000, -1.000000000000000000 ) ) ;
#41 = SURFACE_SIDE_STYLE ('',( #273 ) ) ;
#42 = CIRCLE ( 'NONE', #335, 5.000000000000000000 ) ;
#43 = APPLICATION_PROTOCOL_DEFINITION ( 'draft international standard', 'automotive_design', 1998, #216 ) ;
#44 = CARTESIAN_POINT ( 'NONE',  ( 5.510910596163089556E-16, 0.5000000000000000000, 4.500000000000000888 ) ) ;
#45 =( NAMED_UNIT ( * ) SI_UNIT ( $, .STERADIAN. ) SOLID_ANGLE_UNIT ( ) );
#46 = CARTESIAN_POINT ( 'NONE',  ( 0.000000000000000000, 15.00000000000000000, 0.000000000000000000 ) ) ;
#47 = PRODUCT_RELATED_PRODUCT_CATEGORY ( 'part', '', ( #353 ) ) ;
#48 = PRESENTATION_LAYER_ASSIGNMENT (  '', '', ( #208 ) ) ;
#49 = PLANE ( 'NONE',  #272 ) ;
#50 = UNCERTAINTY_MEASURE_WITH_UNIT (LENGTH_MEASURE( 1.000000000000000082E-05 ), #318, 'distance_accuracy_value', 'NONE');
#51 = DIRECTION ( 'NONE',  ( 0.000000000000000000, 0.000000000000000000, -1.000000000000000000 ) ) ;
#52 = ORIENTED_EDGE ( 'NONE', *, *, #112, .F. ) ;
#53 = CARTESIAN_POINT ( 'NONE',  ( 0.000000000000000000, 0.000000000000000000, 0.000000000000000000 ) ) ;
#54 = DIRECTION ( 'NONE',  ( 0.000000000000000000, 0.000000000000000000, -1.000000000000000000 ) ) ;
#55 = VERTEX_POINT ( 'NONE', #165 ) ;
#56 = COLOUR_RGB ( '',1.000000000000000000, 0.000000000000000000, 0.000000000000000000 ) ;
#57 = DIRECTION ( 'NONE',  ( 0.000000000000000000, 0.000000000000000000, -1.000000000000000000 ) ) ;
#58 = DIRECTION ( 'NONE',  ( 0.000000000000000000, 0.000000000000000000, -1.000000000000000000 ) ) ;
#59 =( NAMED_UNIT ( * ) PLANE_ANGLE_UNIT ( ) SI_UNIT ( $, .RADIAN. ) );
#60 = DIRECTION ( 'NONE',  ( -0.000000000000000000, -1.000000000000000000, -0.000000000000000000 ) ) ;
#61 = FILL_AREA_STYLE ('',( #198 ) ) ;
#62 = DIRECTION ( 'NONE',  ( 1.000000000000000000, 9.135657442593541248E-17, 0.000000000000000000 ) ) ;
#63 = FACE_OUTER_BOUND ( 'NONE', #264, .T. ) ;
#64 = DIRECTION ( 'NONE',  ( -9.135657442593541248E-17, 1.000000000000000000, -0.000000000000000000 ) ) ;
#65 = ORIENTED_EDGE ( 'NONE', *, *, #112, .T. ) ;
#66 = TOROIDAL_SURFACE ( 'NONE', #162, 4.500000000000000888, 0.4999999999999997780 ) ;
#67 = TOROIDAL_SURFACE ( 'NONE', #301, 4.500000000000000888, 0.4999999999999997780 ) ;
#68 = CIRCLE ( 'NONE', #97, 4.999999999999998224 ) ;
#69 = EDGE_CURVE ( 'NONE', #55, #154, #200, .T. ) ;
#70 = DIRECTION ( 'NONE',  ( -9.135657442593541248E-17, 1.000000000000000000, -0.000000000000000000 ) ) ;
#71 = AXIS2_PLACEMENT_3D ( 'NONE', #156, #213, #302 ) ;
#72 = AXIS2_PLACEMENT_3D ( 'NONE', #266, #2, #54 ) ;
#73 =( NAMED_UNIT ( * ) SI_UNIT ( $, .STERADIAN. ) SOLID_ANGLE_UNIT ( ) );
#74 = ADVANCED_FACE ( 'NONE', ( #63 ), #292, .T. ) ;
#75 = MANIFOLD_SOLID_BREP ( 'Revolve - Cutting Edge', #268 ) ;
#76 = DIRECTION ( 'NONE',  ( 0.000000000000000000, 0.000000000000000000, -1.000000000000000000 ) ) ;
#77 = MECHANICAL_DESIGN_GEOMETRIC_PRESENTATION_REPRESENTATION (  '', ( #96 ), #355 ) ;
#78 = CARTESIAN_POINT ( 'NONE',  ( 5.854691731421723944E-15, 15.00000000000000000, 0.000000000000000000 ) ) ;
#79 = ORIENTED_EDGE ( 'NONE', *, *, #225, .F. ) ;
#80 = ADVANCED_FACE ( 'NONE', ( #152 ), #103, .T. ) ;
#81 = DIRECTION ( 'NONE',  ( -9.135657442593541248E-17, 1.000000000000000000, -0.000000000000000000 ) ) ;
#82 = ORIENTED_EDGE ( 'NONE', *, *, #89, .F. ) ;
#83 = FILL_AREA_STYLE_COLOUR ( '', #177 ) ;
#84 = PLANE ( 'NONE',  #32 ) ;
#85 = CIRCLE ( 'NONE', #187, 4.999999999999998224 ) ;
#86 = STYLED_ITEM ( 'NONE', ( #4 ), #235 ) ;
#87 = DIRECTION ( 'NONE',  ( 0.000000000000000000, 0.000000000000000000, -1.000000000000000000 ) ) ;
#88 = SURFACE_STYLE_FILL_AREA ( #261 ) ;
#89 = EDGE_CURVE ( 'NONE', #293, #169, #252, .T. ) ;
#90 =( NAMED_UNIT ( * ) PLANE_ANGLE_UNIT ( ) SI_UNIT ( $, .RADIAN. ) );
#91 = DIRECTION ( 'NONE',  ( 0.000000000000000000, 0.000000000000000000, -1.000000000000000000 ) ) ;
#92 = DIRECTION ( 'NONE',  ( -1.000000000000000000, 0.000000000000000000, 0.000000000000000000 ) ) ;
#93 = ORIENTED_EDGE ( 'NONE', *, *, #69, .T. ) ;
#94 = CARTESIAN_POINT ( 'NONE',  ( 5.854691731421723944E-15, 15.00000000000000000, 0.000000000000000000 ) ) ;
#95 = VERTEX_POINT ( 'NONE', #279 ) ;
#96 = STYLED_ITEM ( 'NONE', ( #370 ), #37 ) ;
#97 = AXIS2_PLACEMENT_3D ( 'NONE', #107, #81, #309 ) ;
#98 =( NAMED_UNIT ( * ) SI_UNIT ( $, .STERADIAN. ) SOLID_ANGLE_UNIT ( ) );
#99 =( NAMED_UNIT ( * ) PLANE_ANGLE_UNIT ( ) SI_UNIT ( $, .RADIAN. ) );
#100 = PRESENTATION_LAYER_ASSIGNMENT (  '', '', ( #140 ) ) ;
#101 = COLOUR_RGB ( '',0.7921568627450980005, 0.8196078431372548767, 0.9333333333333333481 ) ;
#102 = EDGE_CURVE ( 'NONE', #95, #227, #176, .T. ) ;
#103 = CYLINDRICAL_SURFACE ( 'NONE', #71, 4.999999999999995559 ) ;
#104 = ORIENTED_EDGE ( 'NONE', *, *, #27, .T. ) ;
#105 = AXIS2_PLACEMENT_3D ( 'NONE', #94, #295, #236 ) ;
#106 = EDGE_CURVE ( 'NONE', #293, #116, #285, .T. ) ;
#107 = CARTESIAN_POINT ( 'NONE',  ( 1.469576158976823750E-15, 63.00000000000000000, 0.000000000000000000 ) ) ;
#108 =( NAMED_UNIT ( * ) SI_UNIT ( $, .STERADIAN. ) SOLID_ANGLE_UNIT ( ) );
#109 =( NAMED_UNIT ( * ) PLANE_ANGLE_UNIT ( ) SI_UNIT ( $, .RADIAN. ) );
#110 = ORIENTED_EDGE ( 'NONE', *, *, #357, .F. ) ;
#111 = SURFACE_STYLE_USAGE ( .BOTH. , #262 ) ;
#112 = EDGE_CURVE ( 'NONE', #34, #158, #186, .T. ) ;
#113 = DIRECTION ( 'NONE',  ( -9.135657442593541248E-17, 1.000000000000000000, -0.000000000000000000 ) ) ;
#114 = ORIENTED_EDGE ( 'NONE', *, *, #102, .F. ) ;
#115 = CIRCLE ( 'NONE', #242, 4.500000000000000888 ) ;
#116 = VERTEX_POINT ( 'NONE', #209 ) ;
#117 = EDGE_LOOP ( 'NONE', ( #5, #110 ) ) ;
#118 =( NAMED_UNIT ( * ) PLANE_ANGLE_UNIT ( ) SI_UNIT ( $, .RADIAN. ) );
#119 = EDGE_CURVE ( 'NONE', #116, #293, #363, .T. ) ;
#120 =( NAMED_UNIT ( * ) PLANE_ANGLE_UNIT ( ) SI_UNIT ( $, .RADIAN. ) );
#121 = APPLICATION_PROTOCOL_DEFINITION ( 'draft international standard', 'automotive_design', 1998, #241 ) ;
#122 = AXIS2_PLACEMENT_3D ( 'NONE', #17, #333, #40 ) ;
#123 = CIRCLE ( 'NONE', #145, 4.999999999999993783 ) ;
#124 =( NAMED_UNIT ( * ) SI_UNIT ( $, .STERADIAN. ) SOLID_ANGLE_UNIT ( ) );
#125 = SURFACE_STYLE_USAGE ( .BOTH. , #41 ) ;
#126 = SURFACE_STYLE_USAGE ( .BOTH. , #180 ) ;
#127 = FILL_AREA_STYLE ('',( #83 ) ) ;
#128 = UNCERTAINTY_MEASURE_WITH_UNIT (LENGTH_MEASURE( 1.000000000000000082E-05 ), #243, 'distance_accuracy_value', 'NONE');
#129 = DIRECTION ( 'NONE',  ( -9.135657442593541248E-17, 1.000000000000000000, -0.000000000000000000 ) ) ;
#130 = ADVANCED_FACE ( 'NONE', ( #341 ), #137, .T. ) ;
#131 = EDGE_LOOP ( 'NONE', ( #218, #269 ) ) ;
#132 = MECHANICAL_DESIGN_GEOMETRIC_PRESENTATION_REPRESENTATION (  '', ( #140 ), #247 ) ;
#133 = COLOUR_RGB ( '',1.000000000000000000, 0.000000000000000000, 0.000000000000000000 ) ;
#134 = DIRECTION ( 'NONE',  ( -1.000000000000000000, 0.000000000000000000, 0.000000000000000000 ) ) ;
#135 = FILL_AREA_STYLE_COLOUR ( '', #7 ) ;
#136 = EDGE_CURVE ( 'NONE', #158, #154, #85, .T. ) ;
#137 = CYLINDRICAL_SURFACE ( 'NONE', #277, 5.000000000000000000 ) ;
#138 = ORIENTED_EDGE ( 'NONE', *, *, #225, .T. ) ;
#139 = SURFACE_STYLE_USAGE ( .BOTH. , #290 ) ;
#140 = STYLED_ITEM ( 'NONE', ( #201 ), #130 ) ;
#141 = PRESENTATION_LAYER_ASSIGNMENT (  '', '', ( #16 ) ) ;
#142 = ORIENTED_EDGE ( 'NONE', *, *, #303, .T. ) ;
#143 =( NAMED_UNIT ( * ) SI_UNIT ( $, .STERADIAN. ) SOLID_ANGLE_UNIT ( ) );
#144 = VECTOR ( 'NONE', #317, 1000.000000000000000 ) ;
#145 = AXIS2_PLACEMENT_3D ( 'NONE', #78, #113, #134 ) ;
#146 = PRODUCT_DEFINITION_CONTEXT ( 'detailed design', #216, 'design' ) ;
#147 = EDGE_CURVE ( 'NONE', #227, #339, #115, .T. ) ;
#148 = CARTESIAN_POINT ( 'NONE',  ( 0.000000000000000000, 15.00000000000000000, -5.000000000000000000 ) ) ;
#149 =( GEOMETRIC_REPRESENTATION_CONTEXT ( 3 ) GLOBAL_UNCERTAINTY_ASSIGNED_CONTEXT ( ( #128 ) ) GLOBAL_UNIT_ASSIGNED_CONTEXT ( ( #243, #332, #73 ) ) REPRESENTATION_CONTEXT ( 'NONE', 'WORKASPACE' ) );
#150 = AXIS2_PLACEMENT_3D ( 'NONE', #36, #354, #351 ) ;
#151 = PRESENTATION_STYLE_ASSIGNMENT (( #125 ) ) ;
#152 = FACE_OUTER_BOUND ( 'NONE', #319, .T. ) ;
#153 = CARTESIAN_POINT ( 'NONE',  ( 0.000000000000000000, 15.00000000000000000, 0.000000000000000000 ) ) ;
#154 = VERTEX_POINT ( 'NONE', #338 ) ;
#155 = CIRCLE ( 'NONE', #163, 0.4999999999999995559 ) ;
#156 = CARTESIAN_POINT ( 'NONE',  ( 1.469576158976823750E-15, 63.00000000000000000, 0.000000000000000000 ) ) ;
#157 =( LENGTH_UNIT ( ) NAMED_UNIT ( * ) SI_UNIT ( .MILLI., .METRE. ) );
#158 = VERTEX_POINT ( 'NONE', #164 ) ;
#159 = DIRECTION ( 'NONE',  ( -0.000000000000000000, -1.000000000000000000, -0.000000000000000000 ) ) ;
#160 = LINE ( 'NONE', #25, #173 ) ;
#161 = EDGE_LOOP ( 'NONE', ( #291, #138, #282, #82 ) ) ;
#162 = AXIS2_PLACEMENT_3D ( 'NONE', #350, #60, #91 ) ;
#163 = AXIS2_PLACEMENT_3D ( 'NONE', #365, #233, #336 ) ;
#164 = CARTESIAN_POINT ( 'NONE',  ( -4.999999999999996447, 63.00000000000000000, 0.000000000000000000 ) ) ;
#165 = CARTESIAN_POINT ( 'NONE',  ( 5.000000000000000000, 15.00000000000000000, 6.123233995736762338E-16 ) ) ;
#166 =( LENGTH_UNIT ( ) NAMED_UNIT ( * ) SI_UNIT ( .MILLI., .METRE. ) );
#167 = CARTESIAN_POINT ( 'NONE',  ( 4.999999999999997335, 63.00000000000000000, 6.123233995736761352E-16 ) ) ;
#168 = SURFACE_STYLE_FILL_AREA ( #61 ) ;
#169 = VERTEX_POINT ( 'NONE', #21 ) ;
#170 = SURFACE_STYLE_FILL_AREA ( #344 ) ;
#171 = EDGE_LOOP ( 'NONE', ( #221, #12 ) ) ;
#172 = AXIS2_PLACEMENT_3D ( 'NONE', #300, #70, #327 ) ;
#173 = VECTOR ( 'NONE', #260, 1000.000000000000000 ) ;
#174 = FACE_OUTER_BOUND ( 'NONE', #117, .T. ) ;
#175 = EDGE_CURVE ( 'NONE', #339, #227, #349, .T. ) ;
#176 = CIRCLE ( 'NONE', #255, 0.4999999999999995559 ) ;
#177 = COLOUR_RGB ( '',1.000000000000000000, 0.000000000000000000, 0.000000000000000000 ) ;
#178 = FACE_OUTER_BOUND ( 'NONE', #14, .T. ) ;
#179 = STYLED_ITEM ( 'NONE', ( #151 ), #75 ) ;
#180 = SURFACE_SIDE_STYLE ('',( #326 ) ) ;
#181 =( GEOMETRIC_REPRESENTATION_CONTEXT ( 3 ) GLOBAL_UNCERTAINTY_ASSIGNED_CONTEXT ( ( #240 ) ) GLOBAL_UNIT_ASSIGNED_CONTEXT ( ( #265, #90, #143 ) ) REPRESENTATION_CONTEXT ( 'NONE', 'WORKASPACE' ) );
#182 = EDGE_CURVE ( 'NONE', #34, #55, #123, .T. ) ;
#183 = FILL_AREA_STYLE ('',( #13 ) ) ;
#184 = FILL_AREA_STYLE_COLOUR ( '', #258 ) ;
#185 =( NAMED_UNIT ( * ) SI_UNIT ( $, .STERADIAN. ) SOLID_ANGLE_UNIT ( ) );
#186 = LINE ( 'NONE', #360, #231 ) ;
#187 = AXIS2_PLACEMENT_3D ( 'NONE', #307, #64, #92 ) ;
#188 = PRESENTATION_LAYER_ASSIGNMENT (  '', '', ( #358 ) ) ;
#189 = FACE_OUTER_BOUND ( 'NONE', #171, .T. ) ;
#190 = SURFACE_STYLE_USAGE ( .BOTH. , #256 ) ;
#191 = FILL_AREA_STYLE_COLOUR ( '', #56 ) ;
#192 = FACE_OUTER_BOUND ( 'NONE', #131, .T. ) ;
#193 = SURFACE_STYLE_FILL_AREA ( #343 ) ;
#194 = DIRECTION ( 'NONE',  ( -0.000000000000000000, -1.000000000000000000, -0.000000000000000000 ) ) ;
#195 = ORIENTED_EDGE ( 'NONE', *, *, #69, .F. ) ;
#196 =( GEOMETRIC_REPRESENTATION_CONTEXT ( 3 ) GLOBAL_UNCERTAINTY_ASSIGNED_CONTEXT ( ( #50 ) ) GLOBAL_UNIT_ASSIGNED_CONTEXT ( ( #318, #99, #124 ) ) REPRESENTATION_CONTEXT ( 'NONE', 'WORKASPACE' ) );
#197 =( NAMED_UNIT ( * ) PLANE_ANGLE_UNIT ( ) SI_UNIT ( $, .RADIAN. ) );
#198 = FILL_AREA_STYLE_COLOUR ( '', #306 ) ;
#199 = SURFACE_SIDE_STYLE ('',( #88 ) ) ;
#200 = LINE ( 'NONE', #167, #144 ) ;
#201 = PRESENTATION_STYLE_ASSIGNMENT (( #190 ) ) ;
#202 = EDGE_LOOP ( 'NONE', ( #114, #276, #142, #246 ) ) ;
#203 =( LENGTH_UNIT ( ) NAMED_UNIT ( * ) SI_UNIT ( .MILLI., .METRE. ) );
#204 = ORIENTED_EDGE ( 'NONE', *, *, #106, .F. ) ;
#205 = AXIS2_PLACEMENT_3D ( 'NONE', #153, #359, #330 ) ;
#206 = EDGE_CURVE ( 'NONE', #154, #158, #68, .T. ) ;
#207 = UNCERTAINTY_MEASURE_WITH_UNIT (LENGTH_MEASURE( 1.000000000000000082E-05 ), #203, 'distance_accuracy_value', 'NONE');
#208 = STYLED_ITEM ( 'NONE', ( #1 ), #314 ) ;
#209 = CARTESIAN_POINT ( 'NONE',  ( 6.123233995736766282E-16, 15.00000000000000000, 5.000000000000000000 ) ) ;
#210 = PRODUCT_CONTEXT ( 'NONE', #241, 'mechanical' ) ;
#211 = EDGE_CURVE ( 'NONE', #95, #169, #337, .T. ) ;
#212 = CYLINDRICAL_SURFACE ( 'NONE', #122, 5.000000000000000000 ) ;
#213 = DIRECTION ( 'NONE',  ( -9.135657442593541248E-17, 1.000000000000000000, -0.000000000000000000 ) ) ;
#214 = MECHANICAL_DESIGN_GEOMETRIC_PRESENTATION_REPRESENTATION (  '', ( #179 ), #149 ) ;
#215 = CARTESIAN_POINT ( 'NONE',  ( 0.000000000000000000, 15.00000000000000000, 0.000000000000000000 ) ) ;
#216 = APPLICATION_CONTEXT ( 'automotive_design' ) ;
#217 = DIRECTION ( 'NONE',  ( 1.000000000000000000, 0.000000000000000000, -1.224646799147353207E-16 ) ) ;
#218 = ORIENTED_EDGE ( 'NONE', *, *, #136, .T. ) ;
#219 = VECTOR ( 'NONE', #19, 1000.000000000000000 ) ;
#220 = DIRECTION ( 'NONE',  ( -0.000000000000000000, -1.000000000000000000, -0.000000000000000000 ) ) ;
#221 = ORIENTED_EDGE ( 'NONE', *, *, #175, .T. ) ;
#222 =( GEOMETRIC_REPRESENTATION_CONTEXT ( 3 ) GLOBAL_UNCERTAINTY_ASSIGNED_CONTEXT ( ( #278 ) ) GLOBAL_UNIT_ASSIGNED_CONTEXT ( ( #10, #251, #45 ) ) REPRESENTATION_CONTEXT ( 'NONE', 'WORKASPACE' ) );
#223 = CARTESIAN_POINT ( 'NONE',  ( 0.000000000000000000, 0.5000000000000000000, 0.000000000000000000 ) ) ;
#224 = FILL_AREA_STYLE_COLOUR ( '', #101 ) ;
#225 = EDGE_CURVE ( 'NONE', #116, #95, #160, .T. ) ;
#226 = CARTESIAN_POINT ( 'NONE',  ( 0.000000000000000000, 0.000000000000000000, 0.000000000000000000 ) ) ;
#227 = VERTEX_POINT ( 'NONE', #369 ) ;
#228 = PRESENTATION_STYLE_ASSIGNMENT (( #111 ) ) ;
#229 = FACE_OUTER_BOUND ( 'NONE', #345, .T. ) ;
#230 = ORIENTED_EDGE ( 'NONE', *, *, #136, .F. ) ;
#231 = VECTOR ( 'NONE', #129, 1000.000000000000000 ) ;
#232 = MECHANICAL_DESIGN_GEOMETRIC_PRESENTATION_REPRESENTATION (  '', ( #16 ), #294 ) ;
#233 = DIRECTION ( 'NONE',  ( -1.000000000000000000, 0.000000000000000000, 0.000000000000000000 ) ) ;
#234 = CARTESIAN_POINT ( 'NONE',  ( 0.000000000000000000, 0.000000000000000000, 0.000000000000000000 ) ) ;
#235 = ADVANCED_FACE ( 'NONE', ( #229 ), #33, .T. ) ;
#236 = DIRECTION ( 'NONE',  ( -1.000000000000000000, -9.135657442593541248E-17, 0.000000000000000000 ) ) ;
#237 = ORIENTED_EDGE ( 'NONE', *, *, #357, .T. ) ;
#238 = COLOUR_RGB ( '',0.7921568627450980005, 0.8196078431372548767, 0.9333333333333333481 ) ;
#239 =( GEOMETRIC_REPRESENTATION_CONTEXT ( 3 ) GLOBAL_UNCERTAINTY_ASSIGNED_CONTEXT ( ( #356 ) ) GLOBAL_UNIT_ASSIGNED_CONTEXT ( ( #166, #59, #340 ) ) REPRESENTATION_CONTEXT ( 'NONE', 'WORKASPACE' ) );
#240 = UNCERTAINTY_MEASURE_WITH_UNIT (LENGTH_MEASURE( 1.000000000000000082E-05 ), #265, 'distance_accuracy_value', 'NONE');
#241 = APPLICATION_CONTEXT ( 'automotive_design' ) ;
#242 = AXIS2_PLACEMENT_3D ( 'NONE', #234, #220, #87 ) ;
#243 =( LENGTH_UNIT ( ) NAMED_UNIT ( * ) SI_UNIT ( .MILLI., .METRE. ) );
#244 = CARTESIAN_POINT ( 'NONE',  ( 0.000000000000000000, 0.000000000000000000, 0.000000000000000000 ) ) ;
#245 = DIRECTION ( 'NONE',  ( -1.224646799147353454E-16, 0.000000000000000000, -1.000000000000000000 ) ) ;
#246 = ORIENTED_EDGE ( 'NONE', *, *, #147, .F. ) ;
#247 =( GEOMETRIC_REPRESENTATION_CONTEXT ( 3 ) GLOBAL_UNCERTAINTY_ASSIGNED_CONTEXT ( ( #362 ) ) GLOBAL_UNIT_ASSIGNED_CONTEXT ( ( #157, #109, #281 ) ) REPRESENTATION_CONTEXT ( 'NONE', 'WORKASPACE' ) );
#248 = PRESENTATION_STYLE_ASSIGNMENT (( #126 ) ) ;
#249 = PRODUCT_DEFINITION ( 'UNKNOWN', '', #23, #146 ) ;
#250 = MECHANICAL_DESIGN_GEOMETRIC_PRESENTATION_REPRESENTATION (  '', ( #270 ), #222 ) ;
#251 =( NAMED_UNIT ( * ) PLANE_ANGLE_UNIT ( ) SI_UNIT ( $, .RADIAN. ) );
#252 = LINE ( 'NONE', #304, #219 ) ;
#253 = SURFACE_SIDE_STYLE ('',( #311 ) ) ;
#254 = PRESENTATION_STYLE_ASSIGNMENT (( #308 ) ) ;
#255 = AXIS2_PLACEMENT_3D ( 'NONE', #44, #217, #245 ) ;
#256 = SURFACE_SIDE_STYLE ('',( #170 ) ) ;
#257 = ORIENTED_EDGE ( 'NONE', *, *, #211, .F. ) ;
#258 = COLOUR_RGB ( '',1.000000000000000000, 0.000000000000000000, 0.000000000000000000 ) ;
#259 = PLANE ( 'NONE',  #105 ) ;
#260 = DIRECTION ( 'NONE',  ( -0.000000000000000000, -1.000000000000000000, -0.000000000000000000 ) ) ;
#261 = FILL_AREA_STYLE ('',( #135 ) ) ;
#262 = SURFACE_SIDE_STYLE ('',( #193 ) ) ;
#263 = DIRECTION ( 'NONE',  ( 0.000000000000000000, 0.000000000000000000, -1.000000000000000000 ) ) ;
#264 = EDGE_LOOP ( 'NONE', ( #195, #237, #65, #289 ) ) ;
#265 =( LENGTH_UNIT ( ) NAMED_UNIT ( * ) SI_UNIT ( .MILLI., .METRE. ) );
#266 = CARTESIAN_POINT ( 'NONE',  ( 0.000000000000000000, 0.5000000000000000000, 0.000000000000000000 ) ) ;
#267 =( LENGTH_UNIT ( ) NAMED_UNIT ( * ) SI_UNIT ( .MILLI., .METRE. ) );
#268 = CLOSED_SHELL ( 'NONE', ( #130, #37, #314, #296, #283, #235 ) ) ;
#269 = ORIENTED_EDGE ( 'NONE', *, *, #206, .T. ) ;
#270 = STYLED_ITEM ( 'NONE', ( #248 ), #283 ) ;
#271 = ADVANCED_BREP_SHAPE_REPRESENTATION ( '59581', ( #75, #325, #347 ), #313 ) ;
#272 = AXIS2_PLACEMENT_3D ( 'NONE', #53, #284, #24 ) ;
#273 = SURFACE_STYLE_FILL_AREA ( #183 ) ;
#274 = EDGE_LOOP ( 'NONE', ( #104, #348, #312, #342 ) ) ;
#275 = FILL_AREA_STYLE ('',( #184 ) ) ;
#276 = ORIENTED_EDGE ( 'NONE', *, *, #211, .T. ) ;
#277 = AXIS2_PLACEMENT_3D ( 'NONE', #226, #194, #263 ) ;
#278 = UNCERTAINTY_MEASURE_WITH_UNIT (LENGTH_MEASURE( 1.000000000000000082E-05 ), #10, 'distance_accuracy_value', 'NONE');
#279 = CARTESIAN_POINT ( 'NONE',  ( 6.123233995736766282E-16, 0.5000000000000000000, 5.000000000000000000 ) ) ;
#280 = SURFACE_STYLE_USAGE ( .BOTH. , #346 ) ;
#281 =( NAMED_UNIT ( * ) SI_UNIT ( $, .STERADIAN. ) SOLID_ANGLE_UNIT ( ) );
#282 = ORIENTED_EDGE ( 'NONE', *, *, #27, .F. ) ;
#283 = ADVANCED_FACE ( 'NONE', ( #178 ), #212, .T. ) ;
#284 = DIRECTION ( 'NONE',  ( 0.000000000000000000, -1.000000000000000000, -0.000000000000000000 ) ) ;
#285 = CIRCLE ( 'NONE', #15, 5.000000000000000000 ) ;
#286 = DIRECTION ( 'NONE',  ( 9.135657442593541248E-17, -1.000000000000000000, 0.000000000000000000 ) ) ;
#287 = FILL_AREA_STYLE ('',( #20 ) ) ;
#288 = DIRECTION ( 'NONE',  ( -0.000000000000000000, -1.000000000000000000, -0.000000000000000000 ) ) ;
#289 = ORIENTED_EDGE ( 'NONE', *, *, #206, .F. ) ;
#290 = SURFACE_SIDE_STYLE ('',( #168 ) ) ;
#291 = ORIENTED_EDGE ( 'NONE', *, *, #106, .T. ) ;
#292 = CYLINDRICAL_SURFACE ( 'NONE', #172, 4.999999999999995559 ) ;
#293 = VERTEX_POINT ( 'NONE', #148 ) ;
#294 =( GEOMETRIC_REPRESENTATION_CONTEXT ( 3 ) GLOBAL_UNCERTAINTY_ASSIGNED_CONTEXT ( ( #323 ) ) GLOBAL_UNIT_ASSIGNED_CONTEXT ( ( #368, #197, #108 ) ) REPRESENTATION_CONTEXT ( 'NONE', 'WORKASPACE' ) );
#295 = DIRECTION ( 'NONE',  ( -9.135657442593541248E-17, 1.000000000000000000, 0.000000000000000000 ) ) ;
#296 = ADVANCED_FACE ( 'NONE', ( #18 ), #67, .T. ) ;
#297 = AXIS2_PLACEMENT_3D ( 'NONE', #46, #31, #29 ) ;
#298 = PRESENTATION_LAYER_ASSIGNMENT (  '', '', ( #86 ) ) ;
#299 = DIRECTION ( 'NONE',  ( 1.000000000000000000, 0.000000000000000000, 0.000000000000000000 ) ) ;
#300 = CARTESIAN_POINT ( 'NONE',  ( 1.469576158976823750E-15, 63.00000000000000000, 0.000000000000000000 ) ) ;
#301 = AXIS2_PLACEMENT_3D ( 'NONE', #315, #159, #57 ) ;
#302 = DIRECTION ( 'NONE',  ( -1.000000000000000000, 0.000000000000000000, 0.000000000000000000 ) ) ;
#303 = EDGE_CURVE ( 'NONE', #169, #339, #155, .T. ) ;
#304 = CARTESIAN_POINT ( 'NONE',  ( 0.000000000000000000, 0.000000000000000000, -5.000000000000000000 ) ) ;
#305 = PRESENTATION_LAYER_ASSIGNMENT (  '', '', ( #179 ) ) ;
#306 = COLOUR_RGB ( '',1.000000000000000000, 0.000000000000000000, 0.000000000000000000 ) ;
#307 = CARTESIAN_POINT ( 'NONE',  ( 1.469576158976823750E-15, 63.00000000000000000, 0.000000000000000000 ) ) ;
#308 = SURFACE_STYLE_USAGE ( .BOTH. , #253 ) ;
#309 = DIRECTION ( 'NONE',  ( -1.000000000000000000, 0.000000000000000000, 0.000000000000000000 ) ) ;
#310 = ORIENTED_EDGE ( 'NONE', *, *, #182, .T. ) ;
#311 = SURFACE_STYLE_FILL_AREA ( #127 ) ;
#312 = ORIENTED_EDGE ( 'NONE', *, *, #175, .F. ) ;
#313 =( GEOMETRIC_REPRESENTATION_CONTEXT ( 3 ) GLOBAL_UNCERTAINTY_ASSIGNED_CONTEXT ( ( #207 ) ) GLOBAL_UNIT_ASSIGNED_CONTEXT ( ( #203, #120, #98 ) ) REPRESENTATION_CONTEXT ( 'NONE', 'WORKASPACE' ) );
#314 = ADVANCED_FACE ( 'NONE', ( #189 ), #49, .T. ) ;
#315 = CARTESIAN_POINT ( 'NONE',  ( 0.000000000000000000, 0.5000000000000000000, 0.000000000000000000 ) ) ;
#316 = SURFACE_STYLE_USAGE ( .BOTH. , #199 ) ;
#317 = DIRECTION ( 'NONE',  ( -9.135657442593541248E-17, 1.000000000000000000, -0.000000000000000000 ) ) ;
#318 =( LENGTH_UNIT ( ) NAMED_UNIT ( * ) SI_UNIT ( .MILLI., .METRE. ) );
#319 = EDGE_LOOP ( 'NONE', ( #310, #93, #230, #52 ) ) ;
#320 = PRESENTATION_LAYER_ASSIGNMENT (  '', '', ( #96 ) ) ;
#321 = CIRCLE ( 'NONE', #150, 4.999999999999993783 ) ;
#322 = MECHANICAL_DESIGN_GEOMETRIC_PRESENTATION_REPRESENTATION (  '', ( #86 ), #196 ) ;
#323 = UNCERTAINTY_MEASURE_WITH_UNIT (LENGTH_MEASURE( 1.000000000000000082E-05 ), #368, 'distance_accuracy_value', 'NONE');
#324 = DIRECTION ( 'NONE',  ( 0.000000000000000000, 0.000000000000000000, 1.000000000000000000 ) ) ;
#325 = MANIFOLD_SOLID_BREP ( 'Revolve - Tool Body (Straight Shanked)', #328 ) ;
#326 = SURFACE_STYLE_FILL_AREA ( #275 ) ;
#327 = DIRECTION ( 'NONE',  ( -1.000000000000000000, 0.000000000000000000, 0.000000000000000000 ) ) ;
#328 = CLOSED_SHELL ( 'NONE', ( #80, #331, #74, #8 ) ) ;
#329 = SHAPE_DEFINITION_REPRESENTATION ( #38, #271 ) ;
#330 = DIRECTION ( 'NONE',  ( 0.000000000000000000, -0.000000000000000000, 1.000000000000000000 ) ) ;
#331 = ADVANCED_FACE ( 'NONE', ( #174 ), #259, .F. ) ;
#332 =( NAMED_UNIT ( * ) PLANE_ANGLE_UNIT ( ) SI_UNIT ( $, .RADIAN. ) );
#333 = DIRECTION ( 'NONE',  ( -0.000000000000000000, -1.000000000000000000, -0.000000000000000000 ) ) ;
#334 = UNCERTAINTY_MEASURE_WITH_UNIT (LENGTH_MEASURE( 1.000000000000000082E-05 ), #267, 'distance_accuracy_value', 'NONE');
#335 = AXIS2_PLACEMENT_3D ( 'NONE', #223, #26, #58 ) ;
#336 = DIRECTION ( 'NONE',  ( 0.000000000000000000, 0.000000000000000000, 1.000000000000000000 ) ) ;
#337 = CIRCLE ( 'NONE', #72, 5.000000000000000000 ) ;
#338 = CARTESIAN_POINT ( 'NONE',  ( 5.000000000000000000, 63.00000000000000000, 6.123233995736762338E-16 ) ) ;
#339 = VERTEX_POINT ( 'NONE', #9 ) ;
#340 =( NAMED_UNIT ( * ) SI_UNIT ( $, .STERADIAN. ) SOLID_ANGLE_UNIT ( ) );
#341 = FACE_OUTER_BOUND ( 'NONE', #161, .T. ) ;
#342 = ORIENTED_EDGE ( 'NONE', *, *, #303, .F. ) ;
#343 = FILL_AREA_STYLE ('',( #224 ) ) ;
#344 = FILL_AREA_STYLE ('',( #191 ) ) ;
#345 = EDGE_LOOP ( 'NONE', ( #204, #22 ) ) ;
#346 = SURFACE_SIDE_STYLE ('',( #28 ) ) ;
#347 = AXIS2_PLACEMENT_3D ( 'NONE', #244, #324, #299 ) ;
#348 = ORIENTED_EDGE ( 'NONE', *, *, #102, .T. ) ;
#349 = CIRCLE ( 'NONE', #361, 4.500000000000000888 ) ;
#350 = CARTESIAN_POINT ( 'NONE',  ( 0.000000000000000000, 0.5000000000000000000, 0.000000000000000000 ) ) ;
#351 = DIRECTION ( 'NONE',  ( -1.000000000000000000, 0.000000000000000000, 0.000000000000000000 ) ) ;
#352 = ORIENTED_EDGE ( 'NONE', *, *, #89, .T. ) ;
#353 = PRODUCT ( '59581', '59581', '', ( #210 ) ) ;
#354 = DIRECTION ( 'NONE',  ( -9.135657442593541248E-17, 1.000000000000000000, -0.000000000000000000 ) ) ;
#355 =( GEOMETRIC_REPRESENTATION_CONTEXT ( 3 ) GLOBAL_UNCERTAINTY_ASSIGNED_CONTEXT ( ( #334 ) ) GLOBAL_UNIT_ASSIGNED_CONTEXT ( ( #267, #118, #185 ) ) REPRESENTATION_CONTEXT ( 'NONE', 'WORKASPACE' ) );
#356 = UNCERTAINTY_MEASURE_WITH_UNIT (LENGTH_MEASURE( 1.000000000000000082E-05 ), #166, 'distance_accuracy_value', 'NONE');
#357 = EDGE_CURVE ( 'NONE', #55, #34, #321, .T. ) ;
#358 = STYLED_ITEM ( 'NONE', ( #228 ), #325 ) ;
#359 = DIRECTION ( 'NONE',  ( 0.000000000000000000, 1.000000000000000000, 0.000000000000000000 ) ) ;
#360 = CARTESIAN_POINT ( 'NONE',  ( -4.999999999999993783, 63.00000000000000000, 0.000000000000000000 ) ) ;
#361 = AXIS2_PLACEMENT_3D ( 'NONE', #366, #288, #51 ) ;
#362 = UNCERTAINTY_MEASURE_WITH_UNIT (LENGTH_MEASURE( 1.000000000000000082E-05 ), #157, 'distance_accuracy_value', 'NONE');
#363 = CIRCLE ( 'NONE', #297, 5.000000000000000000 ) ;
#364 = MECHANICAL_DESIGN_GEOMETRIC_PRESENTATION_REPRESENTATION (  '', ( #208 ), #239 ) ;
#365 = CARTESIAN_POINT ( 'NONE',  ( 0.000000000000000000, 0.5000000000000000000, -4.500000000000000888 ) ) ;
#366 = CARTESIAN_POINT ( 'NONE',  ( 0.000000000000000000, 0.000000000000000000, 0.000000000000000000 ) ) ;
#367 = CARTESIAN_POINT ( 'NONE',  ( 5.000000000000000000, 63.00000000000000000, 0.000000000000000000 ) ) ;
#368 =( LENGTH_UNIT ( ) NAMED_UNIT ( * ) SI_UNIT ( .MILLI., .METRE. ) );
#369 = CARTESIAN_POINT ( 'NONE',  ( 5.817072295949928412E-16, 0.000000000000000000, 4.500000000000000888 ) ) ;
#370 = PRESENTATION_STYLE_ASSIGNMENT (( #316 ) ) ;
ENDSEC;
END-ISO-10303-21;
