ISO-10303-21;
HEADER;
FILE_DESCRIPTION (( 'STEP AP214' ),
    '1' );
FILE_NAME ('Micro_GEM-281-3X.STEP',
    '2021-09-01T20:25:30',
    ( '' ),
    ( '' ),
    'SwSTEP 2.0',
    'SolidWorks 2020',
    '' );
FILE_SCHEMA (( 'AUTOMOTIVE_DESIGN' ));
ENDSEC;

DATA;
#1 = ORIENTED_EDGE ( 'NONE', *, *, #78, .F. ) ;
#2 = DIRECTION ( 'NONE',  ( 1.000000000000000000, 0.0000000000000000000, -0.0000000000000000000 ) ) ;
#3 = AXIS2_PLACEMENT_3D ( 'NONE', #82, #59, #17 ) ;
#4 = ORIENTED_EDGE ( 'NONE', *, *, #279, .F. ) ;
#5 = ORIENTED_EDGE ( 'NONE', *, *, #146, .T. ) ;
#6 = CARTESIAN_POINT ( 'NONE',  ( 0.1562500000000000000, 1.913510623667739463E-17, 2.484999999999999432 ) ) ;
#7 = AXIS2_PLACEMENT_3D ( 'NONE', #158, #161, #18 ) ;
#8 = DIRECTION ( 'NONE',  ( -1.000000000000000000, 0.0000000000000000000, 1.224646799147353207E-16 ) ) ;
#9 = CARTESIAN_POINT ( 'NONE',  ( -0.1404594000000000120, 0.0000000000000000000, 1.720131546201577623E-17 ) ) ;
#10 = ORIENTED_EDGE ( 'NONE', *, *, #129, .T. ) ;
#11 = SURFACE_STYLE_USAGE ( .BOTH. , #238 ) ;
#12 = CARTESIAN_POINT ( 'NONE',  ( 0.1562500000000001110, 1.913510623667740388E-17, 0.8395529427008548984 ) ) ;
#13 = SURFACE_STYLE_USAGE ( .BOTH. , #127 ) ;
#14 = DIRECTION ( 'NONE',  ( -1.000000000000000000, 0.0000000000000000000, 1.224646799147353207E-16 ) ) ;
#15 = CONICAL_SURFACE ( 'NONE', #32, 0.1412499999999994871, 0.7853981633974391752 ) ;
#16 = DIRECTION ( 'NONE',  ( 0.0000000000000000000, 0.0000000000000000000, 1.000000000000000000 ) ) ;
#17 = DIRECTION ( 'NONE',  ( 1.000000000000000000, 0.0000000000000000000, 0.0000000000000000000 ) ) ;
#18 = DIRECTION ( 'NONE',  ( -1.000000000000000000, 0.0000000000000000000, 1.224646799147353207E-16 ) ) ;
#19 = ORIENTED_EDGE ( 'NONE', *, *, #146, .F. ) ;
#20 = CIRCLE ( 'NONE', #195, 0.1562500000000000000 ) ;
#21 = ORIENTED_EDGE ( 'NONE', *, *, #216, .T. ) ;
#22 = DIRECTION ( 'NONE',  ( -1.224646799147353207E-16, -0.0000000000000000000, -1.000000000000000000 ) ) ;
#23 = ORIENTED_EDGE ( 'NONE', *, *, #245, .T. ) ;
#24 = DIRECTION ( 'NONE',  ( 0.0000000000000000000, 0.0000000000000000000, 1.000000000000000000 ) ) ;
#25 = EDGE_LOOP ( 'NONE', ( #164, #115, #240, #296 ) ) ;
#26 = DIRECTION ( 'NONE',  ( -0.0000000000000000000, -0.0000000000000000000, -1.000000000000000000 ) ) ;
#27 = ORIENTED_EDGE ( 'NONE', *, *, #74, .F. ) ;
#28 = ADVANCED_FACE ( 'NONE', ( #50 ), #194, .T. ) ;
#29 = DIRECTION ( 'NONE',  ( -0.0000000000000000000, -0.0000000000000000000, -1.000000000000000000 ) ) ;
#30 = CARTESIAN_POINT ( 'NONE',  ( 9.184850993605150903E-17, 0.0000000000000000000, 0.7500000000000001110 ) ) ;
#31 = CARTESIAN_POINT ( 'NONE',  ( 0.0000000000000000000, 0.0000000000000000000, 2.500000000000000000 ) ) ;
#32 = AXIS2_PLACEMENT_3D ( 'NONE', #69, #169, #252 ) ;
#33 = DIMENSIONAL_EXPONENTS ( 1.000000000000000000, 0.0000000000000000000, 0.0000000000000000000, 0.0000000000000000000, 0.0000000000000000000, 0.0000000000000000000, 0.0000000000000000000 ) ;
#34 = CARTESIAN_POINT ( 'NONE',  ( 0.0000000000000000000, 0.0000000000000000000, 2.484999999999999432 ) ) ;
#35 = CARTESIAN_POINT ( 'NONE',  ( -0.1404594000000000120, 0.0000000000000000000, 3.440263092403155245E-17 ) ) ;
#36 = AXIS2_PLACEMENT_3D ( 'NONE', #90, #73, #185 ) ;
#37 = PRESENTATION_STYLE_ASSIGNMENT (( #11 ) ) ;
#38 = LINE ( 'NONE', #204, #139 ) ;
#39 = PRODUCT_DEFINITION ( 'UNKNOWN', '', #225, #229 ) ;
#40 =( CONVERSION_BASED_UNIT ( 'INCH', #174 ) LENGTH_UNIT ( ) NAMED_UNIT ( #33 ) );
#41 = DIMENSIONAL_EXPONENTS ( 1.000000000000000000, 0.0000000000000000000, 0.0000000000000000000, 0.0000000000000000000, 0.0000000000000000000, 0.0000000000000000000, 0.0000000000000000000 ) ;
#42 = ORIENTED_EDGE ( 'NONE', *, *, #74, .T. ) ;
#43 =( NAMED_UNIT ( * ) SI_UNIT ( $, .STERADIAN. ) SOLID_ANGLE_UNIT ( ) );
#44 = EDGE_LOOP ( 'NONE', ( #256, #67, #188, #46 ) ) ;
#45 = AXIS2_PLACEMENT_3D ( 'NONE', #242, #213, #247 ) ;
#46 = ORIENTED_EDGE ( 'NONE', *, *, #83, .F. ) ;
#47 = ORIENTED_EDGE ( 'NONE', *, *, #283, .F. ) ;
#48 = LINE ( 'NONE', #140, #52 ) ;
#49 = CARTESIAN_POINT ( 'NONE',  ( 0.1562500000000000000, 1.913510623667739463E-17, 2.500000000000000000 ) ) ;
#50 = FACE_OUTER_BOUND ( 'NONE', #97, .T. ) ;
#51 = CLOSED_SHELL ( 'NONE', ( #103, #180, #152, #154, #206, #28, #66, #173, #220, #199 ) ) ;
#52 = VECTOR ( 'NONE', #102, 39.37007874015748143 ) ;
#53 =( LENGTH_UNIT ( ) NAMED_UNIT ( * ) SI_UNIT ( $, .METRE. ) );
#54 = ORIENTED_EDGE ( 'NONE', *, *, #291, .F. ) ;
#55 = FACE_OUTER_BOUND ( 'NONE', #138, .T. ) ;
#56 = DIRECTION ( 'NONE',  ( -0.0000000000000000000, -0.0000000000000000000, -1.000000000000000000 ) ) ;
#57 = LINE ( 'NONE', #9, #262 ) ;
#58 = LINE ( 'NONE', #224, #125 ) ;
#59 = DIRECTION ( 'NONE',  ( 1.224646799147353207E-16, 0.0000000000000000000, 1.000000000000000000 ) ) ;
#60 = FILL_AREA_STYLE_COLOUR ( '', #184 ) ;
#61 = CARTESIAN_POINT ( 'NONE',  ( 9.184850993605150903E-17, 0.0000000000000000000, 0.7500000000000001110 ) ) ;
#62 = AXIS2_PLACEMENT_3D ( 'NONE', #34, #165, #107 ) ;
#63 = VERTEX_POINT ( 'NONE', #148 ) ;
#64 = FACE_OUTER_BOUND ( 'NONE', #120, .T. ) ;
#65 = DIRECTION ( 'NONE',  ( -1.000000000000000000, 0.0000000000000000000, 0.0000000000000000000 ) ) ;
#66 = ADVANCED_FACE ( 'NONE', ( #215 ), #15, .T. ) ;
#67 = ORIENTED_EDGE ( 'NONE', *, *, #228, .T. ) ;
#68 = ORIENTED_EDGE ( 'NONE', *, *, #279, .T. ) ;
#69 = CARTESIAN_POINT ( 'NONE',  ( 0.0000000000000000000, 0.0000000000000000000, 2.500000000000000000 ) ) ;
#70 = ORIENTED_EDGE ( 'NONE', *, *, #106, .F. ) ;
#71 = CARTESIAN_POINT ( 'NONE',  ( 0.0000000000000000000, 0.0000000000000000000, 2.500000000000000000 ) ) ;
#72 = VERTEX_POINT ( 'NONE', #136 ) ;
#73 = DIRECTION ( 'NONE',  ( -0.0000000000000000000, -0.0000000000000000000, -1.000000000000000000 ) ) ;
#74 = EDGE_CURVE ( 'NONE', #217, #63, #248, .T. ) ;
#75 = CARTESIAN_POINT ( 'NONE',  ( 0.0000000000000000000, 0.0000000000000000000, 0.0000000000000000000 ) ) ;
#76 = VECTOR ( 'NONE', #80, 39.37007874015748143 ) ;
#77 = ORIENTED_EDGE ( 'NONE', *, *, #228, .F. ) ;
#78 = EDGE_CURVE ( 'NONE', #196, #276, #191, .T. ) ;
#79 = CARTESIAN_POINT ( 'NONE',  ( -0.1404593999999999288, 1.720131546201577623E-17, 0.7500000000000001110 ) ) ;
#80 = DIRECTION ( 'NONE',  ( 0.1736481776669313026, 0.0000000000000000000, 0.9848077530122077983 ) ) ;
#81 = COLOUR_RGB ( '',0.7921568627450980005, 0.8196078431372548767, 0.9333333333333333481 ) ;
#82 = CARTESIAN_POINT ( 'NONE',  ( 9.184850993605150903E-17, 0.0000000000000000000, 0.7500000000000001110 ) ) ;
#83 = EDGE_CURVE ( 'NONE', #72, #278, #280, .T. ) ;
#84 = DIRECTION ( 'NONE',  ( -1.000000000000000000, 0.0000000000000000000, 0.0000000000000000000 ) ) ;
#85 = FACE_OUTER_BOUND ( 'NONE', #232, .T. ) ;
#86 = DIRECTION ( 'NONE',  ( 0.0000000000000000000, 0.0000000000000000000, 1.000000000000000000 ) ) ;
#87 = DIRECTION ( 'NONE',  ( 0.0000000000000000000, 0.0000000000000000000, -1.000000000000000000 ) ) ;
#88 =( NAMED_UNIT ( * ) PLANE_ANGLE_UNIT ( ) SI_UNIT ( $, .RADIAN. ) );
#89 = VERTEX_POINT ( 'NONE', #6 ) ;
#90 = CARTESIAN_POINT ( 'NONE',  ( 0.0000000000000000000, 0.0000000000000000000, 2.500000000000000000 ) ) ;
#91 = VECTOR ( 'NONE', #126, 39.37007874015748854 ) ;
#92 = ORIENTED_EDGE ( 'NONE', *, *, #192, .T. ) ;
#93 = CYLINDRICAL_SURFACE ( 'NONE', #36, 0.1562500000000000000 ) ;
#94 = STYLED_ITEM ( 'NONE', ( #37 ), #132 ) ;
#95 = CARTESIAN_POINT ( 'NONE',  ( 0.0000000000000000000, 0.0000000000000000000, 2.500000000000000000 ) ) ;
#96 = AXIS2_PLACEMENT_3D ( 'NONE', #95, #24, #2 ) ;
#97 = EDGE_LOOP ( 'NONE', ( #21, #42 ) ) ;
#98 = EDGE_CURVE ( 'NONE', #263, #72, #48, .T. ) ;
#99 = CIRCLE ( 'NONE', #222, 0.1404594000000000120 ) ;
#100 = FACE_OUTER_BOUND ( 'NONE', #167, .T. ) ;
#101 = PRODUCT_DEFINITION_SHAPE ( 'NONE', 'NONE',  #39 ) ;
#102 = DIRECTION ( 'NONE',  ( -1.224646799147353207E-16, -0.0000000000000000000, -1.000000000000000000 ) ) ;
#103 = ADVANCED_FACE ( 'NONE', ( #100 ), #141, .T. ) ;
#104 = LINE ( 'NONE', #108, #76 ) ;
#105 = AXIS2_PLACEMENT_3D ( 'NONE', #144, #16, #137 ) ;
#106 = EDGE_CURVE ( 'NONE', #89, #276, #143, .T. ) ;
#107 = DIRECTION ( 'NONE',  ( 1.000000000000000000, 0.0000000000000000000, 0.0000000000000000000 ) ) ;
#108 = CARTESIAN_POINT ( 'NONE',  ( 0.1404594000000000953, 0.0000000000000000000, 0.7500000000000001110 ) ) ;
#109 = CARTESIAN_POINT ( 'NONE',  ( 0.1412499999999994871, 1.821662113731684786E-17, 2.500000000000000000 ) ) ;
#110 = FACE_OUTER_BOUND ( 'NONE', #44, .T. ) ;
#111 = LINE ( 'NONE', #207, #91 ) ;
#112 = AXIS2_PLACEMENT_3D ( 'NONE', #71, #160, #231 ) ;
#113 = EDGE_LOOP ( 'NONE', ( #70, #92, #23, #19 ) ) ;
#114 = CYLINDRICAL_SURFACE ( 'NONE', #7, 0.1404594000000000120 ) ;
#115 = ORIENTED_EDGE ( 'NONE', *, *, #216, .F. ) ;
#116 = LENGTH_MEASURE_WITH_UNIT ( LENGTH_MEASURE( 0.02539999999999999897 ), #249 );
#117 = VERTEX_POINT ( 'NONE', #281 ) ;
#118 = FACE_OUTER_BOUND ( 'NONE', #218, .T. ) ;
#119 = VECTOR ( 'NONE', #183, 39.37007874015747433 ) ;
#120 = EDGE_LOOP ( 'NONE', ( #230, #155, #287, #4 ) ) ;
#121 = CONICAL_SURFACE ( 'NONE', #282, 0.1404594000000000120, 0.1745329251994338082 ) ;
#122 = APPLICATION_CONTEXT ( 'automotive_design' ) ;
#123 = DIRECTION ( 'NONE',  ( 0.0000000000000000000, 0.0000000000000000000, 1.000000000000000000 ) ) ;
#124 = AXIS2_PLACEMENT_3D ( 'NONE', #31, #123, #221 ) ;
#125 = VECTOR ( 'NONE', #182, 39.37007874015748854 ) ;
#126 = DIRECTION ( 'NONE',  ( -0.7071067811865410224, 0.0000000000000000000, -0.7071067811865539010 ) ) ;
#127 = SURFACE_SIDE_STYLE ('',( #149 ) ) ;
#128 = PRESENTATION_LAYER_ASSIGNMENT (  '', '', ( #94 ) ) ;
#129 = EDGE_CURVE ( 'NONE', #254, #263, #99, .T. ) ;
#130 = CONICAL_SURFACE ( 'NONE', #234, 0.1412499999999994871, 0.7853981633974391752 ) ;
#131 = FILL_AREA_STYLE_COLOUR ( '', #81 ) ;
#132 = ADVANCED_BREP_SHAPE_REPRESENTATION ( 'Micro_GEM-281-3X', ( #233, #147 ), #275 ) ;
#133 = APPLICATION_CONTEXT ( 'automotive_design' ) ;
#134 = EDGE_LOOP ( 'NONE', ( #54, #77, #68, #5 ) ) ;
#135 = ORIENTED_EDGE ( 'NONE', *, *, #235, .T. ) ;
#136 = CARTESIAN_POINT ( 'NONE',  ( 0.1404594000000000120, 1.720131546201577623E-17, 0.0000000000000000000 ) ) ;
#137 = DIRECTION ( 'NONE',  ( 1.000000000000000000, 0.0000000000000000000, -0.0000000000000000000 ) ) ;
#138 = EDGE_LOOP ( 'NONE', ( #190, #211 ) ) ;
#139 = VECTOR ( 'NONE', #56, 39.37007874015748143 ) ;
#140 = CARTESIAN_POINT ( 'NONE',  ( 0.1404594000000000120, 1.720131546201577623E-17, -1.720131546201577623E-17 ) ) ;
#141 = CYLINDRICAL_SURFACE ( 'NONE', #265, 0.1404594000000000120 ) ;
#142 = CIRCLE ( 'NONE', #124, 0.1412499999999994871 ) ;
#143 = LINE ( 'NONE', #49, #227 ) ;
#144 = CARTESIAN_POINT ( 'NONE',  ( 0.0000000000000000000, 0.0000000000000000000, 0.0000000000000000000 ) ) ;
#145 = PRODUCT ( 'Micro_GEM-281-3X', 'Micro_GEM-281-3X', '', ( #266 ) ) ;
#146 = EDGE_CURVE ( 'NONE', #276, #196, #20, .T. ) ;
#147 = AXIS2_PLACEMENT_3D ( 'NONE', #162, #86, #186 ) ;
#148 = CARTESIAN_POINT ( 'NONE',  ( -0.1412499999999994871, 0.0000000000000000000, 2.500000000000000000 ) ) ;
#149 = SURFACE_STYLE_FILL_AREA ( #273 ) ;
#150 = EDGE_CURVE ( 'NONE', #217, #89, #58, .T. ) ;
#151 =( CONVERSION_BASED_UNIT ( 'INCH', #288 ) LENGTH_UNIT ( ) NAMED_UNIT ( #41 ) );
#152 = ADVANCED_FACE ( 'NONE', ( #85 ), #130, .T. ) ;
#153 = FILL_AREA_STYLE ('',( #60 ) ) ;
#154 = ADVANCED_FACE ( 'NONE', ( #118 ), #93, .T. ) ;
#155 = ORIENTED_EDGE ( 'NONE', *, *, #291, .T. ) ;
#156 = DIRECTION ( 'NONE',  ( 0.0000000000000000000, 0.0000000000000000000, -1.000000000000000000 ) ) ;
#157 =( LENGTH_UNIT ( ) NAMED_UNIT ( * ) SI_UNIT ( $, .METRE. ) );
#158 = CARTESIAN_POINT ( 'NONE',  ( 0.0000000000000000000, 0.0000000000000000000, 0.0000000000000000000 ) ) ;
#159 =( NAMED_UNIT ( * ) PLANE_ANGLE_UNIT ( ) SI_UNIT ( $, .RADIAN. ) );
#160 = DIRECTION ( 'NONE',  ( 0.0000000000000000000, 0.0000000000000000000, 1.000000000000000000 ) ) ;
#161 = DIRECTION ( 'NONE',  ( -1.224646799147353207E-16, -0.0000000000000000000, -1.000000000000000000 ) ) ;
#162 = CARTESIAN_POINT ( 'NONE',  ( 0.0000000000000000000, 0.0000000000000000000, 0.0000000000000000000 ) ) ;
#163 = CONICAL_SURFACE ( 'NONE', #3, 0.1404594000000000120, 0.1745329251994338082 ) ;
#164 = ORIENTED_EDGE ( 'NONE', *, *, #150, .F. ) ;
#165 = DIRECTION ( 'NONE',  ( 0.0000000000000000000, 0.0000000000000000000, -1.000000000000000000 ) ) ;
#166 = APPLICATION_PROTOCOL_DEFINITION ( 'draft international standard', 'automotive_design', 1998, #133 ) ;
#167 = EDGE_LOOP ( 'NONE', ( #10, #193, #294, #187 ) ) ;
#168 = CIRCLE ( 'NONE', #270, 0.1562500000000000000 ) ;
#169 = DIRECTION ( 'NONE',  ( 0.0000000000000000000, 0.0000000000000000000, -1.000000000000000000 ) ) ;
#170 = PRESENTATION_LAYER_ASSIGNMENT (  '', '', ( #289 ) ) ;
#171 = CARTESIAN_POINT ( 'NONE',  ( 2.106553592168149428E-33, 0.0000000000000000000, 1.720131546201577623E-17 ) ) ;
#172 = FACE_OUTER_BOUND ( 'NONE', #113, .T. ) ;
#173 = ADVANCED_FACE ( 'NONE', ( #264 ), #121, .T. ) ;
#174 = LENGTH_MEASURE_WITH_UNIT ( LENGTH_MEASURE( 0.02539999999999999897 ), #157 );
#175 = MECHANICAL_DESIGN_GEOMETRIC_PRESENTATION_REPRESENTATION (  '', ( #94 ), #243 ) ;
#176 = DIRECTION ( 'NONE',  ( -1.224646799147353207E-16, -0.0000000000000000000, -1.000000000000000000 ) ) ;
#177 =( NAMED_UNIT ( * ) SI_UNIT ( $, .STERADIAN. ) SOLID_ANGLE_UNIT ( ) );
#178 = SURFACE_STYLE_FILL_AREA ( #153 ) ;
#179 = AXIS2_PLACEMENT_3D ( 'NONE', #268, #26, #257 ) ;
#180 = ADVANCED_FACE ( 'NONE', ( #64 ), #163, .T. ) ;
#181 =( NAMED_UNIT ( * ) PLANE_ANGLE_UNIT ( ) SI_UNIT ( $, .RADIAN. ) );
#182 = DIRECTION ( 'NONE',  ( 0.7071067811865410224, 8.659560562354852739E-17, -0.7071067811865539010 ) ) ;
#183 = DIRECTION ( 'NONE',  ( -0.1736481776669311083, 2.126576849575782084E-17, 0.9848077530122080203 ) ) ;
#184 = COLOUR_RGB ( '',0.7921568627450980005, 0.8196078431372548767, 0.9333333333333333481 ) ;
#185 = DIRECTION ( 'NONE',  ( -1.000000000000000000, 0.0000000000000000000, 0.0000000000000000000 ) ) ;
#186 = DIRECTION ( 'NONE',  ( 1.000000000000000000, 0.0000000000000000000, 0.0000000000000000000 ) ) ;
#187 = ORIENTED_EDGE ( 'NONE', *, *, #237, .F. ) ;
#188 = ORIENTED_EDGE ( 'NONE', *, *, #237, .T. ) ;
#189 = UNCERTAINTY_MEASURE_WITH_UNIT (LENGTH_MEASURE( 1.000000000000000082E-05 ), #40, 'distance_accuracy_value', 'NONE');
#190 = ORIENTED_EDGE ( 'NONE', *, *, #258, .T. ) ;
#191 = CIRCLE ( 'NONE', #259, 0.1562500000000000000 ) ;
#192 = EDGE_CURVE ( 'NONE', #89, #117, #200, .T. ) ;
#193 = ORIENTED_EDGE ( 'NONE', *, *, #98, .T. ) ;
#194 = PLANE ( 'NONE',  #96 ) ;
#195 = AXIS2_PLACEMENT_3D ( 'NONE', #274, #214, #269 ) ;
#196 = VERTEX_POINT ( 'NONE', #203 ) ;
#197 = DIRECTION ( 'NONE',  ( -1.224646799147353207E-16, -0.0000000000000000000, -1.000000000000000000 ) ) ;
#198 = CIRCLE ( 'NONE', #298, 0.1404594000000000120 ) ;
#199 = ADVANCED_FACE ( 'NONE', ( #55 ), #209, .F. ) ;
#200 = CIRCLE ( 'NONE', #62, 0.1562500000000000000 ) ;
#201 = CARTESIAN_POINT ( 'NONE',  ( 0.1404594000000000953, 0.0000000000000000000, 0.7500000000000001110 ) ) ;
#202 = MECHANICAL_DESIGN_GEOMETRIC_PRESENTATION_REPRESENTATION (  '', ( #289 ), #286 ) ;
#203 = CARTESIAN_POINT ( 'NONE',  ( -0.1562499999999999167, 0.0000000000000000000, 0.8395529427008548984 ) ) ;
#204 = CARTESIAN_POINT ( 'NONE',  ( -0.1562500000000000000, 0.0000000000000000000, 2.500000000000000000 ) ) ;
#205 = CARTESIAN_POINT ( 'NONE',  ( -0.1404593999999999288, 1.816821084934658389E-17, 0.7500000000000001110 ) ) ;
#206 = ADVANCED_FACE ( 'NONE', ( #172 ), #255, .T. ) ;
#207 = CARTESIAN_POINT ( 'NONE',  ( -0.1412499999999994871, 0.0000000000000000000, 2.500000000000000000 ) ) ;
#208 = PRODUCT_RELATED_PRODUCT_CATEGORY ( 'part', '', ( #145 ) ) ;
#209 = PLANE ( 'NONE',  #105 ) ;
#210 = CIRCLE ( 'NONE', #45, 0.1404594000000000120 ) ;
#211 = ORIENTED_EDGE ( 'NONE', *, *, #83, .T. ) ;
#212 = CARTESIAN_POINT ( 'NONE',  ( 0.0000000000000000000, 0.0000000000000000000, 2.500000000000000000 ) ) ;
#213 = DIRECTION ( 'NONE',  ( -1.224646799147353207E-16, -0.0000000000000000000, -1.000000000000000000 ) ) ;
#214 = DIRECTION ( 'NONE',  ( -1.224646799147353207E-16, -0.0000000000000000000, -1.000000000000000000 ) ) ;
#215 = FACE_OUTER_BOUND ( 'NONE', #25, .T. ) ;
#216 = EDGE_CURVE ( 'NONE', #63, #217, #142, .T. ) ;
#217 = VERTEX_POINT ( 'NONE', #109 ) ;
#218 = EDGE_LOOP ( 'NONE', ( #135, #297, #1, #272 ) ) ;
#219 = UNCERTAINTY_MEASURE_WITH_UNIT (LENGTH_MEASURE( 1.000000000000000082E-05 ), #151, 'distance_accuracy_value', 'NONE');
#220 = ADVANCED_FACE ( 'NONE', ( #110 ), #114, .T. ) ;
#221 = DIRECTION ( 'NONE',  ( 1.000000000000000000, 0.0000000000000000000, 0.0000000000000000000 ) ) ;
#222 = AXIS2_PLACEMENT_3D ( 'NONE', #30, #267, #65 ) ;
#223 = DIMENSIONAL_EXPONENTS ( 1.000000000000000000, 0.0000000000000000000, 0.0000000000000000000, 0.0000000000000000000, 0.0000000000000000000, 0.0000000000000000000, 0.0000000000000000000 ) ;
#224 = CARTESIAN_POINT ( 'NONE',  ( 0.1412499999999994871, 1.729813603795630110E-17, 2.500000000000000000 ) ) ;
#225 = PRODUCT_DEFINITION_FORMATION_WITH_SPECIFIED_SOURCE ( 'ANY', '', #145, .NOT_KNOWN. ) ;
#226 = DIRECTION ( 'NONE',  ( -1.224646799147353207E-16, -0.0000000000000000000, -1.000000000000000000 ) ) ;
#227 = VECTOR ( 'NONE', #29, 39.37007874015748143 ) ;
#228 = EDGE_CURVE ( 'NONE', #263, #254, #210, .T. ) ;
#229 = PRODUCT_DEFINITION_CONTEXT ( 'detailed design', #133, 'design' ) ;
#230 = ORIENTED_EDGE ( 'NONE', *, *, #129, .F. ) ;
#231 = DIRECTION ( 'NONE',  ( 1.000000000000000000, 0.0000000000000000000, 0.0000000000000000000 ) ) ;
#232 = EDGE_LOOP ( 'NONE', ( #27, #271, #250, #47 ) ) ;
#233 = MANIFOLD_SOLID_BREP ( 'Cut-Revolve1', #51 ) ;
#234 = AXIS2_PLACEMENT_3D ( 'NONE', #212, #87, #84 ) ;
#235 = EDGE_CURVE ( 'NONE', #117, #89, #168, .T. ) ;
#236 = DIRECTION ( 'NONE',  ( -1.000000000000000000, 0.0000000000000000000, 1.224646799147353207E-16 ) ) ;
#237 = EDGE_CURVE ( 'NONE', #254, #278, #57, .T. ) ;
#238 = SURFACE_SIDE_STYLE ('',( #178 ) ) ;
#239 = CARTESIAN_POINT ( 'NONE',  ( 0.0000000000000000000, 0.0000000000000000000, 2.484999999999999432 ) ) ;
#240 = ORIENTED_EDGE ( 'NONE', *, *, #283, .T. ) ;
#241 = DIRECTION ( 'NONE',  ( 1.000000000000000000, 0.0000000000000000000, 0.0000000000000000000 ) ) ;
#242 = CARTESIAN_POINT ( 'NONE',  ( 9.184850993605150903E-17, 0.0000000000000000000, 0.7500000000000001110 ) ) ;
#243 =( GEOMETRIC_REPRESENTATION_CONTEXT ( 3 ) GLOBAL_UNCERTAINTY_ASSIGNED_CONTEXT ( ( #295 ) ) GLOBAL_UNIT_ASSIGNED_CONTEXT ( ( #293, #88, #43 ) ) REPRESENTATION_CONTEXT ( 'NONE', 'WORKASPACE' ) );
#244 = DIRECTION ( 'NONE',  ( -1.224646799147353207E-16, -0.0000000000000000000, -1.000000000000000000 ) ) ;
#245 = EDGE_CURVE ( 'NONE', #117, #196, #38, .T. ) ;
#246 = CARTESIAN_POINT ( 'NONE',  ( 1.028155823993343290E-16, 0.0000000000000000000, 0.8395529427008548984 ) ) ;
#247 = DIRECTION ( 'NONE',  ( -1.000000000000000000, 0.0000000000000000000, 0.0000000000000000000 ) ) ;
#248 = CIRCLE ( 'NONE', #112, 0.1412499999999994871 ) ;
#249 =( LENGTH_UNIT ( ) NAMED_UNIT ( * ) SI_UNIT ( $, .METRE. ) );
#250 = ORIENTED_EDGE ( 'NONE', *, *, #235, .F. ) ;
#251 = SHAPE_DEFINITION_REPRESENTATION ( #101, #132 ) ;
#252 = DIRECTION ( 'NONE',  ( -1.000000000000000000, 0.0000000000000000000, 0.0000000000000000000 ) ) ;
#253 = AXIS2_PLACEMENT_3D ( 'NONE', #171, #176, #8 ) ;
#254 = VERTEX_POINT ( 'NONE', #205 ) ;
#255 = CYLINDRICAL_SURFACE ( 'NONE', #179, 0.1562500000000000000 ) ;
#256 = ORIENTED_EDGE ( 'NONE', *, *, #98, .F. ) ;
#257 = DIRECTION ( 'NONE',  ( -1.000000000000000000, 0.0000000000000000000, 0.0000000000000000000 ) ) ;
#258 = EDGE_CURVE ( 'NONE', #278, #72, #198, .T. ) ;
#259 = AXIS2_PLACEMENT_3D ( 'NONE', #246, #22, #299 ) ;
#260 = APPLICATION_PROTOCOL_DEFINITION ( 'draft international standard', 'automotive_design', 1998, #122 ) ;
#261 =( NAMED_UNIT ( * ) SI_UNIT ( $, .STERADIAN. ) SOLID_ANGLE_UNIT ( ) );
#262 = VECTOR ( 'NONE', #226, 39.37007874015748143 ) ;
#263 = VERTEX_POINT ( 'NONE', #201 ) ;
#264 = FACE_OUTER_BOUND ( 'NONE', #134, .T. ) ;
#265 = AXIS2_PLACEMENT_3D ( 'NONE', #75, #197, #236 ) ;
#266 = PRODUCT_CONTEXT ( 'NONE', #122, 'mechanical' ) ;
#267 = DIRECTION ( 'NONE',  ( -1.224646799147353207E-16, -0.0000000000000000000, -1.000000000000000000 ) ) ;
#268 = CARTESIAN_POINT ( 'NONE',  ( 0.0000000000000000000, 0.0000000000000000000, 2.500000000000000000 ) ) ;
#269 = DIRECTION ( 'NONE',  ( 1.000000000000000000, 0.0000000000000000000, 0.0000000000000000000 ) ) ;
#270 = AXIS2_PLACEMENT_3D ( 'NONE', #239, #156, #292 ) ;
#271 = ORIENTED_EDGE ( 'NONE', *, *, #150, .T. ) ;
#272 = ORIENTED_EDGE ( 'NONE', *, *, #245, .F. ) ;
#273 = FILL_AREA_STYLE ('',( #131 ) ) ;
#274 = CARTESIAN_POINT ( 'NONE',  ( 1.028155823993343290E-16, 0.0000000000000000000, 0.8395529427008548984 ) ) ;
#275 =( GEOMETRIC_REPRESENTATION_CONTEXT ( 3 ) GLOBAL_UNCERTAINTY_ASSIGNED_CONTEXT ( ( #219 ) ) GLOBAL_UNIT_ASSIGNED_CONTEXT ( ( #151, #181, #177 ) ) REPRESENTATION_CONTEXT ( 'NONE', 'WORKASPACE' ) );
#276 = VERTEX_POINT ( 'NONE', #12 ) ;
#277 = DIRECTION ( 'NONE',  ( 1.224646799147353207E-16, 0.0000000000000000000, 1.000000000000000000 ) ) ;
#278 = VERTEX_POINT ( 'NONE', #35 ) ;
#279 = EDGE_CURVE ( 'NONE', #263, #276, #104, .T. ) ;
#280 = CIRCLE ( 'NONE', #253, 0.1404594000000000120 ) ;
#281 = CARTESIAN_POINT ( 'NONE',  ( -0.1562500000000000000, 0.0000000000000000000, 2.484999999999999432 ) ) ;
#282 = AXIS2_PLACEMENT_3D ( 'NONE', #61, #277, #241 ) ;
#283 = EDGE_CURVE ( 'NONE', #63, #117, #111, .T. ) ;
#284 = CARTESIAN_POINT ( 'NONE',  ( 2.106553592168149428E-33, 0.0000000000000000000, 1.720131546201577623E-17 ) ) ;
#285 = PRESENTATION_STYLE_ASSIGNMENT (( #13 ) ) ;
#286 =( GEOMETRIC_REPRESENTATION_CONTEXT ( 3 ) GLOBAL_UNCERTAINTY_ASSIGNED_CONTEXT ( ( #189 ) ) GLOBAL_UNIT_ASSIGNED_CONTEXT ( ( #40, #159, #261 ) ) REPRESENTATION_CONTEXT ( 'NONE', 'WORKASPACE' ) );
#287 = ORIENTED_EDGE ( 'NONE', *, *, #78, .T. ) ;
#288 = LENGTH_MEASURE_WITH_UNIT ( LENGTH_MEASURE( 0.02539999999999999897 ), #53 );
#289 = STYLED_ITEM ( 'NONE', ( #285 ), #233 ) ;
#290 = LINE ( 'NONE', #79, #119 ) ;
#291 = EDGE_CURVE ( 'NONE', #254, #196, #290, .T. ) ;
#292 = DIRECTION ( 'NONE',  ( 1.000000000000000000, 0.0000000000000000000, 0.0000000000000000000 ) ) ;
#293 =( CONVERSION_BASED_UNIT ( 'INCH', #116 ) LENGTH_UNIT ( ) NAMED_UNIT ( #223 ) );
#294 = ORIENTED_EDGE ( 'NONE', *, *, #258, .F. ) ;
#295 = UNCERTAINTY_MEASURE_WITH_UNIT (LENGTH_MEASURE( 1.000000000000000082E-05 ), #293, 'distance_accuracy_value', 'NONE');
#296 = ORIENTED_EDGE ( 'NONE', *, *, #192, .F. ) ;
#297 = ORIENTED_EDGE ( 'NONE', *, *, #106, .T. ) ;
#298 = AXIS2_PLACEMENT_3D ( 'NONE', #284, #244, #14 ) ;
#299 = DIRECTION ( 'NONE',  ( 1.000000000000000000, 0.0000000000000000000, 0.0000000000000000000 ) ) ;
ENDSEC;
END-ISO-10303-21;
