ISO-10303-21;
HEADER;
FILE_DESCRIPTION (( 'STEP AP214' ),
    '1' );
FILE_NAME ('Micro_KC-187-300-045X.STEP',
    '2021-09-03T19:16:08',
    ( '' ),
    ( '' ),
    'SwSTEP 2.0',
    'SolidWorks 2020',
    '' );
FILE_SCHEMA (( 'AUTOMOTIVE_DESIGN' ));
ENDSEC;

DATA;
#1 = AXIS2_PLACEMENT_3D ( 'NONE', #55, #294, #238 ) ;
#2 = DIRECTION ( 'NONE',  ( -1.000000000000000000, 0.0000000000000000000, 0.0000000000000000000 ) ) ;
#3 = CIRCLE ( 'NONE', #41, 0.09375000000000001388 ) ;
#4 =( NAMED_UNIT ( * ) SI_UNIT ( $, .STERADIAN. ) SOLID_ANGLE_UNIT ( ) );
#5 = EDGE_CURVE ( 'NONE', #346, #297, #223, .T. ) ;
#6 = LINE ( 'NONE', #136, #109 ) ;
#7 = VERTEX_POINT ( 'NONE', #74 ) ;
#8 = CIRCLE ( 'NONE', #253, 0.04500000000000003303 ) ;
#9 = CARTESIAN_POINT ( 'NONE',  ( 0.07874999999999980627, 9.644093543285380530E-18, 2.000000000000000000 ) ) ;
#10 = AXIS2_PLACEMENT_3D ( 'NONE', #311, #47, #174 ) ;
#11 = DIRECTION ( 'NONE',  ( 1.000000000000000000, 0.0000000000000000000, 0.0000000000000000000 ) ) ;
#12 = DIRECTION ( 'NONE',  ( 0.0000000000000000000, 0.0000000000000000000, 1.000000000000000000 ) ) ;
#13 = DIRECTION ( 'NONE',  ( 0.0000000000000000000, 0.0000000000000000000, 1.000000000000000000 ) ) ;
#14 =( NAMED_UNIT ( * ) PLANE_ANGLE_UNIT ( ) SI_UNIT ( $, .RADIAN. ) );
#15 = DIRECTION ( 'NONE',  ( 0.7071067811865463515, 8.659560562354916834E-17, -0.7071067811865486830 ) ) ;
#16 = CIRCLE ( 'NONE', #10, 0.09375000000000001388 ) ;
#17 = EDGE_CURVE ( 'NONE', #297, #120, #301, .T. ) ;
#18 = CARTESIAN_POINT ( 'NONE',  ( -0.07874999999999980627, 0.0000000000000000000, 2.000000000000000000 ) ) ;
#19 = CARTESIAN_POINT ( 'NONE',  ( 0.09375000000000001388, 1.148106374200643863E-17, 2.000000000000000000 ) ) ;
#20 = AXIS2_PLACEMENT_3D ( 'NONE', #356, #125, #192 ) ;
#21 = CIRCLE ( 'NONE', #73, 0.09375000000000001388 ) ;
#22 = ORIENTED_EDGE ( 'NONE', *, *, #340, .F. ) ;
#23 = FILL_AREA_STYLE ('',( #181 ) ) ;
#24 = EDGE_LOOP ( 'NONE', ( #57, #262, #209, #128 ) ) ;
#25 = SURFACE_STYLE_FILL_AREA ( #23 ) ;
#26 = ORIENTED_EDGE ( 'NONE', *, *, #105, .F. ) ;
#27 = AXIS2_PLACEMENT_3D ( 'NONE', #137, #244, #269 ) ;
#28 = LINE ( 'NONE', #61, #257 ) ;
#29 = DIRECTION ( 'NONE',  ( -1.000000000000000000, 0.0000000000000000000, 0.0000000000000000000 ) ) ;
#30 = EDGE_LOOP ( 'NONE', ( #26, #264 ) ) ;
#31 = FACE_OUTER_BOUND ( 'NONE', #228, .T. ) ;
#32 =( LENGTH_UNIT ( ) NAMED_UNIT ( * ) SI_UNIT ( $, .METRE. ) );
#33 = ORIENTED_EDGE ( 'NONE', *, *, #145, .T. ) ;
#34 = DIRECTION ( 'NONE',  ( -0.0000000000000000000, -0.0000000000000000000, -1.000000000000000000 ) ) ;
#35 = CARTESIAN_POINT ( 'NONE',  ( 0.0000000000000000000, 0.0000000000000000000, 0.0000000000000000000 ) ) ;
#36 = LENGTH_MEASURE_WITH_UNIT ( LENGTH_MEASURE( 0.02539999999999999897 ), #322 );
#37 = DIRECTION ( 'NONE',  ( -0.0000000000000000000, -0.0000000000000000000, -1.000000000000000000 ) ) ;
#38 = FACE_OUTER_BOUND ( 'NONE', #188, .T. ) ;
#39 = AXIS2_PLACEMENT_3D ( 'NONE', #375, #323, #94 ) ;
#40 = ORIENTED_EDGE ( 'NONE', *, *, #284, .T. ) ;
#41 = AXIS2_PLACEMENT_3D ( 'NONE', #355, #217, #298 ) ;
#42 = ORIENTED_EDGE ( 'NONE', *, *, #176, .T. ) ;
#43 = ADVANCED_FACE ( 'NONE', ( #303 ), #202, .F. ) ;
#44 = EDGE_CURVE ( 'NONE', #88, #379, #140, .T. ) ;
#45 = DIRECTION ( 'NONE',  ( -0.0000000000000000000, -0.0000000000000000000, -1.000000000000000000 ) ) ;
#46 = EDGE_CURVE ( 'NONE', #248, #116, #6, .T. ) ;
#47 = DIRECTION ( 'NONE',  ( 0.0000000000000000000, 0.0000000000000000000, -1.000000000000000000 ) ) ;
#48 = LINE ( 'NONE', #206, #151 ) ;
#49 = DIRECTION ( 'NONE',  ( -0.0000000000000000000, -0.0000000000000000000, -1.000000000000000000 ) ) ;
#50 = CIRCLE ( 'NONE', #267, 0.04500000000000000527 ) ;
#51 = ORIENTED_EDGE ( 'NONE', *, *, #70, .F. ) ;
#52 = DIRECTION ( 'NONE',  ( 0.0000000000000000000, 0.0000000000000000000, 1.000000000000000000 ) ) ;
#53 = ORIENTED_EDGE ( 'NONE', *, *, #70, .T. ) ;
#54 = FACE_OUTER_BOUND ( 'NONE', #30, .T. ) ;
#55 = CARTESIAN_POINT ( 'NONE',  ( 0.0000000000000000000, 0.0000000000000000000, 0.3487499999999997824 ) ) ;
#56 = DIRECTION ( 'NONE',  ( -1.000000000000000000, 0.0000000000000000000, 0.0000000000000000000 ) ) ;
#57 = ORIENTED_EDGE ( 'NONE', *, *, #44, .F. ) ;
#58 = PRESENTATION_LAYER_ASSIGNMENT (  '', '', ( #309 ) ) ;
#59 = ADVANCED_FACE ( 'NONE', ( #358 ), #222, .T. ) ;
#60 = VERTEX_POINT ( 'NONE', #108 ) ;
#61 = CARTESIAN_POINT ( 'NONE',  ( -0.04500000000000001221, 0.0000000000000000000, 0.0000000000000000000 ) ) ;
#62 = FILL_AREA_STYLE_COLOUR ( '', #272 ) ;
#63 = DIRECTION ( 'NONE',  ( 0.0000000000000000000, 0.0000000000000000000, 1.000000000000000000 ) ) ;
#64 = DIRECTION ( 'NONE',  ( -0.0000000000000000000, -0.0000000000000000000, -1.000000000000000000 ) ) ;
#65 = CIRCLE ( 'NONE', #230, 0.07874999999999980627 ) ;
#66 = CARTESIAN_POINT ( 'NONE',  ( 0.0000000000000000000, 0.0000000000000000000, 0.04499999999999999833 ) ) ;
#67 = ADVANCED_FACE ( 'NONE', ( #138 ), #276, .T. ) ;
#68 = DIRECTION ( 'NONE',  ( -0.7071067811865491270, 8.659560562354952580E-17, 0.7071067811865459074 ) ) ;
#69 = CARTESIAN_POINT ( 'NONE',  ( 0.0000000000000000000, 0.0000000000000000000, 2.000000000000000000 ) ) ;
#70 = EDGE_CURVE ( 'NONE', #376, #116, #221, .T. ) ;
#71 = CARTESIAN_POINT ( 'NONE',  ( 0.07874999999999980627, 1.056257864264590573E-17, 2.000000000000000000 ) ) ;
#72 = AXIS2_PLACEMENT_3D ( 'NONE', #363, #357, #196 ) ;
#73 = AXIS2_PLACEMENT_3D ( 'NONE', #35, #324, #300 ) ;
#74 = CARTESIAN_POINT ( 'NONE',  ( 0.09375000000000001388, 1.148106374200643863E-17, 1.984999999999999654 ) ) ;
#75 = FACE_OUTER_BOUND ( 'NONE', #275, .T. ) ;
#76 = EDGE_CURVE ( 'NONE', #295, #374, #278, .T. ) ;
#77 = CARTESIAN_POINT ( 'NONE',  ( 0.0000000000000000000, 0.0000000000000000000, 0.0000000000000000000 ) ) ;
#78 = AXIS2_PLACEMENT_3D ( 'NONE', #307, #98, #334 ) ;
#79 = CONICAL_SURFACE ( 'NONE', #39, 0.07874999999999980627, 0.7853981633974466137 ) ;
#80 = DIRECTION ( 'NONE',  ( -0.0000000000000000000, -0.0000000000000000000, -1.000000000000000000 ) ) ;
#81 = EDGE_CURVE ( 'NONE', #374, #60, #50, .T. ) ;
#82 = VECTOR ( 'NONE', #45, 39.37007874015748143 ) ;
#83 = ORIENTED_EDGE ( 'NONE', *, *, #359, .T. ) ;
#84 = DIRECTION ( 'NONE',  ( 1.000000000000000000, 0.0000000000000000000, 0.0000000000000000000 ) ) ;
#85 = EDGE_CURVE ( 'NONE', #116, #343, #205, .T. ) ;
#86 = ORIENTED_EDGE ( 'NONE', *, *, #319, .T. ) ;
#87 = EDGE_CURVE ( 'NONE', #88, #7, #305, .T. ) ;
#88 = VERTEX_POINT ( 'NONE', #71 ) ;
#89 = DIRECTION ( 'NONE',  ( -0.0000000000000000000, -0.0000000000000000000, -1.000000000000000000 ) ) ;
#90 = FILL_AREA_STYLE ('',( #62 ) ) ;
#91 = AXIS2_PLACEMENT_3D ( 'NONE', #261, #64, #243 ) ;
#92 = ORIENTED_EDGE ( 'NONE', *, *, #17, .T. ) ;
#93 =( GEOMETRIC_REPRESENTATION_CONTEXT ( 3 ) GLOBAL_UNCERTAINTY_ASSIGNED_CONTEXT ( ( #178 ) ) GLOBAL_UNIT_ASSIGNED_CONTEXT ( ( #255, #291, #377 ) ) REPRESENTATION_CONTEXT ( 'NONE', 'WORKASPACE' ) );
#94 = DIRECTION ( 'NONE',  ( -1.000000000000000000, 0.0000000000000000000, 0.0000000000000000000 ) ) ;
#95 = EDGE_LOOP ( 'NONE', ( #180, #233, #287, #370 ) ) ;
#96 = CARTESIAN_POINT ( 'NONE',  ( -0.09375000000000001388, 0.0000000000000000000, 0.0000000000000000000 ) ) ;
#97 = CARTESIAN_POINT ( 'NONE',  ( 0.0000000000000000000, 0.0000000000000000000, 0.04499999999999999833 ) ) ;
#98 = DIRECTION ( 'NONE',  ( 0.0000000000000000000, 0.0000000000000000000, 1.000000000000000000 ) ) ;
#99 = ADVANCED_FACE ( 'NONE', ( #38 ), #102, .T. ) ;
#100 = CARTESIAN_POINT ( 'NONE',  ( -0.04500000000000003303, 8.495987169084765633E-18, 0.2999999999999999889 ) ) ;
#101 = AXIS2_PLACEMENT_3D ( 'NONE', #232, #344, #56 ) ;
#102 = CONICAL_SURFACE ( 'NONE', #225, 0.04500000000000003303, 0.7853981633974506105 ) ;
#103 = DIRECTION ( 'NONE',  ( 1.000000000000000000, 0.0000000000000000000, -0.0000000000000000000 ) ) ;
#104 = EDGE_LOOP ( 'NONE', ( #167, #131, #314, #259 ) ) ;
#105 = EDGE_CURVE ( 'NONE', #346, #171, #115, .T. ) ;
#106 = DIRECTION ( 'NONE',  ( 1.000000000000000000, 0.0000000000000000000, 0.0000000000000000000 ) ) ;
#107 = CIRCLE ( 'NONE', #159, 0.09375000000000002776 ) ;
#108 = CARTESIAN_POINT ( 'NONE',  ( -0.04500000000000000527, 0.0000000000000000000, 0.04500000000000000527 ) ) ;
#109 = VECTOR ( 'NONE', #361, 39.37007874015748143 ) ;
#110 = DIRECTION ( 'NONE',  ( 1.000000000000000000, 0.0000000000000000000, 0.0000000000000000000 ) ) ;
#111 = DIRECTION ( 'NONE',  ( -0.0000000000000000000, -0.0000000000000000000, -1.000000000000000000 ) ) ;
#112 = ORIENTED_EDGE ( 'NONE', *, *, #5, .T. ) ;
#113 = DIRECTION ( 'NONE',  ( -0.7071067811865463515, 0.0000000000000000000, -0.7071067811865486830 ) ) ;
#114 = CYLINDRICAL_SURFACE ( 'NONE', #161, 0.09375000000000001388 ) ;
#115 = CIRCLE ( 'NONE', #351, 0.09375000000000002776 ) ;
#116 = VERTEX_POINT ( 'NONE', #341 ) ;
#117 = ADVANCED_FACE ( 'NONE', ( #75 ), #114, .T. ) ;
#118 = EDGE_CURVE ( 'NONE', #171, #120, #142, .T. ) ;
#119 = DIMENSIONAL_EXPONENTS ( 1.000000000000000000, 0.0000000000000000000, 0.0000000000000000000, 0.0000000000000000000, 0.0000000000000000000, 0.0000000000000000000, 0.0000000000000000000 ) ;
#120 = VERTEX_POINT ( 'NONE', #141 ) ;
#121 = FACE_BOUND ( 'NONE', #169, .T. ) ;
#122 = COLOUR_RGB ( '',0.7921568627450980005, 0.8196078431372548767, 0.9333333333333333481 ) ;
#123 = ORIENTED_EDGE ( 'NONE', *, *, #260, .T. ) ;
#124 = EDGE_CURVE ( 'NONE', #376, #295, #208, .T. ) ;
#125 = DIRECTION ( 'NONE',  ( 0.0000000000000000000, 0.0000000000000000000, 1.000000000000000000 ) ) ;
#126 = ORIENTED_EDGE ( 'NONE', *, *, #85, .F. ) ;
#127 = DIRECTION ( 'NONE',  ( -1.000000000000000000, 0.0000000000000000000, 0.0000000000000000000 ) ) ;
#128 = ORIENTED_EDGE ( 'NONE', *, *, #160, .F. ) ;
#129 = CARTESIAN_POINT ( 'NONE',  ( 0.0000000000000000000, 0.0000000000000000000, 0.2999999999999999889 ) ) ;
#130 = FACE_OUTER_BOUND ( 'NONE', #256, .T. ) ;
#131 = ORIENTED_EDGE ( 'NONE', *, *, #76, .T. ) ;
#132 = AXIS2_PLACEMENT_3D ( 'NONE', #247, #271, #106 ) ;
#133 = PRODUCT_DEFINITION_FORMATION_WITH_SPECIFIED_SOURCE ( 'ANY', '', #296, .NOT_KNOWN. ) ;
#134 = PRESENTATION_STYLE_ASSIGNMENT (( #156 ) ) ;
#135 = ADVANCED_FACE ( 'NONE', ( #339 ), #365, .T. ) ;
#136 = CARTESIAN_POINT ( 'NONE',  ( -0.09375000000000001388, 0.0000000000000000000, 2.000000000000000000 ) ) ;
#137 = CARTESIAN_POINT ( 'NONE',  ( 0.0000000000000000000, 0.0000000000000000000, 0.0000000000000000000 ) ) ;
#138 = FACE_OUTER_BOUND ( 'NONE', #350, .T. ) ;
#139 = ORIENTED_EDGE ( 'NONE', *, *, #145, .F. ) ;
#140 = CIRCLE ( 'NONE', #132, 0.07874999999999980627 ) ;
#141 = CARTESIAN_POINT ( 'NONE',  ( 0.09375000000000001388, 1.148106374200643863E-17, 0.0000000000000000000 ) ) ;
#142 = LINE ( 'NONE', #19, #292 ) ;
#143 = AXIS2_PLACEMENT_3D ( 'NONE', #162, #63, #193 ) ;
#144 = VECTOR ( 'NONE', #15, 39.37007874015748143 ) ;
#145 = EDGE_CURVE ( 'NONE', #295, #343, #48, .T. ) ;
#146 =( LENGTH_UNIT ( ) NAMED_UNIT ( * ) SI_UNIT ( $, .METRE. ) );
#147 = EDGE_LOOP ( 'NONE', ( #332, #182 ) ) ;
#148 = ADVANCED_FACE ( 'NONE', ( #254 ), #175, .T. ) ;
#149 = LINE ( 'NONE', #218, #177 ) ;
#150 = APPLICATION_PROTOCOL_DEFINITION ( 'draft international standard', 'automotive_design', 1998, #333 ) ;
#151 = VECTOR ( 'NONE', #312, 39.37007874015748143 ) ;
#152 = AXIS2_PLACEMENT_3D ( 'NONE', #364, #12, #110 ) ;
#153 = DIRECTION ( 'NONE',  ( -1.000000000000000000, 0.0000000000000000000, 0.0000000000000000000 ) ) ;
#154 = ORIENTED_EDGE ( 'NONE', *, *, #46, .F. ) ;
#155 = SURFACE_SIDE_STYLE ('',( #25 ) ) ;
#156 = SURFACE_STYLE_USAGE ( .BOTH. , #158 ) ;
#157 = CARTESIAN_POINT ( 'NONE',  ( 0.04500000000000003303, 0.0000000000000000000, 0.2999999999999999889 ) ) ;
#158 = SURFACE_SIDE_STYLE ('',( #299 ) ) ;
#159 = AXIS2_PLACEMENT_3D ( 'NONE', #97, #326, #153 ) ;
#160 = EDGE_CURVE ( 'NONE', #379, #248, #172, .T. ) ;
#161 = AXIS2_PLACEMENT_3D ( 'NONE', #203, #80, #308 ) ;
#162 = CARTESIAN_POINT ( 'NONE',  ( 0.09375000000000002776, 0.0000000000000000000, 0.04499999999999999833 ) ) ;
#163 = CARTESIAN_POINT ( 'NONE',  ( 0.09375000000000001388, 1.148106374200643863E-17, 0.3487499999999997824 ) ) ;
#164 = CARTESIAN_POINT ( 'NONE',  ( -0.04500000000000003303, 5.510910596163093407E-18, 0.2999999999999999889 ) ) ;
#165 = CARTESIAN_POINT ( 'NONE',  ( 0.0000000000000000000, 0.0000000000000000000, 0.04500000000000000527 ) ) ;
#166 = CLOSED_SHELL ( 'NONE', ( #135, #148, #336, #268, #226, #59, #67, #216, #99, #367, #325, #43, #117 ) ) ;
#167 = ORIENTED_EDGE ( 'NONE', *, *, #124, .T. ) ;
#168 = LENGTH_MEASURE_WITH_UNIT ( LENGTH_MEASURE( 0.02539999999999999897 ), #32 );
#169 = EDGE_LOOP ( 'NONE', ( #315, #329 ) ) ;
#170 =( NAMED_UNIT ( * ) SI_UNIT ( $, .STERADIAN. ) SOLID_ANGLE_UNIT ( ) );
#171 = VERTEX_POINT ( 'NONE', #204 ) ;
#172 = LINE ( 'NONE', #18, #220 ) ;
#173 = AXIS2_PLACEMENT_3D ( 'NONE', #198, #219, #11 ) ;
#174 = DIRECTION ( 'NONE',  ( 1.000000000000000000, 0.0000000000000000000, 0.0000000000000000000 ) ) ;
#175 = CYLINDRICAL_SURFACE ( 'NONE', #250, 0.04500000000000001221 ) ;
#176 = EDGE_CURVE ( 'NONE', #248, #7, #16, .T. ) ;
#177 = VECTOR ( 'NONE', #286, 39.37007874015748143 ) ;
#178 = UNCERTAINTY_MEASURE_WITH_UNIT (LENGTH_MEASURE( 1.000000000000000082E-05 ), #255, 'distance_accuracy_value', 'NONE');
#179 = PRESENTATION_LAYER_ASSIGNMENT (  '', '', ( #199 ) ) ;
#180 = ORIENTED_EDGE ( 'NONE', *, *, #105, .T. ) ;
#181 = FILL_AREA_STYLE_COLOUR ( '', #122 ) ;
#182 = ORIENTED_EDGE ( 'NONE', *, *, #331, .F. ) ;
#183 = PRODUCT_DEFINITION_CONTEXT ( 'detailed design', #327, 'design' ) ;
#184 = ORIENTED_EDGE ( 'NONE', *, *, #118, .F. ) ;
#185 = EDGE_CURVE ( 'NONE', #376, #60, #28, .T. ) ;
#186 = CYLINDRICAL_SURFACE ( 'NONE', #274, 0.09375000000000001388 ) ;
#187 = AXIS2_PLACEMENT_3D ( 'NONE', #313, #49, #251 ) ;
#188 = EDGE_LOOP ( 'NONE', ( #51, #369, #33, #371 ) ) ;
#189 = FACE_OUTER_BOUND ( 'NONE', #237, .T. ) ;
#190 = ORIENTED_EDGE ( 'NONE', *, *, #44, .T. ) ;
#191 = EDGE_CURVE ( 'NONE', #379, #88, #65, .T. ) ;
#192 = DIRECTION ( 'NONE',  ( 1.000000000000000000, 0.0000000000000000000, 0.0000000000000000000 ) ) ;
#193 = DIRECTION ( 'NONE',  ( 1.000000000000000000, 0.0000000000000000000, -0.0000000000000000000 ) ) ;
#194 = CARTESIAN_POINT ( 'NONE',  ( -0.07874999999999980627, 0.0000000000000000000, 2.000000000000000000 ) ) ;
#195 = VECTOR ( 'NONE', #68, 39.37007874015748143 ) ;
#196 = DIRECTION ( 'NONE',  ( -1.000000000000000000, 0.0000000000000000000, 0.0000000000000000000 ) ) ;
#197 = CARTESIAN_POINT ( 'NONE',  ( 0.04500000000000001221, 5.510910596163091096E-18, 0.0000000000000000000 ) ) ;
#198 = CARTESIAN_POINT ( 'NONE',  ( 0.0000000000000000000, 0.0000000000000000000, 0.3487499999999997824 ) ) ;
#199 = STYLED_ITEM ( 'NONE', ( #134 ), #273 ) ;
#200 = CIRCLE ( 'NONE', #266, 0.04500000000000000527 ) ;
#201 = CARTESIAN_POINT ( 'NONE',  ( 0.0000000000000000000, 0.0000000000000000000, 0.2999999999999999889 ) ) ;
#202 = PLANE ( 'NONE',  #78 ) ;
#203 = CARTESIAN_POINT ( 'NONE',  ( 0.0000000000000000000, 0.0000000000000000000, 2.000000000000000000 ) ) ;
#204 = CARTESIAN_POINT ( 'NONE',  ( 0.09375000000000002776, 1.148106374200644017E-17, 0.04499999999999999833 ) ) ;
#205 = CIRCLE ( 'NONE', #173, 0.09375000000000001388 ) ;
#206 = CARTESIAN_POINT ( 'NONE',  ( 0.04500000000000003303, 0.0000000000000000000, 0.2999999999999999889 ) ) ;
#207 = DIRECTION ( 'NONE',  ( -0.0000000000000000000, -0.0000000000000000000, -1.000000000000000000 ) ) ;
#208 = CIRCLE ( 'NONE', #187, 0.04500000000000003303 ) ;
#209 = ORIENTED_EDGE ( 'NONE', *, *, #176, .F. ) ;
#210 = PRODUCT_DEFINITION_SHAPE ( 'NONE', 'NONE',  #290 ) ;
#211 = ORIENTED_EDGE ( 'NONE', *, *, #124, .F. ) ;
#212 = CARTESIAN_POINT ( 'NONE',  ( 0.0000000000000000000, 0.0000000000000000000, 2.000000000000000000 ) ) ;
#213 = ORIENTED_EDGE ( 'NONE', *, *, #319, .F. ) ;
#214 = PRESENTATION_STYLE_ASSIGNMENT (( #348 ) ) ;
#215 = CARTESIAN_POINT ( 'NONE',  ( 0.0000000000000000000, 0.0000000000000000000, 0.04500000000000000527 ) ) ;
#216 = ADVANCED_FACE ( 'NONE', ( #31 ), #279, .T. ) ;
#217 = DIRECTION ( 'NONE',  ( 0.0000000000000000000, 0.0000000000000000000, -1.000000000000000000 ) ) ;
#218 = CARTESIAN_POINT ( 'NONE',  ( 0.09375000000000001388, 1.148106374200643863E-17, 2.000000000000000000 ) ) ;
#219 = DIRECTION ( 'NONE',  ( -0.0000000000000000000, -0.0000000000000000000, -1.000000000000000000 ) ) ;
#220 = VECTOR ( 'NONE', #113, 39.37007874015748143 ) ;
#221 = LINE ( 'NONE', #164, #195 ) ;
#222 = CYLINDRICAL_SURFACE ( 'NONE', #72, 0.09375000000000001388 ) ;
#223 = LINE ( 'NONE', #330, #239 ) ;
#224 = APPLICATION_PROTOCOL_DEFINITION ( 'draft international standard', 'automotive_design', 1998, #327 ) ;
#225 = AXIS2_PLACEMENT_3D ( 'NONE', #201, #335, #328 ) ;
#226 = ADVANCED_FACE ( 'NONE', ( #189 ), #186, .T. ) ;
#227 = DIRECTION ( 'NONE',  ( -0.0000000000000000000, -0.0000000000000000000, -1.000000000000000000 ) ) ;
#228 = EDGE_LOOP ( 'NONE', ( #281, #236, #245, #285 ) ) ;
#229 = DIRECTION ( 'NONE',  ( -1.000000000000000000, 0.0000000000000000000, 0.0000000000000000000 ) ) ;
#230 = AXIS2_PLACEMENT_3D ( 'NONE', #320, #52, #84 ) ;
#231 = ORIENTED_EDGE ( 'NONE', *, *, #76, .F. ) ;
#232 = CARTESIAN_POINT ( 'NONE',  ( 0.0000000000000000000, 0.0000000000000000000, 2.000000000000000000 ) ) ;
#233 = ORIENTED_EDGE ( 'NONE', *, *, #118, .T. ) ;
#234 = DIRECTION ( 'NONE',  ( -0.0000000000000000000, -0.0000000000000000000, -1.000000000000000000 ) ) ;
#235 = ORIENTED_EDGE ( 'NONE', *, *, #185, .T. ) ;
#236 = ORIENTED_EDGE ( 'NONE', *, *, #191, .F. ) ;
#237 = EDGE_LOOP ( 'NONE', ( #42, #86, #126, #154 ) ) ;
#238 = DIRECTION ( 'NONE',  ( 1.000000000000000000, 0.0000000000000000000, 0.0000000000000000000 ) ) ;
#239 = VECTOR ( 'NONE', #249, 39.37007874015748143 ) ;
#240 = DIMENSIONAL_EXPONENTS ( 1.000000000000000000, 0.0000000000000000000, 0.0000000000000000000, 0.0000000000000000000, 0.0000000000000000000, 0.0000000000000000000, 0.0000000000000000000 ) ;
#241 = MANIFOLD_SOLID_BREP ( 'Cut-Revolve1', #166 ) ;
#242 = EDGE_LOOP ( 'NONE', ( #211, #53, #347, #139 ) ) ;
#243 = DIRECTION ( 'NONE',  ( -1.000000000000000000, 0.0000000000000000000, 0.0000000000000000000 ) ) ;
#244 = DIRECTION ( 'NONE',  ( 0.0000000000000000000, 0.0000000000000000000, 1.000000000000000000 ) ) ;
#245 = ORIENTED_EDGE ( 'NONE', *, *, #160, .T. ) ;
#246 =( GEOMETRIC_REPRESENTATION_CONTEXT ( 3 ) GLOBAL_UNCERTAINTY_ASSIGNED_CONTEXT ( ( #342 ) ) GLOBAL_UNIT_ASSIGNED_CONTEXT ( ( #378, #318, #4 ) ) REPRESENTATION_CONTEXT ( 'NONE', 'WORKASPACE' ) );
#247 = CARTESIAN_POINT ( 'NONE',  ( 0.0000000000000000000, 0.0000000000000000000, 2.000000000000000000 ) ) ;
#248 = VERTEX_POINT ( 'NONE', #316 ) ;
#249 = DIRECTION ( 'NONE',  ( -0.0000000000000000000, -0.0000000000000000000, -1.000000000000000000 ) ) ;
#250 = AXIS2_PLACEMENT_3D ( 'NONE', #77, #282, #337 ) ;
#251 = DIRECTION ( 'NONE',  ( -1.000000000000000000, 0.0000000000000000000, 0.0000000000000000000 ) ) ;
#252 = PRODUCT_CONTEXT ( 'NONE', #333, 'mechanical' ) ;
#253 = AXIS2_PLACEMENT_3D ( 'NONE', #129, #34, #127 ) ;
#254 = FACE_OUTER_BOUND ( 'NONE', #104, .T. ) ;
#255 =( CONVERSION_BASED_UNIT ( 'INCH', #321 ) LENGTH_UNIT ( ) NAMED_UNIT ( #119 ) );
#256 = EDGE_LOOP ( 'NONE', ( #231, #40, #235, #362 ) ) ;
#257 = VECTOR ( 'NONE', #89, 39.37007874015748143 ) ;
#258 = CYLINDRICAL_SURFACE ( 'NONE', #91, 0.04500000000000001221 ) ;
#259 = ORIENTED_EDGE ( 'NONE', *, *, #185, .F. ) ;
#260 = EDGE_CURVE ( 'NONE', #7, #248, #3, .T. ) ;
#261 = CARTESIAN_POINT ( 'NONE',  ( 0.0000000000000000000, 0.0000000000000000000, 0.0000000000000000000 ) ) ;
#262 = ORIENTED_EDGE ( 'NONE', *, *, #87, .T. ) ;
#263 = FACE_OUTER_BOUND ( 'NONE', #24, .T. ) ;
#264 = ORIENTED_EDGE ( 'NONE', *, *, #359, .F. ) ;
#265 = DIMENSIONAL_EXPONENTS ( 1.000000000000000000, 0.0000000000000000000, 0.0000000000000000000, 0.0000000000000000000, 0.0000000000000000000, 0.0000000000000000000, 0.0000000000000000000 ) ;
#266 = AXIS2_PLACEMENT_3D ( 'NONE', #215, #234, #29 ) ;
#267 = AXIS2_PLACEMENT_3D ( 'NONE', #165, #227, #304 ) ;
#268 = ADVANCED_FACE ( 'NONE', ( #263 ), #79, .T. ) ;
#269 = DIRECTION ( 'NONE',  ( 1.000000000000000000, 0.0000000000000000000, 0.0000000000000000000 ) ) ;
#270 =( CONVERSION_BASED_UNIT ( 'INCH', #168 ) LENGTH_UNIT ( ) NAMED_UNIT ( #265 ) );
#271 = DIRECTION ( 'NONE',  ( 0.0000000000000000000, 0.0000000000000000000, 1.000000000000000000 ) ) ;
#272 = COLOUR_RGB ( '',0.7921568627450980005, 0.8196078431372548767, 0.9333333333333333481 ) ;
#273 = ADVANCED_BREP_SHAPE_REPRESENTATION ( 'Micro_KC-187-300-045X', ( #241, #152 ), #246 ) ;
#274 = AXIS2_PLACEMENT_3D ( 'NONE', #212, #372, #2 ) ;
#275 = EDGE_LOOP ( 'NONE', ( #184, #83, #112, #92 ) ) ;
#276 = PLANE ( 'NONE',  #345 ) ;
#277 = SHAPE_DEFINITION_REPRESENTATION ( #210, #273 ) ;
#278 = LINE ( 'NONE', #197, #82 ) ;
#279 = CONICAL_SURFACE ( 'NONE', #101, 0.07874999999999980627, 0.7853981633974466137 ) ;
#280 = CARTESIAN_POINT ( 'NONE',  ( 0.0000000000000000000, 0.0000000000000000000, 2.000000000000000000 ) ) ;
#281 = ORIENTED_EDGE ( 'NONE', *, *, #87, .F. ) ;
#282 = DIRECTION ( 'NONE',  ( -0.0000000000000000000, -0.0000000000000000000, -1.000000000000000000 ) ) ;
#283 =( GEOMETRIC_REPRESENTATION_CONTEXT ( 3 ) GLOBAL_UNCERTAINTY_ASSIGNED_CONTEXT ( ( #317 ) ) GLOBAL_UNIT_ASSIGNED_CONTEXT ( ( #270, #14, #170 ) ) REPRESENTATION_CONTEXT ( 'NONE', 'WORKASPACE' ) );
#284 = EDGE_CURVE ( 'NONE', #295, #376, #8, .T. ) ;
#285 = ORIENTED_EDGE ( 'NONE', *, *, #260, .F. ) ;
#286 = DIRECTION ( 'NONE',  ( -0.0000000000000000000, -0.0000000000000000000, -1.000000000000000000 ) ) ;
#287 = ORIENTED_EDGE ( 'NONE', *, *, #331, .T. ) ;
#288 = PLANE ( 'NONE',  #143 ) ;
#289 = ORIENTED_EDGE ( 'NONE', *, *, #46, .T. ) ;
#290 = PRODUCT_DEFINITION ( 'UNKNOWN', '', #133, #183 ) ;
#291 =( NAMED_UNIT ( * ) PLANE_ANGLE_UNIT ( ) SI_UNIT ( $, .RADIAN. ) );
#292 = VECTOR ( 'NONE', #207, 39.37007874015748143 ) ;
#293 = CONICAL_SURFACE ( 'NONE', #20, 0.04500000000000003303, 0.7853981633974506105 ) ;
#294 = DIRECTION ( 'NONE',  ( -0.0000000000000000000, -0.0000000000000000000, -1.000000000000000000 ) ) ;
#295 = VERTEX_POINT ( 'NONE', #157 ) ;
#296 = PRODUCT ( 'Micro_KC-187-300-045X', 'Micro_KC-187-300-045X', '', ( #252 ) ) ;
#297 = VERTEX_POINT ( 'NONE', #96 ) ;
#298 = DIRECTION ( 'NONE',  ( 1.000000000000000000, 0.0000000000000000000, 0.0000000000000000000 ) ) ;
#299 = SURFACE_STYLE_FILL_AREA ( #90 ) ;
#300 = DIRECTION ( 'NONE',  ( 1.000000000000000000, 0.0000000000000000000, 0.0000000000000000000 ) ) ;
#301 = CIRCLE ( 'NONE', #27, 0.09375000000000001388 ) ;
#302 = PRODUCT_RELATED_PRODUCT_CATEGORY ( 'part', '', ( #296 ) ) ;
#303 = FACE_OUTER_BOUND ( 'NONE', #147, .T. ) ;
#304 = DIRECTION ( 'NONE',  ( -1.000000000000000000, 0.0000000000000000000, 0.0000000000000000000 ) ) ;
#305 = LINE ( 'NONE', #9, #144 ) ;
#306 = ORIENTED_EDGE ( 'NONE', *, *, #191, .T. ) ;
#307 = CARTESIAN_POINT ( 'NONE',  ( 0.0000000000000000000, 0.0000000000000000000, 0.0000000000000000000 ) ) ;
#308 = DIRECTION ( 'NONE',  ( -1.000000000000000000, 0.0000000000000000000, 0.0000000000000000000 ) ) ;
#309 = STYLED_ITEM ( 'NONE', ( #214 ), #241 ) ;
#310 = MECHANICAL_DESIGN_GEOMETRIC_PRESENTATION_REPRESENTATION (  '', ( #199 ), #283 ) ;
#311 = CARTESIAN_POINT ( 'NONE',  ( 0.0000000000000000000, 0.0000000000000000000, 1.984999999999999654 ) ) ;
#312 = DIRECTION ( 'NONE',  ( 0.7071067811865491270, 0.0000000000000000000, 0.7071067811865459074 ) ) ;
#313 = CARTESIAN_POINT ( 'NONE',  ( 0.0000000000000000000, 0.0000000000000000000, 0.2999999999999999889 ) ) ;
#314 = ORIENTED_EDGE ( 'NONE', *, *, #354, .F. ) ;
#315 = ORIENTED_EDGE ( 'NONE', *, *, #354, .T. ) ;
#316 = CARTESIAN_POINT ( 'NONE',  ( -0.09375000000000001388, 0.0000000000000000000, 1.984999999999999654 ) ) ;
#317 = UNCERTAINTY_MEASURE_WITH_UNIT (LENGTH_MEASURE( 1.000000000000000082E-05 ), #270, 'distance_accuracy_value', 'NONE');
#318 =( NAMED_UNIT ( * ) PLANE_ANGLE_UNIT ( ) SI_UNIT ( $, .RADIAN. ) );
#319 = EDGE_CURVE ( 'NONE', #7, #343, #149, .T. ) ;
#320 = CARTESIAN_POINT ( 'NONE',  ( 0.0000000000000000000, 0.0000000000000000000, 2.000000000000000000 ) ) ;
#321 = LENGTH_MEASURE_WITH_UNIT ( LENGTH_MEASURE( 0.02539999999999999897 ), #146 );
#322 =( LENGTH_UNIT ( ) NAMED_UNIT ( * ) SI_UNIT ( $, .METRE. ) );
#323 = DIRECTION ( 'NONE',  ( 0.0000000000000000000, 0.0000000000000000000, -1.000000000000000000 ) ) ;
#324 = DIRECTION ( 'NONE',  ( 0.0000000000000000000, 0.0000000000000000000, 1.000000000000000000 ) ) ;
#325 = ADVANCED_FACE ( 'NONE', ( #121, #54 ), #288, .T. ) ;
#326 = DIRECTION ( 'NONE',  ( -0.0000000000000000000, -0.0000000000000000000, -1.000000000000000000 ) ) ;
#327 = APPLICATION_CONTEXT ( 'automotive_design' ) ;
#328 = DIRECTION ( 'NONE',  ( 1.000000000000000000, 0.0000000000000000000, 0.0000000000000000000 ) ) ;
#329 = ORIENTED_EDGE ( 'NONE', *, *, #81, .T. ) ;
#330 = CARTESIAN_POINT ( 'NONE',  ( -0.09375000000000001388, 0.0000000000000000000, 2.000000000000000000 ) ) ;
#331 = EDGE_CURVE ( 'NONE', #120, #297, #21, .T. ) ;
#332 = ORIENTED_EDGE ( 'NONE', *, *, #17, .F. ) ;
#333 = APPLICATION_CONTEXT ( 'automotive_design' ) ;
#334 = DIRECTION ( 'NONE',  ( 1.000000000000000000, 0.0000000000000000000, -0.0000000000000000000 ) ) ;
#335 = DIRECTION ( 'NONE',  ( 0.0000000000000000000, 0.0000000000000000000, 1.000000000000000000 ) ) ;
#336 = ADVANCED_FACE ( 'NONE', ( #349 ), #293, .T. ) ;
#337 = DIRECTION ( 'NONE',  ( -1.000000000000000000, 0.0000000000000000000, 0.0000000000000000000 ) ) ;
#338 = AXIS2_PLACEMENT_3D ( 'NONE', #280, #111, #229 ) ;
#339 = FACE_OUTER_BOUND ( 'NONE', #95, .T. ) ;
#340 = EDGE_CURVE ( 'NONE', #343, #116, #360, .T. ) ;
#341 = CARTESIAN_POINT ( 'NONE',  ( -0.09375000000000001388, 0.0000000000000000000, 0.3487499999999997824 ) ) ;
#342 = UNCERTAINTY_MEASURE_WITH_UNIT (LENGTH_MEASURE( 1.000000000000000082E-05 ), #378, 'distance_accuracy_value', 'NONE');
#343 = VERTEX_POINT ( 'NONE', #163 ) ;
#344 = DIRECTION ( 'NONE',  ( 0.0000000000000000000, 0.0000000000000000000, -1.000000000000000000 ) ) ;
#345 = AXIS2_PLACEMENT_3D ( 'NONE', #69, #13, #103 ) ;
#346 = VERTEX_POINT ( 'NONE', #352 ) ;
#347 = ORIENTED_EDGE ( 'NONE', *, *, #85, .T. ) ;
#348 = SURFACE_STYLE_USAGE ( .BOTH. , #155 ) ;
#349 = FACE_OUTER_BOUND ( 'NONE', #242, .T. ) ;
#350 = EDGE_LOOP ( 'NONE', ( #306, #190 ) ) ;
#351 = AXIS2_PLACEMENT_3D ( 'NONE', #66, #37, #366 ) ;
#352 = CARTESIAN_POINT ( 'NONE',  ( -0.09375000000000002776, 0.0000000000000000000, 0.04499999999999999833 ) ) ;
#353 = EDGE_LOOP ( 'NONE', ( #213, #123, #289, #22 ) ) ;
#354 = EDGE_CURVE ( 'NONE', #60, #374, #200, .T. ) ;
#355 = CARTESIAN_POINT ( 'NONE',  ( 0.0000000000000000000, 0.0000000000000000000, 1.984999999999999654 ) ) ;
#356 = CARTESIAN_POINT ( 'NONE',  ( 0.0000000000000000000, 0.0000000000000000000, 0.2999999999999999889 ) ) ;
#357 = DIRECTION ( 'NONE',  ( -0.0000000000000000000, -0.0000000000000000000, -1.000000000000000000 ) ) ;
#358 = FACE_OUTER_BOUND ( 'NONE', #353, .T. ) ;
#359 = EDGE_CURVE ( 'NONE', #171, #346, #107, .T. ) ;
#360 = CIRCLE ( 'NONE', #1, 0.09375000000000001388 ) ;
#361 = DIRECTION ( 'NONE',  ( -0.0000000000000000000, -0.0000000000000000000, -1.000000000000000000 ) ) ;
#362 = ORIENTED_EDGE ( 'NONE', *, *, #81, .F. ) ;
#363 = CARTESIAN_POINT ( 'NONE',  ( 0.0000000000000000000, 0.0000000000000000000, 2.000000000000000000 ) ) ;
#364 = CARTESIAN_POINT ( 'NONE',  ( 0.0000000000000000000, 0.0000000000000000000, 0.0000000000000000000 ) ) ;
#365 = CYLINDRICAL_SURFACE ( 'NONE', #338, 0.09375000000000001388 ) ;
#366 = DIRECTION ( 'NONE',  ( -1.000000000000000000, 0.0000000000000000000, 0.0000000000000000000 ) ) ;
#367 = ADVANCED_FACE ( 'NONE', ( #130 ), #258, .T. ) ;
#368 = MECHANICAL_DESIGN_GEOMETRIC_PRESENTATION_REPRESENTATION (  '', ( #309 ), #93 ) ;
#369 = ORIENTED_EDGE ( 'NONE', *, *, #284, .F. ) ;
#370 = ORIENTED_EDGE ( 'NONE', *, *, #5, .F. ) ;
#371 = ORIENTED_EDGE ( 'NONE', *, *, #340, .T. ) ;
#372 = DIRECTION ( 'NONE',  ( -0.0000000000000000000, -0.0000000000000000000, -1.000000000000000000 ) ) ;
#373 = CARTESIAN_POINT ( 'NONE',  ( 0.04500000000000000527, 5.510910596163090326E-18, 0.04500000000000000527 ) ) ;
#374 = VERTEX_POINT ( 'NONE', #373 ) ;
#375 = CARTESIAN_POINT ( 'NONE',  ( 0.0000000000000000000, 0.0000000000000000000, 2.000000000000000000 ) ) ;
#376 = VERTEX_POINT ( 'NONE', #100 ) ;
#377 =( NAMED_UNIT ( * ) SI_UNIT ( $, .STERADIAN. ) SOLID_ANGLE_UNIT ( ) );
#378 =( CONVERSION_BASED_UNIT ( 'INCH', #36 ) LENGTH_UNIT ( ) NAMED_UNIT ( #240 ) );
#379 = VERTEX_POINT ( 'NONE', #194 ) ;
ENDSEC;
END-ISO-10303-21;
