ISO-10303-21;
HEADER;
FILE_DESCRIPTION (( 'STEP AP214' ),
    '1' );
FILE_NAME ('Micro_SEM-062-02X.STEP',
    '2021-09-02T00:47:10',
    ( '' ),
    ( '' ),
    'SwSTEP 2.0',
    'SolidWorks 2020',
    '' );
FILE_SCHEMA (( 'AUTOMOTIVE_DESIGN' ));
ENDSEC;

DATA;
#1 = DIRECTION ( 'NONE',  ( -1.000000000000000000, 0.0000000000000000000, 1.224646799147353207E-16 ) ) ;
#2 = AXIS2_PLACEMENT_3D ( 'NONE', #136, #134, #61 ) ;
#3 =( GEOMETRIC_REPRESENTATION_CONTEXT ( 3 ) GLOBAL_UNCERTAINTY_ASSIGNED_CONTEXT ( ( #164 ) ) GLOBAL_UNIT_ASSIGNED_CONTEXT ( ( #73, #71, #180 ) ) REPRESENTATION_CONTEXT ( 'NONE', 'WORKASPACE' ) );
#4 = CARTESIAN_POINT ( 'NONE',  ( 0.06250000000000000000, 7.654042494670956004E-18, 1.485000000000000764 ) ) ;
#5 = PRODUCT_DEFINITION_SHAPE ( 'NONE', 'NONE',  #250 ) ;
#6 = FACE_OUTER_BOUND ( 'NONE', #247, .T. ) ;
#7 = ADVANCED_FACE ( 'NONE', ( #185 ), #79, .T. ) ;
#8 =( GEOMETRIC_REPRESENTATION_CONTEXT ( 3 ) GLOBAL_UNCERTAINTY_ASSIGNED_CONTEXT ( ( #277 ) ) GLOBAL_UNIT_ASSIGNED_CONTEXT ( ( #37, #255, #81 ) ) REPRESENTATION_CONTEXT ( 'NONE', 'WORKASPACE' ) );
#9 = LENGTH_MEASURE_WITH_UNIT ( LENGTH_MEASURE( 0.02539999999999999897 ), #257 );
#10 = CYLINDRICAL_SURFACE ( 'NONE', #13, 0.03121875000000000691 ) ;
#11 = DIRECTION ( 'NONE',  ( 1.000000000000000000, 0.0000000000000000000, 0.0000000000000000000 ) ) ;
#12 = DIRECTION ( 'NONE',  ( -1.000000000000000000, 0.0000000000000000000, 0.0000000000000000000 ) ) ;
#13 = AXIS2_PLACEMENT_3D ( 'NONE', #200, #175, #121 ) ;
#14 = EDGE_LOOP ( 'NONE', ( #291, #38 ) ) ;
#15 = ORIENTED_EDGE ( 'NONE', *, *, #165, .T. ) ;
#16 = FACE_OUTER_BOUND ( 'NONE', #14, .T. ) ;
#17 = ORIENTED_EDGE ( 'NONE', *, *, #165, .F. ) ;
#18 = FACE_OUTER_BOUND ( 'NONE', #125, .T. ) ;
#19 = CIRCLE ( 'NONE', #86, 0.04750000000000064587 ) ;
#20 = DIMENSIONAL_EXPONENTS ( 1.000000000000000000, 0.0000000000000000000, 0.0000000000000000000, 0.0000000000000000000, 0.0000000000000000000, 0.0000000000000000000, 0.0000000000000000000 ) ;
#21 = FACE_OUTER_BOUND ( 'NONE', #147, .T. ) ;
#22 = DIRECTION ( 'NONE',  ( 1.224646799147353454E-16, 0.0000000000000000000, 1.000000000000000000 ) ) ;
#23 = EDGE_CURVE ( 'NONE', #172, #102, #145, .T. ) ;
#24 = VECTOR ( 'NONE', #143, 39.37007874015748143 ) ;
#25 = MECHANICAL_DESIGN_GEOMETRIC_PRESENTATION_REPRESENTATION (  '', ( #191 ), #91 ) ;
#26 = ORIENTED_EDGE ( 'NONE', *, *, #169, .F. ) ;
#27 = CARTESIAN_POINT ( 'NONE',  ( 1.530808498934191817E-17, 0.0000000000000000000, 0.1250000000000000000 ) ) ;
#28 = CARTESIAN_POINT ( 'NONE',  ( 0.0000000000000000000, 0.0000000000000000000, 1.500000000000000222 ) ) ;
#29 = AXIS2_PLACEMENT_3D ( 'NONE', #46, #168, #197 ) ;
#30 =( LENGTH_UNIT ( ) NAMED_UNIT ( * ) SI_UNIT ( $, .METRE. ) );
#31 = LINE ( 'NONE', #287, #138 ) ;
#32 = ORIENTED_EDGE ( 'NONE', *, *, #289, .F. ) ;
#33 = CARTESIAN_POINT ( 'NONE',  ( 0.0000000000000000000, 0.0000000000000000000, 1.500000000000000222 ) ) ;
#34 = AXIS2_PLACEMENT_3D ( 'NONE', #238, #114, #258 ) ;
#35 = AXIS2_PLACEMENT_3D ( 'NONE', #92, #223, #12 ) ;
#36 = EDGE_CURVE ( 'NONE', #249, #154, #31, .T. ) ;
#37 =( CONVERSION_BASED_UNIT ( 'INCH', #251 ) LENGTH_UNIT ( ) NAMED_UNIT ( #271 ) );
#38 = ORIENTED_EDGE ( 'NONE', *, *, #264, .T. ) ;
#39 = ADVANCED_FACE ( 'NONE', ( #21 ), #286, .T. ) ;
#40 = CARTESIAN_POINT ( 'NONE',  ( -0.04750000000000064587, 0.0000000000000000000, 1.500000000000000222 ) ) ;
#41 = CIRCLE ( 'NONE', #2, 0.03121874999999999997 ) ;
#42 = DIRECTION ( 'NONE',  ( -0.0000000000000000000, -0.0000000000000000000, -1.000000000000000000 ) ) ;
#43 = UNCERTAINTY_MEASURE_WITH_UNIT (LENGTH_MEASURE( 1.000000000000000082E-05 ), #212, 'distance_accuracy_value', 'NONE');
#44 = LINE ( 'NONE', #141, #265 ) ;
#45 = ORIENTED_EDGE ( 'NONE', *, *, #294, .T. ) ;
#46 = CARTESIAN_POINT ( 'NONE',  ( 0.0000000000000000000, 0.0000000000000000000, 0.0000000000000000000 ) ) ;
#47 = CARTESIAN_POINT ( 'NONE',  ( -0.03121875000000000691, 0.0000000000000000000, 3.823194226088144458E-18 ) ) ;
#48 = ORIENTED_EDGE ( 'NONE', *, *, #137, .F. ) ;
#49 = DIRECTION ( 'NONE',  ( 1.000000000000000000, 0.0000000000000000000, -0.0000000000000000000 ) ) ;
#50 = ORIENTED_EDGE ( 'NONE', *, *, #84, .F. ) ;
#51 = AXIS2_PLACEMENT_3D ( 'NONE', #27, #22, #135 ) ;
#52 = EDGE_LOOP ( 'NONE', ( #273, #156 ) ) ;
#53 = DIRECTION ( 'NONE',  ( 0.0000000000000000000, 0.0000000000000000000, 1.000000000000000000 ) ) ;
#54 = ORIENTED_EDGE ( 'NONE', *, *, #240, .F. ) ;
#55 = DIRECTION ( 'NONE',  ( 1.000000000000000000, 0.0000000000000000000, 0.0000000000000000000 ) ) ;
#56 = EDGE_CURVE ( 'NONE', #249, #142, #69, .T. ) ;
#57 = ORIENTED_EDGE ( 'NONE', *, *, #103, .T. ) ;
#58 = AXIS2_PLACEMENT_3D ( 'NONE', #189, #62, #55 ) ;
#59 = VERTEX_POINT ( 'NONE', #285 ) ;
#60 = CARTESIAN_POINT ( 'NONE',  ( 1.530808498934191817E-17, 0.0000000000000000000, 0.1250000000000000000 ) ) ;
#61 = DIRECTION ( 'NONE',  ( -1.000000000000000000, 0.0000000000000000000, 1.224646799147353700E-16 ) ) ;
#62 = DIRECTION ( 'NONE',  ( -1.224646799147353454E-16, -0.0000000000000000000, -1.000000000000000000 ) ) ;
#63 = EDGE_CURVE ( 'NONE', #122, #102, #176, .T. ) ;
#64 = CARTESIAN_POINT ( 'NONE',  ( 0.03121875000000002426, 0.0000000000000000000, 0.1250000000000000000 ) ) ;
#65 = STYLED_ITEM ( 'NONE', ( #130 ), #90 ) ;
#66 = CARTESIAN_POINT ( 'NONE',  ( 0.0000000000000000000, 0.0000000000000000000, 1.500000000000000222 ) ) ;
#67 = LINE ( 'NONE', #47, #24 ) ;
#68 = ADVANCED_FACE ( 'NONE', ( #290 ), #10, .T. ) ;
#69 = CIRCLE ( 'NONE', #213, 0.03121875000000000691 ) ;
#70 = AXIS2_PLACEMENT_3D ( 'NONE', #274, #187, #1 ) ;
#71 =( NAMED_UNIT ( * ) PLANE_ANGLE_UNIT ( ) SI_UNIT ( $, .RADIAN. ) );
#72 = EDGE_CURVE ( 'NONE', #59, #122, #275, .T. ) ;
#73 =( CONVERSION_BASED_UNIT ( 'INCH', #124 ) LENGTH_UNIT ( ) NAMED_UNIT ( #20 ) );
#74 = AXIS2_PLACEMENT_3D ( 'NONE', #33, #297, #186 ) ;
#75 = SURFACE_SIDE_STYLE ('',( #281 ) ) ;
#76 = DIRECTION ( 'NONE',  ( -1.224646799147353454E-16, -0.0000000000000000000, -1.000000000000000000 ) ) ;
#77 = VERTEX_POINT ( 'NONE', #218 ) ;
#78 = VERTEX_POINT ( 'NONE', #83 ) ;
#79 = CONICAL_SURFACE ( 'NONE', #150, 0.03121875000000000691, 0.1745329251994339192 ) ;
#80 = ORIENTED_EDGE ( 'NONE', *, *, #36, .F. ) ;
#81 =( NAMED_UNIT ( * ) SI_UNIT ( $, .STERADIAN. ) SOLID_ANGLE_UNIT ( ) );
#82 = CIRCLE ( 'NONE', #58, 0.06250000000000000000 ) ;
#83 = CARTESIAN_POINT ( 'NONE',  ( -0.03121874999999999997, 0.0000000000000000000, 7.646388452176288915E-18 ) ) ;
#84 = EDGE_CURVE ( 'NONE', #102, #172, #82, .T. ) ;
#85 = CYLINDRICAL_SURFACE ( 'NONE', #177, 0.06250000000000000000 ) ;
#86 = AXIS2_PLACEMENT_3D ( 'NONE', #278, #112, #88 ) ;
#87 = PRODUCT_DEFINITION_FORMATION_WITH_SPECIFIED_SOURCE ( 'ANY', '', #204, .NOT_KNOWN. ) ;
#88 = DIRECTION ( 'NONE',  ( 1.000000000000000000, 0.0000000000000000000, 0.0000000000000000000 ) ) ;
#89 = DIRECTION ( 'NONE',  ( 1.000000000000000000, 0.0000000000000000000, -0.0000000000000000000 ) ) ;
#90 = MANIFOLD_SOLID_BREP ( 'Cut-Revolve1', #155 ) ;
#91 =( GEOMETRIC_REPRESENTATION_CONTEXT ( 3 ) GLOBAL_UNCERTAINTY_ASSIGNED_CONTEXT ( ( #43 ) ) GLOBAL_UNIT_ASSIGNED_CONTEXT ( ( #212, #260, #283 ) ) REPRESENTATION_CONTEXT ( 'NONE', 'WORKASPACE' ) );
#92 = CARTESIAN_POINT ( 'NONE',  ( 1.530808498934191817E-17, 0.0000000000000000000, 0.1250000000000000000 ) ) ;
#93 = DIRECTION ( 'NONE',  ( 0.0000000000000000000, 0.0000000000000000000, -1.000000000000000000 ) ) ;
#94 = CARTESIAN_POINT ( 'NONE',  ( 3.703390512866948185E-17, 0.0000000000000000000, 0.3024047844199154178 ) ) ;
#95 = ORIENTED_EDGE ( 'NONE', *, *, #126, .T. ) ;
#96 = VECTOR ( 'NONE', #266, 39.37007874015748143 ) ;
#97 = VECTOR ( 'NONE', #267, 39.37007874015748143 ) ;
#98 = VERTEX_POINT ( 'NONE', #40 ) ;
#99 = CARTESIAN_POINT ( 'NONE',  ( 0.06250000000000002776, 7.654042494670959086E-18, 0.3024047844199154178 ) ) ;
#100 = EDGE_LOOP ( 'NONE', ( #113, #48, #243, #252 ) ) ;
#101 = PLANE ( 'NONE',  #127 ) ;
#102 = VERTEX_POINT ( 'NONE', #99 ) ;
#103 = EDGE_CURVE ( 'NONE', #142, #172, #128, .T. ) ;
#104 = DIRECTION ( 'NONE',  ( -1.000000000000000000, 0.0000000000000000000, 1.224646799147353700E-16 ) ) ;
#105 = ADVANCED_FACE ( 'NONE', ( #16 ), #101, .T. ) ;
#106 = COLOUR_RGB ( '',0.7921568627450980005, 0.8196078431372548767, 0.9333333333333333481 ) ;
#107 = AXIS2_PLACEMENT_3D ( 'NONE', #256, #232, #104 ) ;
#108 = LINE ( 'NONE', #276, #214 ) ;
#109 = AXIS2_PLACEMENT_3D ( 'NONE', #66, #219, #199 ) ;
#110 = ADVANCED_FACE ( 'NONE', ( #6 ), #85, .T. ) ;
#111 = COLOUR_RGB ( '',0.7921568627450980005, 0.8196078431372548767, 0.9333333333333333481 ) ;
#112 = DIRECTION ( 'NONE',  ( 0.0000000000000000000, 0.0000000000000000000, 1.000000000000000000 ) ) ;
#113 = ORIENTED_EDGE ( 'NONE', *, *, #294, .F. ) ;
#114 = DIRECTION ( 'NONE',  ( 0.0000000000000000000, 0.0000000000000000000, -1.000000000000000000 ) ) ;
#115 = DIRECTION ( 'NONE',  ( -0.7071067811865456854, 0.0000000000000000000, -0.7071067811865493491 ) ) ;
#116 = ORIENTED_EDGE ( 'NONE', *, *, #117, .F. ) ;
#117 = EDGE_CURVE ( 'NONE', #98, #59, #280, .T. ) ;
#118 = DIRECTION ( 'NONE',  ( -0.0000000000000000000, -0.0000000000000000000, -1.000000000000000000 ) ) ;
#119 = AXIS2_PLACEMENT_3D ( 'NONE', #94, #203, #245 ) ;
#120 = DIRECTION ( 'NONE',  ( 0.0000000000000000000, 0.0000000000000000000, 1.000000000000000000 ) ) ;
#121 = DIRECTION ( 'NONE',  ( -1.000000000000000000, 0.0000000000000000000, 1.224646799147353207E-16 ) ) ;
#122 = VERTEX_POINT ( 'NONE', #4 ) ;
#123 = DIRECTION ( 'NONE',  ( -0.0000000000000000000, -0.0000000000000000000, -1.000000000000000000 ) ) ;
#124 = LENGTH_MEASURE_WITH_UNIT ( LENGTH_MEASURE( 0.02539999999999999897 ), #30 );
#125 = EDGE_LOOP ( 'NONE', ( #235, #45, #229, #116 ) ) ;
#126 = EDGE_CURVE ( 'NONE', #122, #59, #209, .T. ) ;
#127 = AXIS2_PLACEMENT_3D ( 'NONE', #242, #215, #89 ) ;
#128 = LINE ( 'NONE', #207, #211 ) ;
#129 = CARTESIAN_POINT ( 'NONE',  ( 0.06250000000000000000, 7.654042494670956004E-18, 1.500000000000000222 ) ) ;
#130 = PRESENTATION_STYLE_ASSIGNMENT (( #270 ) ) ;
#131 = ORIENTED_EDGE ( 'NONE', *, *, #253, .T. ) ;
#132 = APPLICATION_CONTEXT ( 'automotive_design' ) ;
#133 = FILL_AREA_STYLE ('',( #298 ) ) ;
#134 = DIRECTION ( 'NONE',  ( -1.224646799147353454E-16, -0.0000000000000000000, -1.000000000000000000 ) ) ;
#135 = DIRECTION ( 'NONE',  ( 1.000000000000000000, 0.0000000000000000000, 0.0000000000000000000 ) ) ;
#136 = CARTESIAN_POINT ( 'NONE',  ( 4.682062571497488738E-34, 0.0000000000000000000, 3.823194226088144458E-18 ) ) ;
#137 = EDGE_CURVE ( 'NONE', #98, #77, #19, .T. ) ;
#138 = VECTOR ( 'NONE', #76, 39.37007874015748143 ) ;
#139 = CARTESIAN_POINT ( 'NONE',  ( 0.0000000000000000000, 0.0000000000000000000, 1.500000000000000222 ) ) ;
#140 = ADVANCED_FACE ( 'NONE', ( #259 ), #157, .T. ) ;
#141 = CARTESIAN_POINT ( 'NONE',  ( 0.03121875000000002426, 0.0000000000000000000, 0.1250000000000000000 ) ) ;
#142 = VERTEX_POINT ( 'NONE', #193 ) ;
#143 = DIRECTION ( 'NONE',  ( -1.224646799147353454E-16, -0.0000000000000000000, -1.000000000000000000 ) ) ;
#144 = MECHANICAL_DESIGN_GEOMETRIC_PRESENTATION_REPRESENTATION (  '', ( #65 ), #8 ) ;
#145 = CIRCLE ( 'NONE', #119, 0.06250000000000000000 ) ;
#146 = PRODUCT_CONTEXT ( 'NONE', #221, 'mechanical' ) ;
#147 = EDGE_LOOP ( 'NONE', ( #32, #57, #263, #17 ) ) ;
#148 = ORIENTED_EDGE ( 'NONE', *, *, #169, .T. ) ;
#149 = APPLICATION_PROTOCOL_DEFINITION ( 'draft international standard', 'automotive_design', 1998, #221 ) ;
#150 = AXIS2_PLACEMENT_3D ( 'NONE', #60, #160, #11 ) ;
#151 = EDGE_LOOP ( 'NONE', ( #178, #173, #15, #269 ) ) ;
#152 = ORIENTED_EDGE ( 'NONE', *, *, #253, .F. ) ;
#153 = CYLINDRICAL_SURFACE ( 'NONE', #233, 0.06250000000000000000 ) ;
#154 = VERTEX_POINT ( 'NONE', #166 ) ;
#155 = CLOSED_SHELL ( 'NONE', ( #227, #39, #198, #188, #110, #105, #140, #7, #68, #268 ) ) ;
#156 = ORIENTED_EDGE ( 'NONE', *, *, #217, .T. ) ;
#157 = CONICAL_SURFACE ( 'NONE', #109, 0.04750000000000064587, 0.7853981633974457255 ) ;
#158 = AXIS2_PLACEMENT_3D ( 'NONE', #246, #120, #49 ) ;
#159 = ORIENTED_EDGE ( 'NONE', *, *, #36, .T. ) ;
#160 = DIRECTION ( 'NONE',  ( 1.224646799147353454E-16, 0.0000000000000000000, 1.000000000000000000 ) ) ;
#161 = SURFACE_STYLE_USAGE ( .BOTH. , #75 ) ;
#162 = FILL_AREA_STYLE_COLOUR ( '', #106 ) ;
#163 = PRODUCT_RELATED_PRODUCT_CATEGORY ( 'part', '', ( #204 ) ) ;
#164 = UNCERTAINTY_MEASURE_WITH_UNIT (LENGTH_MEASURE( 1.000000000000000082E-05 ), #73, 'distance_accuracy_value', 'NONE');
#165 = EDGE_CURVE ( 'NONE', #249, #102, #44, .T. ) ;
#166 = CARTESIAN_POINT ( 'NONE',  ( 0.03121874999999999997, 3.823194226088143687E-18, -4.739000847409537175E-34 ) ) ;
#167 = APPLICATION_PROTOCOL_DEFINITION ( 'draft international standard', 'automotive_design', 1998, #132 ) ;
#168 = DIRECTION ( 'NONE',  ( 0.0000000000000000000, 0.0000000000000000000, 1.000000000000000000 ) ) ;
#169 = EDGE_CURVE ( 'NONE', #142, #78, #67, .T. ) ;
#170 = CARTESIAN_POINT ( 'NONE',  ( -0.04750000000000064587, 0.0000000000000000000, 1.500000000000000222 ) ) ;
#171 = CIRCLE ( 'NONE', #107, 0.03121874999999999997 ) ;
#172 = VERTEX_POINT ( 'NONE', #236 ) ;
#173 = ORIENTED_EDGE ( 'NONE', *, *, #56, .F. ) ;
#174 = PLANE ( 'NONE',  #158 ) ;
#175 = DIRECTION ( 'NONE',  ( -1.224646799147353454E-16, -0.0000000000000000000, -1.000000000000000000 ) ) ;
#176 = LINE ( 'NONE', #129, #96 ) ;
#177 = AXIS2_PLACEMENT_3D ( 'NONE', #28, #118, #239 ) ;
#178 = ORIENTED_EDGE ( 'NONE', *, *, #103, .F. ) ;
#179 = PRESENTATION_LAYER_ASSIGNMENT (  '', '', ( #191 ) ) ;
#180 =( NAMED_UNIT ( * ) SI_UNIT ( $, .STERADIAN. ) SOLID_ANGLE_UNIT ( ) );
#181 = ADVANCED_BREP_SHAPE_REPRESENTATION ( 'Micro_SEM-062-02X', ( #90, #29 ), #3 ) ;
#182 = ORIENTED_EDGE ( 'NONE', *, *, #217, .F. ) ;
#183 = AXIS2_PLACEMENT_3D ( 'NONE', #222, #93, #192 ) ;
#184 = SURFACE_SIDE_STYLE ('',( #230 ) ) ;
#185 = FACE_OUTER_BOUND ( 'NONE', #151, .T. ) ;
#186 = DIRECTION ( 'NONE',  ( -1.000000000000000000, 0.0000000000000000000, 0.0000000000000000000 ) ) ;
#187 = DIRECTION ( 'NONE',  ( -1.224646799147353454E-16, -0.0000000000000000000, -1.000000000000000000 ) ) ;
#188 = ADVANCED_FACE ( 'NONE', ( #282 ), #153, .T. ) ;
#189 = CARTESIAN_POINT ( 'NONE',  ( 3.703390512866948185E-17, 0.0000000000000000000, 0.3024047844199154178 ) ) ;
#190 = CYLINDRICAL_SURFACE ( 'NONE', #70, 0.03121875000000000691 ) ;
#191 = STYLED_ITEM ( 'NONE', ( #216 ), #181 ) ;
#192 = DIRECTION ( 'NONE',  ( 1.000000000000000000, 0.0000000000000000000, 0.0000000000000000000 ) ) ;
#193 = CARTESIAN_POINT ( 'NONE',  ( -0.03121874999999998956, 5.738618360379551386E-18, 0.1250000000000000000 ) ) ;
#194 = EDGE_LOOP ( 'NONE', ( #202, #159, #54, #26 ) ) ;
#195 = CARTESIAN_POINT ( 'NONE',  ( 1.530808498934191817E-17, 0.0000000000000000000, 0.1250000000000000000 ) ) ;
#196 = CARTESIAN_POINT ( 'NONE',  ( 0.04750000000000064587, 5.817072295950006528E-18, 1.500000000000000222 ) ) ;
#197 = DIRECTION ( 'NONE',  ( 1.000000000000000000, 0.0000000000000000000, 0.0000000000000000000 ) ) ;
#198 = ADVANCED_FACE ( 'NONE', ( #18 ), #231, .T. ) ;
#199 = DIRECTION ( 'NONE',  ( -1.000000000000000000, 0.0000000000000000000, 0.0000000000000000000 ) ) ;
#200 = CARTESIAN_POINT ( 'NONE',  ( 0.0000000000000000000, 0.0000000000000000000, 0.0000000000000000000 ) ) ;
#201 = DIRECTION ( 'NONE',  ( -1.000000000000000000, 0.0000000000000000000, 0.0000000000000000000 ) ) ;
#202 = ORIENTED_EDGE ( 'NONE', *, *, #289, .T. ) ;
#203 = DIRECTION ( 'NONE',  ( -1.224646799147353454E-16, -0.0000000000000000000, -1.000000000000000000 ) ) ;
#204 = PRODUCT ( 'Micro_SEM-062-02X', 'Micro_SEM-062-02X', '', ( #146 ) ) ;
#205 = DIRECTION ( 'NONE',  ( -0.1736481776669312194, 2.126576849575783625E-17, 0.9848077530122080203 ) ) ;
#206 = ORIENTED_EDGE ( 'NONE', *, *, #63, .T. ) ;
#207 = CARTESIAN_POINT ( 'NONE',  ( -0.03121874999999998956, 3.823194226088144458E-18, 0.1250000000000000000 ) ) ;
#208 = ORIENTED_EDGE ( 'NONE', *, *, #63, .F. ) ;
#209 = CIRCLE ( 'NONE', #183, 0.06250000000000000000 ) ;
#210 = FACE_OUTER_BOUND ( 'NONE', #194, .T. ) ;
#211 = VECTOR ( 'NONE', #205, 39.37007874015747433 ) ;
#212 =( CONVERSION_BASED_UNIT ( 'INCH', #9 ) LENGTH_UNIT ( ) NAMED_UNIT ( #226 ) );
#213 = AXIS2_PLACEMENT_3D ( 'NONE', #195, #262, #201 ) ;
#214 = VECTOR ( 'NONE', #42, 39.37007874015748143 ) ;
#215 = DIRECTION ( 'NONE',  ( 0.0000000000000000000, 0.0000000000000000000, 1.000000000000000000 ) ) ;
#216 = PRESENTATION_STYLE_ASSIGNMENT (( #161 ) ) ;
#217 = EDGE_CURVE ( 'NONE', #154, #78, #41, .T. ) ;
#218 = CARTESIAN_POINT ( 'NONE',  ( 0.04750000000000064587, 6.735557395310482421E-18, 1.500000000000000222 ) ) ;
#219 = DIRECTION ( 'NONE',  ( 0.0000000000000000000, 0.0000000000000000000, -1.000000000000000000 ) ) ;
#220 = ORIENTED_EDGE ( 'NONE', *, *, #56, .T. ) ;
#221 = APPLICATION_CONTEXT ( 'automotive_design' ) ;
#222 = CARTESIAN_POINT ( 'NONE',  ( 0.0000000000000000000, 0.0000000000000000000, 1.485000000000000764 ) ) ;
#223 = DIRECTION ( 'NONE',  ( -1.224646799147353454E-16, -0.0000000000000000000, -1.000000000000000000 ) ) ;
#224 = ORIENTED_EDGE ( 'NONE', *, *, #23, .F. ) ;
#225 = AXIS2_PLACEMENT_3D ( 'NONE', #139, #53, #288 ) ;
#226 = DIMENSIONAL_EXPONENTS ( 1.000000000000000000, 0.0000000000000000000, 0.0000000000000000000, 0.0000000000000000000, 0.0000000000000000000, 0.0000000000000000000, 0.0000000000000000000 ) ;
#227 = ADVANCED_FACE ( 'NONE', ( #210 ), #190, .T. ) ;
#228 = DIRECTION ( 'NONE',  ( -1.000000000000000000, 0.0000000000000000000, 0.0000000000000000000 ) ) ;
#229 = ORIENTED_EDGE ( 'NONE', *, *, #72, .F. ) ;
#230 = SURFACE_STYLE_FILL_AREA ( #292 ) ;
#231 = CONICAL_SURFACE ( 'NONE', #74, 0.04750000000000064587, 0.7853981633974457255 ) ;
#232 = DIRECTION ( 'NONE',  ( -1.224646799147353454E-16, -0.0000000000000000000, -1.000000000000000000 ) ) ;
#233 = AXIS2_PLACEMENT_3D ( 'NONE', #272, #123, #228 ) ;
#234 = PRODUCT_DEFINITION_CONTEXT ( 'detailed design', #132, 'design' ) ;
#235 = ORIENTED_EDGE ( 'NONE', *, *, #264, .F. ) ;
#236 = CARTESIAN_POINT ( 'NONE',  ( -0.06249999999999996531, 0.0000000000000000000, 0.3024047844199154178 ) ) ;
#237 = SHAPE_DEFINITION_REPRESENTATION ( #5, #181 ) ;
#238 = CARTESIAN_POINT ( 'NONE',  ( 0.0000000000000000000, 0.0000000000000000000, 1.485000000000000764 ) ) ;
#239 = DIRECTION ( 'NONE',  ( -1.000000000000000000, 0.0000000000000000000, 0.0000000000000000000 ) ) ;
#240 = EDGE_CURVE ( 'NONE', #78, #154, #171, .T. ) ;
#241 = VECTOR ( 'NONE', #115, 39.37007874015748143 ) ;
#242 = CARTESIAN_POINT ( 'NONE',  ( 0.0000000000000000000, 0.0000000000000000000, 1.500000000000000222 ) ) ;
#243 = ORIENTED_EDGE ( 'NONE', *, *, #117, .T. ) ;
#244 = FACE_OUTER_BOUND ( 'NONE', #52, .T. ) ;
#245 = DIRECTION ( 'NONE',  ( 1.000000000000000000, 0.0000000000000000000, 0.0000000000000000000 ) ) ;
#246 = CARTESIAN_POINT ( 'NONE',  ( 0.0000000000000000000, 0.0000000000000000000, 0.0000000000000000000 ) ) ;
#247 = EDGE_LOOP ( 'NONE', ( #208, #95, #131, #50 ) ) ;
#248 = PRESENTATION_LAYER_ASSIGNMENT (  '', '', ( #65 ) ) ;
#249 = VERTEX_POINT ( 'NONE', #64 ) ;
#250 = PRODUCT_DEFINITION ( 'UNKNOWN', '', #87, #234 ) ;
#251 = LENGTH_MEASURE_WITH_UNIT ( LENGTH_MEASURE( 0.02539999999999999897 ), #299 );
#252 = ORIENTED_EDGE ( 'NONE', *, *, #126, .F. ) ;
#253 = EDGE_CURVE ( 'NONE', #59, #172, #108, .T. ) ;
#254 = CIRCLE ( 'NONE', #225, 0.04750000000000064587 ) ;
#255 =( NAMED_UNIT ( * ) PLANE_ANGLE_UNIT ( ) SI_UNIT ( $, .RADIAN. ) );
#256 = CARTESIAN_POINT ( 'NONE',  ( 4.682062571497488738E-34, 0.0000000000000000000, 3.823194226088144458E-18 ) ) ;
#257 =( LENGTH_UNIT ( ) NAMED_UNIT ( * ) SI_UNIT ( $, .METRE. ) );
#258 = DIRECTION ( 'NONE',  ( 1.000000000000000000, 0.0000000000000000000, 0.0000000000000000000 ) ) ;
#259 = FACE_OUTER_BOUND ( 'NONE', #100, .T. ) ;
#260 =( NAMED_UNIT ( * ) PLANE_ANGLE_UNIT ( ) SI_UNIT ( $, .RADIAN. ) );
#261 = EDGE_LOOP ( 'NONE', ( #80, #220, #148, #182 ) ) ;
#262 = DIRECTION ( 'NONE',  ( -1.224646799147353454E-16, -0.0000000000000000000, -1.000000000000000000 ) ) ;
#263 = ORIENTED_EDGE ( 'NONE', *, *, #23, .T. ) ;
#264 = EDGE_CURVE ( 'NONE', #77, #98, #254, .T. ) ;
#265 = VECTOR ( 'NONE', #279, 39.37007874015748143 ) ;
#266 = DIRECTION ( 'NONE',  ( -0.0000000000000000000, -0.0000000000000000000, -1.000000000000000000 ) ) ;
#267 = DIRECTION ( 'NONE',  ( 0.7071067811865456854, 8.659560562354911904E-17, -0.7071067811865493491 ) ) ;
#268 = ADVANCED_FACE ( 'NONE', ( #244 ), #174, .F. ) ;
#269 = ORIENTED_EDGE ( 'NONE', *, *, #84, .T. ) ;
#270 = SURFACE_STYLE_USAGE ( .BOTH. , #184 ) ;
#271 = DIMENSIONAL_EXPONENTS ( 1.000000000000000000, 0.0000000000000000000, 0.0000000000000000000, 0.0000000000000000000, 0.0000000000000000000, 0.0000000000000000000, 0.0000000000000000000 ) ;
#272 = CARTESIAN_POINT ( 'NONE',  ( 0.0000000000000000000, 0.0000000000000000000, 1.500000000000000222 ) ) ;
#273 = ORIENTED_EDGE ( 'NONE', *, *, #240, .T. ) ;
#274 = CARTESIAN_POINT ( 'NONE',  ( 0.0000000000000000000, 0.0000000000000000000, 0.0000000000000000000 ) ) ;
#275 = CIRCLE ( 'NONE', #34, 0.06250000000000000000 ) ;
#276 = CARTESIAN_POINT ( 'NONE',  ( -0.06250000000000000000, 0.0000000000000000000, 1.500000000000000222 ) ) ;
#277 = UNCERTAINTY_MEASURE_WITH_UNIT (LENGTH_MEASURE( 1.000000000000000082E-05 ), #37, 'distance_accuracy_value', 'NONE');
#278 = CARTESIAN_POINT ( 'NONE',  ( 0.0000000000000000000, 0.0000000000000000000, 1.500000000000000222 ) ) ;
#279 = DIRECTION ( 'NONE',  ( 0.1736481776669314137, 0.0000000000000000000, 0.9848077530122077983 ) ) ;
#280 = LINE ( 'NONE', #170, #241 ) ;
#281 = SURFACE_STYLE_FILL_AREA ( #133 ) ;
#282 = FACE_OUTER_BOUND ( 'NONE', #293, .T. ) ;
#283 =( NAMED_UNIT ( * ) SI_UNIT ( $, .STERADIAN. ) SOLID_ANGLE_UNIT ( ) );
#284 = LINE ( 'NONE', #196, #97 ) ;
#285 = CARTESIAN_POINT ( 'NONE',  ( -0.06250000000000000000, 0.0000000000000000000, 1.485000000000000764 ) ) ;
#286 = CONICAL_SURFACE ( 'NONE', #51, 0.03121875000000000691, 0.1745329251994339192 ) ;
#287 = CARTESIAN_POINT ( 'NONE',  ( 0.03121875000000000691, 3.823194226088144458E-18, -3.823194226088144458E-18 ) ) ;
#288 = DIRECTION ( 'NONE',  ( 1.000000000000000000, 0.0000000000000000000, 0.0000000000000000000 ) ) ;
#289 = EDGE_CURVE ( 'NONE', #142, #249, #295, .T. ) ;
#290 = FACE_OUTER_BOUND ( 'NONE', #261, .T. ) ;
#291 = ORIENTED_EDGE ( 'NONE', *, *, #137, .T. ) ;
#292 = FILL_AREA_STYLE ('',( #162 ) ) ;
#293 = EDGE_LOOP ( 'NONE', ( #296, #206, #224, #152 ) ) ;
#294 = EDGE_CURVE ( 'NONE', #77, #122, #284, .T. ) ;
#295 = CIRCLE ( 'NONE', #35, 0.03121875000000000691 ) ;
#296 = ORIENTED_EDGE ( 'NONE', *, *, #72, .T. ) ;
#297 = DIRECTION ( 'NONE',  ( 0.0000000000000000000, 0.0000000000000000000, -1.000000000000000000 ) ) ;
#298 = FILL_AREA_STYLE_COLOUR ( '', #111 ) ;
#299 =( LENGTH_UNIT ( ) NAMED_UNIT ( * ) SI_UNIT ( $, .METRE. ) );
ENDSEC;
END-ISO-10303-21;
