ISO-10303-21;
HEADER;
FILE_DESCRIPTION (( 'STEP AP214' ),
    '1' );
FILE_NAME ('44352W.STEP',
    '2023-06-22T20:16:50',
    ( '' ),
    ( '' ),
    'SwSTEP 2.0',
    'SolidWorks 2023',
    '' );
FILE_SCHEMA (( 'AUTOMOTIVE_DESIGN' ));
ENDSEC;

DATA;
#1 = DIRECTION ( 'NONE',  ( -4.898587196589412459E-17, 1.000000000000000000, -0.000000000000000000 ) ) ;
#2 = EDGE_CURVE ( 'NONE', #237, #159, #108, .T. ) ;
#3 = PLANE ( 'NONE',  #268 ) ;
#4 = FACE_OUTER_BOUND ( 'NONE', #40, .T. ) ;
#5 =( CONVERSION_BASED_UNIT ( 'INCH', #48 ) LENGTH_UNIT ( ) NAMED_UNIT ( #98 ) );
#6 = VECTOR ( 'NONE', #254, 39.37007874015748143 ) ;
#7 = FILL_AREA_STYLE_COLOUR ( '', #190 ) ;
#8 = ORIENTED_EDGE ( 'NONE', *, *, #249, .F. ) ;
#9 = CARTESIAN_POINT ( 'NONE',  ( -0.3125000000000002220, 5.000000000000000000, 0.000000000000000000 ) ) ;
#10 = EDGE_LOOP ( 'NONE', ( #16, #252 ) ) ;
#11 = CIRCLE ( 'NONE', #238, 0.3125000000000001665 ) ;
#12 = SURFACE_STYLE_FILL_AREA ( #163 ) ;
#13 =( CONVERSION_BASED_UNIT ( 'INCH', #118 ) LENGTH_UNIT ( ) NAMED_UNIT ( #56 ) );
#14 = DIMENSIONAL_EXPONENTS ( 1.000000000000000000, 0.000000000000000000, 0.000000000000000000, 0.000000000000000000, 0.000000000000000000, 0.000000000000000000, 0.000000000000000000 ) ;
#15 = DIRECTION ( 'NONE',  ( -1.000000000000000000, -4.898587196589412459E-17, 0.000000000000000000 ) ) ;
#16 = ORIENTED_EDGE ( 'NONE', *, *, #64, .F. ) ;
#17 = DIRECTION ( 'NONE',  ( -0.000000000000000000, -1.000000000000000000, -0.000000000000000000 ) ) ;
#18 =( LENGTH_UNIT ( ) NAMED_UNIT ( * ) SI_UNIT ( $, .METRE. ) );
#19 = EDGE_CURVE ( 'NONE', #132, #231, #200, .T. ) ;
#20 = COLOUR_RGB ( '',0.7921568627450980005, 0.8196078431372548767, 0.9333333333333333481 ) ;
#21 = AXIS2_PLACEMENT_3D ( 'NONE', #182, #269, #277 ) ;
#22 = DIRECTION ( 'NONE',  ( -4.898587196589413075E-17, 1.000000000000000000, -0.000000000000000000 ) ) ;
#23 = DIRECTION ( 'NONE',  ( -0.000000000000000000, -1.000000000000000000, -0.000000000000000000 ) ) ;
#24 = CYLINDRICAL_SURFACE ( 'NONE', #167, 0.3125000000000000555 ) ;
#25 = ADVANCED_FACE ( 'NONE', ( #229 ), #133, .T. ) ;
#26 = PRESENTATION_STYLE_ASSIGNMENT (( #247 ) ) ;
#27 = MECHANICAL_DESIGN_GEOMETRIC_PRESENTATION_REPRESENTATION (  '', ( #198 ), #266 ) ;
#28 = SURFACE_STYLE_FILL_AREA ( #125 ) ;
#29 = CARTESIAN_POINT ( 'NONE',  ( 0.3125000000000000000, 5.000000000000000000, 3.827021247335479543E-17 ) ) ;
#30 = AXIS2_PLACEMENT_3D ( 'NONE', #113, #232, #162 ) ;
#31 =( NAMED_UNIT ( * ) PLANE_ANGLE_UNIT ( ) SI_UNIT ( $, .RADIAN. ) );
#32 = ADVANCED_FACE ( 'NONE', ( #59 ), #299, .F. ) ;
#33 = COLOUR_RGB ( '',1.000000000000000000, 0.000000000000000000, 0.000000000000000000 ) ;
#34 = DIRECTION ( 'NONE',  ( 1.000000000000000000, 0.000000000000000000, 0.000000000000000000 ) ) ;
#35 = APPLICATION_CONTEXT ( 'automotive_design' ) ;
#36 = CLOSED_SHELL ( 'NONE', ( #191, #264, #25, #281 ) ) ;
#37 = PRESENTATION_LAYER_ASSIGNMENT (  '', '', ( #209 ) ) ;
#38 = DIRECTION ( 'NONE',  ( -4.898587196589412459E-17, 1.000000000000000000, 0.000000000000000000 ) ) ;
#39 = CARTESIAN_POINT ( 'NONE',  ( 0.000000000000000000, 0.000000000000000000, 0.000000000000000000 ) ) ;
#40 = EDGE_LOOP ( 'NONE', ( #134, #93 ) ) ;
#41 = DIRECTION ( 'NONE',  ( 0.000000000000000000, 0.000000000000000000, -1.000000000000000000 ) ) ;
#42 = EDGE_LOOP ( 'NONE', ( #234, #300 ) ) ;
#43 =( CONVERSION_BASED_UNIT ( 'INCH', #257 ) LENGTH_UNIT ( ) NAMED_UNIT ( #241 ) );
#44 = CARTESIAN_POINT ( 'NONE',  ( -1.224646799147353207E-16, 5.000000000000000000, 0.000000000000000000 ) ) ;
#45 = AXIS2_PLACEMENT_3D ( 'NONE', #288, #195, #76 ) ;
#46 = DIRECTION ( 'NONE',  ( 4.898587196589412459E-17, -1.000000000000000000, 0.000000000000000000 ) ) ;
#47 = DIRECTION ( 'NONE',  ( -0.000000000000000000, -1.000000000000000000, -0.000000000000000000 ) ) ;
#48 = LENGTH_MEASURE_WITH_UNIT ( LENGTH_MEASURE( 0.02539999999999999897 ), #219 );
#49 = MECHANICAL_DESIGN_GEOMETRIC_PRESENTATION_REPRESENTATION (  '', ( #284 ), #230 ) ;
#50 = DIRECTION ( 'NONE',  ( 0.000000000000000000, 0.000000000000000000, -1.000000000000000000 ) ) ;
#51 =( CONVERSION_BASED_UNIT ( 'INCH', #79 ) LENGTH_UNIT ( ) NAMED_UNIT ( #235 ) );
#52 =( CONVERSION_BASED_UNIT ( 'INCH', #250 ) LENGTH_UNIT ( ) NAMED_UNIT ( #14 ) );
#53 = CARTESIAN_POINT ( 'NONE',  ( 3.827021247335478926E-17, 0.000000000000000000, 0.3125000000000000000 ) ) ;
#54 = AXIS2_PLACEMENT_3D ( 'NONE', #115, #144, #96 ) ;
#55 = AXIS2_PLACEMENT_3D ( 'NONE', #154, #192, #104 ) ;
#56 = DIMENSIONAL_EXPONENTS ( 1.000000000000000000, 0.000000000000000000, 0.000000000000000000, 0.000000000000000000, 0.000000000000000000, 0.000000000000000000, 0.000000000000000000 ) ;
#57 = ORIENTED_EDGE ( 'NONE', *, *, #100, .F. ) ;
#58 = ORIENTED_EDGE ( 'NONE', *, *, #100, .T. ) ;
#59 = FACE_OUTER_BOUND ( 'NONE', #10, .T. ) ;
#60 =( CONVERSION_BASED_UNIT ( 'INCH', #189 ) LENGTH_UNIT ( ) NAMED_UNIT ( #296 ) );
#61 = CIRCLE ( 'NONE', #54, 0.3125000000000000000 ) ;
#62 = ORIENTED_EDGE ( 'NONE', *, *, #261, .T. ) ;
#63 = PRESENTATION_LAYER_ASSIGNMENT (  '', '', ( #298 ) ) ;
#64 = EDGE_CURVE ( 'NONE', #231, #132, #156, .T. ) ;
#65 = PRESENTATION_LAYER_ASSIGNMENT (  '', '', ( #278 ) ) ;
#66 = EDGE_LOOP ( 'NONE', ( #297, #164, #204, #185 ) ) ;
#67 = AXIS2_PLACEMENT_3D ( 'NONE', #258, #256, #41 ) ;
#68 = CLOSED_SHELL ( 'NONE', ( #246, #32, #221, #206 ) ) ;
#69 = PRESENTATION_LAYER_ASSIGNMENT (  '', '', ( #148 ) ) ;
#70 =( NAMED_UNIT ( * ) SI_UNIT ( $, .STERADIAN. ) SOLID_ANGLE_UNIT ( ) );
#71 = DIRECTION ( 'NONE',  ( -1.000000000000000000, 0.000000000000000000, 0.000000000000000000 ) ) ;
#72 = CARTESIAN_POINT ( 'NONE',  ( -0.3125000000000002776, 5.000000000000000000, 0.000000000000000000 ) ) ;
#73 = CIRCLE ( 'NONE', #121, 0.3125000000000000000 ) ;
#74 = CARTESIAN_POINT ( 'NONE',  ( -1.224646799147353207E-16, 5.000000000000000000, 0.000000000000000000 ) ) ;
#75 = MECHANICAL_DESIGN_GEOMETRIC_PRESENTATION_REPRESENTATION (  '', ( #298 ), #135 ) ;
#76 = DIRECTION ( 'NONE',  ( -1.000000000000000000, 0.000000000000000000, 0.000000000000000000 ) ) ;
#77 = MECHANICAL_DESIGN_GEOMETRIC_PRESENTATION_REPRESENTATION (  '', ( #278 ), #270 ) ;
#78 = LENGTH_MEASURE_WITH_UNIT ( LENGTH_MEASURE( 0.02539999999999999897 ), #295 );
#79 = LENGTH_MEASURE_WITH_UNIT ( LENGTH_MEASURE( 0.02539999999999999897 ), #309 );
#80 = SURFACE_STYLE_USAGE ( .BOTH. , #194 ) ;
#81 =( NAMED_UNIT ( * ) PLANE_ANGLE_UNIT ( ) SI_UNIT ( $, .RADIAN. ) );
#82 = PRESENTATION_STYLE_ASSIGNMENT (( #279 ) ) ;
#83 = PLANE ( 'NONE',  #111 ) ;
#84 = PRESENTATION_STYLE_ASSIGNMENT (( #80 ) ) ;
#85 = SURFACE_SIDE_STYLE ('',( #157 ) ) ;
#86 = PRODUCT_RELATED_PRODUCT_CATEGORY ( 'part', '', ( #120 ) ) ;
#87 = ORIENTED_EDGE ( 'NONE', *, *, #180, .T. ) ;
#88 = PRESENTATION_LAYER_ASSIGNMENT (  '', '', ( #198 ) ) ;
#89 = SHAPE_DEFINITION_REPRESENTATION ( #138, #130 ) ;
#90 = UNCERTAINTY_MEASURE_WITH_UNIT (LENGTH_MEASURE( 1.000000000000000082E-05 ), #151, 'distance_accuracy_value', 'NONE');
#91 = ORIENTED_EDGE ( 'NONE', *, *, #2, .T. ) ;
#92 = CARTESIAN_POINT ( 'NONE',  ( 3.749399456654644447E-34, 2.500000000000000000, 0.000000000000000000 ) ) ;
#93 = ORIENTED_EDGE ( 'NONE', *, *, #2, .F. ) ;
#94 = CIRCLE ( 'NONE', #101, 0.3125000000000000000 ) ;
#95 = EDGE_LOOP ( 'NONE', ( #141, #62 ) ) ;
#96 = DIRECTION ( 'NONE',  ( 0.000000000000000000, 0.000000000000000000, -1.000000000000000000 ) ) ;
#97 = LINE ( 'NONE', #9, #6 ) ;
#98 = DIMENSIONAL_EXPONENTS ( 1.000000000000000000, 0.000000000000000000, 0.000000000000000000, 0.000000000000000000, 0.000000000000000000, 0.000000000000000000, 0.000000000000000000 ) ;
#99 =( NAMED_UNIT ( * ) PLANE_ANGLE_UNIT ( ) SI_UNIT ( $, .RADIAN. ) );
#100 = EDGE_CURVE ( 'NONE', #231, #275, #97, .T. ) ;
#101 = AXIS2_PLACEMENT_3D ( 'NONE', #290, #127, #222 ) ;
#102 = FACE_OUTER_BOUND ( 'NONE', #301, .T. ) ;
#103 = CARTESIAN_POINT ( 'NONE',  ( 0.3125000000000000000, 5.000000000000000000, 0.000000000000000000 ) ) ;
#104 = DIRECTION ( 'NONE',  ( -1.000000000000000000, 0.000000000000000000, 0.000000000000000000 ) ) ;
#105 = SURFACE_STYLE_FILL_AREA ( #152 ) ;
#106 = UNCERTAINTY_MEASURE_WITH_UNIT (LENGTH_MEASURE( 1.000000000000000082E-05 ), #60, 'distance_accuracy_value', 'NONE');
#107 =( LENGTH_UNIT ( ) NAMED_UNIT ( * ) SI_UNIT ( $, .METRE. ) );
#108 = CIRCLE ( 'NONE', #177, 0.3125000000000000000 ) ;
#109 = VERTEX_POINT ( 'NONE', #139 ) ;
#110 = DIRECTION ( 'NONE',  ( -0.000000000000000000, -1.000000000000000000, -0.000000000000000000 ) ) ;
#111 = AXIS2_PLACEMENT_3D ( 'NONE', #168, #280, #214 ) ;
#112 = SURFACE_SIDE_STYLE ('',( #12 ) ) ;
#113 = CARTESIAN_POINT ( 'NONE',  ( 1.516480271171051896E-32, 2.500000000000000000, 0.000000000000000000 ) ) ;
#114 = ORIENTED_EDGE ( 'NONE', *, *, #147, .F. ) ;
#115 = CARTESIAN_POINT ( 'NONE',  ( 0.000000000000000000, 0.000000000000000000, 0.000000000000000000 ) ) ;
#116 = DIRECTION ( 'NONE',  ( 0.000000000000000000, 0.000000000000000000, -1.000000000000000000 ) ) ;
#117 =( NAMED_UNIT ( * ) PLANE_ANGLE_UNIT ( ) SI_UNIT ( $, .RADIAN. ) );
#118 = LENGTH_MEASURE_WITH_UNIT ( LENGTH_MEASURE( 0.02539999999999999897 ), #18 );
#119 =( GEOMETRIC_REPRESENTATION_CONTEXT ( 3 ) GLOBAL_UNCERTAINTY_ASSIGNED_CONTEXT ( ( #286 ) ) GLOBAL_UNIT_ASSIGNED_CONTEXT ( ( #43, #117, #70 ) ) REPRESENTATION_CONTEXT ( 'NONE', 'WORKASPACE' ) );
#120 = PRODUCT ( '44352W', '44352W', '', ( #131 ) ) ;
#121 = AXIS2_PLACEMENT_3D ( 'NONE', #262, #23, #153 ) ;
#122 =( NAMED_UNIT ( * ) SI_UNIT ( $, .STERADIAN. ) SOLID_ANGLE_UNIT ( ) );
#123 = CARTESIAN_POINT ( 'NONE',  ( 0.3124999999999999445, 5.000000000000000000, 3.827021247335479543E-17 ) ) ;
#124 = CYLINDRICAL_SURFACE ( 'NONE', #302, 0.3125000000000000000 ) ;
#125 = FILL_AREA_STYLE ('',( #215 ) ) ;
#126 =( NAMED_UNIT ( * ) PLANE_ANGLE_UNIT ( ) SI_UNIT ( $, .RADIAN. ) );
#127 = DIRECTION ( 'NONE',  ( -0.000000000000000000, -1.000000000000000000, -0.000000000000000000 ) ) ;
#128 = DIRECTION ( 'NONE',  ( -0.000000000000000000, -1.000000000000000000, -0.000000000000000000 ) ) ;
#129 = SURFACE_STYLE_USAGE ( .BOTH. , #85 ) ;
#130 = ADVANCED_BREP_SHAPE_REPRESENTATION ( '44352W', ( #142, #140, #212 ), #119 ) ;
#131 = PRODUCT_CONTEXT ( 'NONE', #35, 'mechanical' ) ;
#132 = VERTEX_POINT ( 'NONE', #244 ) ;
#133 = CYLINDRICAL_SURFACE ( 'NONE', #273, 0.3125000000000000000 ) ;
#134 = ORIENTED_EDGE ( 'NONE', *, *, #211, .F. ) ;
#135 =( GEOMETRIC_REPRESENTATION_CONTEXT ( 3 ) GLOBAL_UNCERTAINTY_ASSIGNED_CONTEXT ( ( #271 ) ) GLOBAL_UNIT_ASSIGNED_CONTEXT ( ( #5, #31, #265 ) ) REPRESENTATION_CONTEXT ( 'NONE', 'WORKASPACE' ) );
#136 = EDGE_CURVE ( 'NONE', #207, #275, #11, .T. ) ;
#137 = EDGE_LOOP ( 'NONE', ( #114, #91, #87, #188 ) ) ;
#138 = PRODUCT_DEFINITION_SHAPE ( 'NONE', 'NONE',  #227 ) ;
#139 = CARTESIAN_POINT ( 'NONE',  ( 0.000000000000000000, 0.000000000000000000, -0.3125000000000000000 ) ) ;
#140 = MANIFOLD_SOLID_BREP ( 'Revolve - Tool Body (Straight Shanked)', #68 ) ;
#141 = ORIENTED_EDGE ( 'NONE', *, *, #274, .T. ) ;
#142 = MANIFOLD_SOLID_BREP ( 'Revolve - Cutting Edge', #36 ) ;
#143 = CARTESIAN_POINT ( 'NONE',  ( 0.000000000000000000, 2.500000000000000000, 0.000000000000000000 ) ) ;
#144 = DIRECTION ( 'NONE',  ( -0.000000000000000000, -1.000000000000000000, -0.000000000000000000 ) ) ;
#145 =( LENGTH_UNIT ( ) NAMED_UNIT ( * ) SI_UNIT ( $, .METRE. ) );
#146 = FILL_AREA_STYLE ('',( #304 ) ) ;
#147 = EDGE_CURVE ( 'NONE', #237, #160, #197, .T. ) ;
#148 = STYLED_ITEM ( 'NONE', ( #248 ), #191 ) ;
#149 = CARTESIAN_POINT ( 'NONE',  ( 0.000000000000000000, 0.000000000000000000, -0.3125000000000000000 ) ) ;
#150 = CARTESIAN_POINT ( 'NONE',  ( -0.3125000000000000000, 2.500000000000000000, 0.000000000000000000 ) ) ;
#151 =( CONVERSION_BASED_UNIT ( 'INCH', #78 ) LENGTH_UNIT ( ) NAMED_UNIT ( #205 ) );
#152 = FILL_AREA_STYLE ('',( #216 ) ) ;
#153 = DIRECTION ( 'NONE',  ( 0.000000000000000000, 0.000000000000000000, -1.000000000000000000 ) ) ;
#154 = CARTESIAN_POINT ( 'NONE',  ( -1.224646799147353207E-16, 5.000000000000000000, 0.000000000000000000 ) ) ;
#155 = FILL_AREA_STYLE ('',( #201 ) ) ;
#156 = CIRCLE ( 'NONE', #30, 0.3125000000000000000 ) ;
#157 = SURFACE_STYLE_FILL_AREA ( #245 ) ;
#158 = UNCERTAINTY_MEASURE_WITH_UNIT (LENGTH_MEASURE( 1.000000000000000082E-05 ), #51, 'distance_accuracy_value', 'NONE');
#159 = VERTEX_POINT ( 'NONE', #217 ) ;
#160 = VERTEX_POINT ( 'NONE', #210 ) ;
#161 =( GEOMETRIC_REPRESENTATION_CONTEXT ( 3 ) GLOBAL_UNCERTAINTY_ASSIGNED_CONTEXT ( ( #308 ) ) GLOBAL_UNIT_ASSIGNED_CONTEXT ( ( #52, #99, #259 ) ) REPRESENTATION_CONTEXT ( 'NONE', 'WORKASPACE' ) );
#162 = DIRECTION ( 'NONE',  ( -1.000000000000000000, 0.000000000000000000, 0.000000000000000000 ) ) ;
#163 = FILL_AREA_STYLE ('',( #7 ) ) ;
#164 = ORIENTED_EDGE ( 'NONE', *, *, #147, .T. ) ;
#165 = SURFACE_SIDE_STYLE ('',( #305 ) ) ;
#166 = FACE_OUTER_BOUND ( 'NONE', #95, .T. ) ;
#167 = AXIS2_PLACEMENT_3D ( 'NONE', #74, #171, #220 ) ;
#168 = CARTESIAN_POINT ( 'NONE',  ( 0.000000000000000000, 2.500000000000000000, 0.000000000000000000 ) ) ;
#169 = PRESENTATION_STYLE_ASSIGNMENT (( #243 ) ) ;
#170 = VECTOR ( 'NONE', #1, 39.37007874015748143 ) ;
#171 = DIRECTION ( 'NONE',  ( -4.898587196589413075E-17, 1.000000000000000000, -0.000000000000000000 ) ) ;
#172 = CARTESIAN_POINT ( 'NONE',  ( 3.827021247335478926E-17, 2.500000000000000000, 0.3125000000000000000 ) ) ;
#173 =( NAMED_UNIT ( * ) PLANE_ANGLE_UNIT ( ) SI_UNIT ( $, .RADIAN. ) );
#174 = FACE_OUTER_BOUND ( 'NONE', #253, .T. ) ;
#175 = MECHANICAL_DESIGN_GEOMETRIC_PRESENTATION_REPRESENTATION (  '', ( #148 ), #287 ) ;
#176 = DIRECTION ( 'NONE',  ( 1.000000000000000000, 4.898587196589412459E-17, 0.000000000000000000 ) ) ;
#177 = AXIS2_PLACEMENT_3D ( 'NONE', #143, #110, #240 ) ;
#178 = SURFACE_SIDE_STYLE ('',( #28 ) ) ;
#179 = FILL_AREA_STYLE_COLOUR ( '', #33 ) ;
#180 = EDGE_CURVE ( 'NONE', #159, #109, #306, .T. ) ;
#181 = UNCERTAINTY_MEASURE_WITH_UNIT (LENGTH_MEASURE( 1.000000000000000082E-05 ), #13, 'distance_accuracy_value', 'NONE');
#182 = CARTESIAN_POINT ( 'NONE',  ( 1.516480271171051896E-32, 2.500000000000000000, 0.000000000000000000 ) ) ;
#183 = ORIENTED_EDGE ( 'NONE', *, *, #136, .F. ) ;
#184 = ORIENTED_EDGE ( 'NONE', *, *, #242, .F. ) ;
#185 = ORIENTED_EDGE ( 'NONE', *, *, #180, .F. ) ;
#186 = COLOUR_RGB ( '',1.000000000000000000, 0.000000000000000000, 0.000000000000000000 ) ;
#187 = CARTESIAN_POINT ( 'NONE',  ( 0.000000000000000000, 0.000000000000000000, 0.000000000000000000 ) ) ;
#188 = ORIENTED_EDGE ( 'NONE', *, *, #261, .F. ) ;
#189 = LENGTH_MEASURE_WITH_UNIT ( LENGTH_MEASURE( 0.02539999999999999897 ), #145 );
#190 = COLOUR_RGB ( '',1.000000000000000000, 0.000000000000000000, 0.000000000000000000 ) ;
#191 = ADVANCED_FACE ( 'NONE', ( #193 ), #124, .T. ) ;
#192 = DIRECTION ( 'NONE',  ( -4.898587196589413075E-17, 1.000000000000000000, -0.000000000000000000 ) ) ;
#193 = FACE_OUTER_BOUND ( 'NONE', #66, .T. ) ;
#194 = SURFACE_SIDE_STYLE ('',( #293 ) ) ;
#195 = DIRECTION ( 'NONE',  ( -4.898587196589413075E-17, 1.000000000000000000, -0.000000000000000000 ) ) ;
#196 = PRESENTATION_LAYER_ASSIGNMENT (  '', '', ( #284 ) ) ;
#197 = LINE ( 'NONE', #53, #276 ) ;
#198 = STYLED_ITEM ( 'NONE', ( #26 ), #140 ) ;
#199 = SURFACE_STYLE_USAGE ( .BOTH. , #289 ) ;
#200 = CIRCLE ( 'NONE', #21, 0.3125000000000000000 ) ;
#201 = FILL_AREA_STYLE_COLOUR ( '', #251 ) ;
#202 = VECTOR ( 'NONE', #47, 39.37007874015748143 ) ;
#203 =( NAMED_UNIT ( * ) SI_UNIT ( $, .STERADIAN. ) SOLID_ANGLE_UNIT ( ) );
#204 = ORIENTED_EDGE ( 'NONE', *, *, #274, .F. ) ;
#205 = DIMENSIONAL_EXPONENTS ( 1.000000000000000000, 0.000000000000000000, 0.000000000000000000, 0.000000000000000000, 0.000000000000000000, 0.000000000000000000, 0.000000000000000000 ) ;
#206 = ADVANCED_FACE ( 'NONE', ( #218 ), #3, .F. ) ;
#207 = VERTEX_POINT ( 'NONE', #29 ) ;
#208 =( LENGTH_UNIT ( ) NAMED_UNIT ( * ) SI_UNIT ( $, .METRE. ) );
#209 = STYLED_ITEM ( 'NONE', ( #225 ), #264 ) ;
#210 = CARTESIAN_POINT ( 'NONE',  ( 3.827021247335478926E-17, 0.000000000000000000, 0.3125000000000000000 ) ) ;
#211 = EDGE_CURVE ( 'NONE', #159, #237, #73, .T. ) ;
#212 = AXIS2_PLACEMENT_3D ( 'NONE', #39, #228, #34 ) ;
#213 = PRODUCT_DEFINITION_CONTEXT ( 'detailed design', #236, 'design' ) ;
#214 = DIRECTION ( 'NONE',  ( 0.000000000000000000, -0.000000000000000000, 1.000000000000000000 ) ) ;
#215 = FILL_AREA_STYLE_COLOUR ( '', #20 ) ;
#216 = FILL_AREA_STYLE_COLOUR ( '', #186 ) ;
#217 = CARTESIAN_POINT ( 'NONE',  ( 0.000000000000000000, 2.500000000000000000, -0.3125000000000000000 ) ) ;
#218 = FACE_OUTER_BOUND ( 'NONE', #42, .T. ) ;
#219 =( LENGTH_UNIT ( ) NAMED_UNIT ( * ) SI_UNIT ( $, .METRE. ) );
#220 = DIRECTION ( 'NONE',  ( -1.000000000000000000, 0.000000000000000000, 0.000000000000000000 ) ) ;
#221 = ADVANCED_FACE ( 'NONE', ( #174 ), #24, .T. ) ;
#222 = DIRECTION ( 'NONE',  ( 0.000000000000000000, 0.000000000000000000, -1.000000000000000000 ) ) ;
#223 = COLOUR_RGB ( '',1.000000000000000000, 0.000000000000000000, 0.000000000000000000 ) ;
#224 = CIRCLE ( 'NONE', #45, 0.3125000000000001665 ) ;
#225 = PRESENTATION_STYLE_ASSIGNMENT (( #129 ) ) ;
#226 =( NAMED_UNIT ( * ) SI_UNIT ( $, .STERADIAN. ) SOLID_ANGLE_UNIT ( ) );
#227 = PRODUCT_DEFINITION ( 'UNKNOWN', '', #239, #213 ) ;
#228 = DIRECTION ( 'NONE',  ( 0.000000000000000000, 0.000000000000000000, 1.000000000000000000 ) ) ;
#229 = FACE_OUTER_BOUND ( 'NONE', #137, .T. ) ;
#230 =( GEOMETRIC_REPRESENTATION_CONTEXT ( 3 ) GLOBAL_UNCERTAINTY_ASSIGNED_CONTEXT ( ( #181 ) ) GLOBAL_UNIT_ASSIGNED_CONTEXT ( ( #13, #282, #307 ) ) REPRESENTATION_CONTEXT ( 'NONE', 'WORKASPACE' ) );
#231 = VERTEX_POINT ( 'NONE', #150 ) ;
#232 = DIRECTION ( 'NONE',  ( -4.898587196589413075E-17, 1.000000000000000000, -0.000000000000000000 ) ) ;
#233 = APPLICATION_PROTOCOL_DEFINITION ( 'draft international standard', 'automotive_design', 1998, #35 ) ;
#234 = ORIENTED_EDGE ( 'NONE', *, *, #249, .T. ) ;
#235 = DIMENSIONAL_EXPONENTS ( 1.000000000000000000, 0.000000000000000000, 0.000000000000000000, 0.000000000000000000, 0.000000000000000000, 0.000000000000000000, 0.000000000000000000 ) ;
#236 = APPLICATION_CONTEXT ( 'automotive_design' ) ;
#237 = VERTEX_POINT ( 'NONE', #172 ) ;
#238 = AXIS2_PLACEMENT_3D ( 'NONE', #44, #22, #71 ) ;
#239 = PRODUCT_DEFINITION_FORMATION_WITH_SPECIFIED_SOURCE ( 'ANY', '', #120, .NOT_KNOWN. ) ;
#240 = DIRECTION ( 'NONE',  ( 0.000000000000000000, 0.000000000000000000, -1.000000000000000000 ) ) ;
#241 = DIMENSIONAL_EXPONENTS ( 1.000000000000000000, 0.000000000000000000, 0.000000000000000000, 0.000000000000000000, 0.000000000000000000, 0.000000000000000000, 0.000000000000000000 ) ;
#242 = EDGE_CURVE ( 'NONE', #132, #207, #263, .T. ) ;
#243 = SURFACE_STYLE_USAGE ( .BOTH. , #165 ) ;
#244 = CARTESIAN_POINT ( 'NONE',  ( 0.3125000000000000000, 2.500000000000000000, 3.827021247335479543E-17 ) ) ;
#245 = FILL_AREA_STYLE ('',( #179 ) ) ;
#246 = ADVANCED_FACE ( 'NONE', ( #102 ), #267, .T. ) ;
#247 = SURFACE_STYLE_USAGE ( .BOTH. , #178 ) ;
#248 = PRESENTATION_STYLE_ASSIGNMENT (( #199 ) ) ;
#249 = EDGE_CURVE ( 'NONE', #275, #207, #224, .T. ) ;
#250 = LENGTH_MEASURE_WITH_UNIT ( LENGTH_MEASURE( 0.02539999999999999897 ), #107 );
#251 = COLOUR_RGB ( '',0.7921568627450980005, 0.8196078431372548767, 0.9333333333333333481 ) ;
#252 = ORIENTED_EDGE ( 'NONE', *, *, #19, .F. ) ;
#253 = EDGE_LOOP ( 'NONE', ( #184, #255, #58, #183 ) ) ;
#254 = DIRECTION ( 'NONE',  ( -4.898587196589412459E-17, 1.000000000000000000, -0.000000000000000000 ) ) ;
#255 = ORIENTED_EDGE ( 'NONE', *, *, #19, .T. ) ;
#256 = DIRECTION ( 'NONE',  ( 0.000000000000000000, -1.000000000000000000, -0.000000000000000000 ) ) ;
#257 = LENGTH_MEASURE_WITH_UNIT ( LENGTH_MEASURE( 0.02539999999999999897 ), #208 );
#258 = CARTESIAN_POINT ( 'NONE',  ( 0.000000000000000000, 0.000000000000000000, 0.000000000000000000 ) ) ;
#259 =( NAMED_UNIT ( * ) SI_UNIT ( $, .STERADIAN. ) SOLID_ANGLE_UNIT ( ) );
#260 = AXIS2_PLACEMENT_3D ( 'NONE', #92, #38, #15 ) ;
#261 = EDGE_CURVE ( 'NONE', #160, #109, #94, .T. ) ;
#262 = CARTESIAN_POINT ( 'NONE',  ( 0.000000000000000000, 2.500000000000000000, 0.000000000000000000 ) ) ;
#263 = LINE ( 'NONE', #123, #170 ) ;
#264 = ADVANCED_FACE ( 'NONE', ( #4 ), #83, .T. ) ;
#265 =( NAMED_UNIT ( * ) SI_UNIT ( $, .STERADIAN. ) SOLID_ANGLE_UNIT ( ) );
#266 =( GEOMETRIC_REPRESENTATION_CONTEXT ( 3 ) GLOBAL_UNCERTAINTY_ASSIGNED_CONTEXT ( ( #90 ) ) GLOBAL_UNIT_ASSIGNED_CONTEXT ( ( #151, #126, #226 ) ) REPRESENTATION_CONTEXT ( 'NONE', 'WORKASPACE' ) );
#267 = CYLINDRICAL_SURFACE ( 'NONE', #55, 0.3125000000000000555 ) ;
#268 = AXIS2_PLACEMENT_3D ( 'NONE', #103, #46, #176 ) ;
#269 = DIRECTION ( 'NONE',  ( -4.898587196589413075E-17, 1.000000000000000000, -0.000000000000000000 ) ) ;
#270 =( GEOMETRIC_REPRESENTATION_CONTEXT ( 3 ) GLOBAL_UNCERTAINTY_ASSIGNED_CONTEXT ( ( #106 ) ) GLOBAL_UNIT_ASSIGNED_CONTEXT ( ( #60, #173, #203 ) ) REPRESENTATION_CONTEXT ( 'NONE', 'WORKASPACE' ) );
#271 = UNCERTAINTY_MEASURE_WITH_UNIT (LENGTH_MEASURE( 1.000000000000000082E-05 ), #5, 'distance_accuracy_value', 'NONE');
#272 = ORIENTED_EDGE ( 'NONE', *, *, #242, .T. ) ;
#273 = AXIS2_PLACEMENT_3D ( 'NONE', #187, #17, #116 ) ;
#274 = EDGE_CURVE ( 'NONE', #109, #160, #61, .T. ) ;
#275 = VERTEX_POINT ( 'NONE', #72 ) ;
#276 = VECTOR ( 'NONE', #128, 39.37007874015748143 ) ;
#277 = DIRECTION ( 'NONE',  ( -1.000000000000000000, 0.000000000000000000, 0.000000000000000000 ) ) ;
#278 = STYLED_ITEM ( 'NONE', ( #82 ), #25 ) ;
#279 = SURFACE_STYLE_USAGE ( .BOTH. , #112 ) ;
#280 = DIRECTION ( 'NONE',  ( 0.000000000000000000, 1.000000000000000000, 0.000000000000000000 ) ) ;
#281 = ADVANCED_FACE ( 'NONE', ( #166 ), #283, .T. ) ;
#282 =( NAMED_UNIT ( * ) PLANE_ANGLE_UNIT ( ) SI_UNIT ( $, .RADIAN. ) );
#283 = PLANE ( 'NONE',  #67 ) ;
#284 = STYLED_ITEM ( 'NONE', ( #169 ), #281 ) ;
#285 = CARTESIAN_POINT ( 'NONE',  ( 0.000000000000000000, 0.000000000000000000, 0.000000000000000000 ) ) ;
#286 = UNCERTAINTY_MEASURE_WITH_UNIT (LENGTH_MEASURE( 1.000000000000000082E-05 ), #43, 'distance_accuracy_value', 'NONE');
#287 =( GEOMETRIC_REPRESENTATION_CONTEXT ( 3 ) GLOBAL_UNCERTAINTY_ASSIGNED_CONTEXT ( ( #158 ) ) GLOBAL_UNIT_ASSIGNED_CONTEXT ( ( #51, #81, #122 ) ) REPRESENTATION_CONTEXT ( 'NONE', 'WORKASPACE' ) );
#288 = CARTESIAN_POINT ( 'NONE',  ( -1.224646799147353207E-16, 5.000000000000000000, 0.000000000000000000 ) ) ;
#289 = SURFACE_SIDE_STYLE ('',( #105 ) ) ;
#290 = CARTESIAN_POINT ( 'NONE',  ( 0.000000000000000000, 0.000000000000000000, 0.000000000000000000 ) ) ;
#291 = MECHANICAL_DESIGN_GEOMETRIC_PRESENTATION_REPRESENTATION (  '', ( #209 ), #161 ) ;
#292 = DIRECTION ( 'NONE',  ( -0.000000000000000000, -1.000000000000000000, -0.000000000000000000 ) ) ;
#293 = SURFACE_STYLE_FILL_AREA ( #155 ) ;
#294 = APPLICATION_PROTOCOL_DEFINITION ( 'draft international standard', 'automotive_design', 1998, #236 ) ;
#295 =( LENGTH_UNIT ( ) NAMED_UNIT ( * ) SI_UNIT ( $, .METRE. ) );
#296 = DIMENSIONAL_EXPONENTS ( 1.000000000000000000, 0.000000000000000000, 0.000000000000000000, 0.000000000000000000, 0.000000000000000000, 0.000000000000000000, 0.000000000000000000 ) ;
#297 = ORIENTED_EDGE ( 'NONE', *, *, #211, .T. ) ;
#298 = STYLED_ITEM ( 'NONE', ( #84 ), #142 ) ;
#299 = PLANE ( 'NONE',  #260 ) ;
#300 = ORIENTED_EDGE ( 'NONE', *, *, #136, .T. ) ;
#301 = EDGE_LOOP ( 'NONE', ( #303, #272, #8, #57 ) ) ;
#302 = AXIS2_PLACEMENT_3D ( 'NONE', #285, #292, #50 ) ;
#303 = ORIENTED_EDGE ( 'NONE', *, *, #64, .T. ) ;
#304 = FILL_AREA_STYLE_COLOUR ( '', #223 ) ;
#305 = SURFACE_STYLE_FILL_AREA ( #146 ) ;
#306 = LINE ( 'NONE', #149, #202 ) ;
#307 =( NAMED_UNIT ( * ) SI_UNIT ( $, .STERADIAN. ) SOLID_ANGLE_UNIT ( ) );
#308 = UNCERTAINTY_MEASURE_WITH_UNIT (LENGTH_MEASURE( 1.000000000000000082E-05 ), #52, 'distance_accuracy_value', 'NONE');
#309 =( LENGTH_UNIT ( ) NAMED_UNIT ( * ) SI_UNIT ( $, .METRE. ) );
ENDSEC;
END-ISO-10303-21;
