ISO-10303-21;
HEADER;
FILE_DESCRIPTION (( 'STEP AP214' ),
    '1' );
FILE_NAME ('59762.STEP',
    '2023-07-24T15:56:34',
    ( '' ),
    ( '' ),
    'SwSTEP 2.0',
    'SolidWorks 2023',
    '' );
FILE_SCHEMA (( 'AUTOMOTIVE_DESIGN' ));
ENDSEC;

DATA;
#1 = AXIS2_PLACEMENT_3D ( 'NONE', #127, #202, #18 ) ;
#2 = FACE_OUTER_BOUND ( 'NONE', #43, .T. ) ;
#3 = ORIENTED_EDGE ( 'NONE', *, *, #24, .F. ) ;
#4 = CLOSED_SHELL ( 'NONE', ( #252, #233, #28, #5 ) ) ;
#5 = ADVANCED_FACE ( 'NONE', ( #35 ), #288, .F. ) ;
#6 =( LENGTH_UNIT ( ) NAMED_UNIT ( * ) SI_UNIT ( .MILLI., .METRE. ) );
#7 = PRESENTATION_LAYER_ASSIGNMENT (  '', '', ( #27 ) ) ;
#8 =( GEOMETRIC_REPRESENTATION_CONTEXT ( 3 ) GLOBAL_UNCERTAINTY_ASSIGNED_CONTEXT ( ( #158 ) ) GLOBAL_UNIT_ASSIGNED_CONTEXT ( ( #47, #278, #23 ) ) REPRESENTATION_CONTEXT ( 'NONE', 'WORKASPACE' ) );
#9 = CARTESIAN_POINT ( 'NONE',  ( 0.000000000000000000, 0.000000000000000000, 0.000000000000000000 ) ) ;
#10 = PRODUCT_DEFINITION_FORMATION_WITH_SPECIFIED_SOURCE ( 'ANY', '', #172, .NOT_KNOWN. ) ;
#11 =( NAMED_UNIT ( * ) SI_UNIT ( $, .STERADIAN. ) SOLID_ANGLE_UNIT ( ) );
#12 = PRESENTATION_LAYER_ASSIGNMENT (  '', '', ( #141 ) ) ;
#13 = DIRECTION ( 'NONE',  ( -0.000000000000000000, -1.000000000000000000, -0.000000000000000000 ) ) ;
#14 = ORIENTED_EDGE ( 'NONE', *, *, #24, .T. ) ;
#15 = LINE ( 'NONE', #184, #99 ) ;
#16 =( GEOMETRIC_REPRESENTATION_CONTEXT ( 3 ) GLOBAL_UNCERTAINTY_ASSIGNED_CONTEXT ( ( #279 ) ) GLOBAL_UNIT_ASSIGNED_CONTEXT ( ( #204, #109, #112 ) ) REPRESENTATION_CONTEXT ( 'NONE', 'WORKASPACE' ) );
#17 = DIRECTION ( 'NONE',  ( -4.082155997157840121E-17, 1.000000000000000000, 0.000000000000000000 ) ) ;
#18 = DIRECTION ( 'NONE',  ( 1.000000000000000000, 4.082155997157840121E-17, 0.000000000000000000 ) ) ;
#19 = SURFACE_SIDE_STYLE ('',( #222 ) ) ;
#20 = VERTEX_POINT ( 'NONE', #85 ) ;
#21 = CIRCLE ( 'NONE', #170, 12.50000000000000355 ) ;
#22 = CARTESIAN_POINT ( 'NONE',  ( 0.000000000000000000, 0.000000000000000000, 0.000000000000000000 ) ) ;
#23 =( NAMED_UNIT ( * ) SI_UNIT ( $, .STERADIAN. ) SOLID_ANGLE_UNIT ( ) );
#24 = EDGE_CURVE ( 'NONE', #78, #145, #21, .T. ) ;
#25 = CARTESIAN_POINT ( 'NONE',  ( 0.000000000000000000, 0.000000000000000000, 0.000000000000000000 ) ) ;
#26 = ORIENTED_EDGE ( 'NONE', *, *, #33, .T. ) ;
#27 = STYLED_ITEM ( 'NONE', ( #72 ), #285 ) ;
#28 = ADVANCED_FACE ( 'NONE', ( #2 ), #226, .T. ) ;
#29 = DIRECTION ( 'NONE',  ( -4.082155997157840121E-17, 1.000000000000000000, -0.000000000000000000 ) ) ;
#30 = CARTESIAN_POINT ( 'NONE',  ( -3.061616997868379493E-15, 124.9999999999999858, 0.000000000000000000 ) ) ;
#31 = SURFACE_STYLE_USAGE ( .BOTH. , #103 ) ;
#32 = SURFACE_STYLE_FILL_AREA ( #132 ) ;
#33 = EDGE_CURVE ( 'NONE', #161, #78, #15, .T. ) ;
#34 = DIRECTION ( 'NONE',  ( -0.000000000000000000, -1.000000000000000000, -0.000000000000000000 ) ) ;
#35 = FACE_OUTER_BOUND ( 'NONE', #81, .T. ) ;
#36 = PRESENTATION_LAYER_ASSIGNMENT (  '', '', ( #187 ) ) ;
#37 = ORIENTED_EDGE ( 'NONE', *, *, #124, .F. ) ;
#38 = ORIENTED_EDGE ( 'NONE', *, *, #75, .T. ) ;
#39 = CARTESIAN_POINT ( 'NONE',  ( 1.530808498934191521E-15, 50.00000000000000000, 12.50000000000000000 ) ) ;
#40 = CYLINDRICAL_SURFACE ( 'NONE', #142, 12.50000000000000000 ) ;
#41 = DIRECTION ( 'NONE',  ( -1.000000000000000000, -4.082155997157840121E-17, 0.000000000000000000 ) ) ;
#42 = DIRECTION ( 'NONE',  ( -4.082155997157840121E-17, 1.000000000000000000, -0.000000000000000000 ) ) ;
#43 = EDGE_LOOP ( 'NONE', ( #37, #240, #26, #237 ) ) ;
#44 = CYLINDRICAL_SURFACE ( 'NONE', #120, 12.50000000000000178 ) ;
#45 = COLOUR_RGB ( '',1.000000000000000000, 0.000000000000000000, 0.000000000000000000 ) ;
#46 = ADVANCED_FACE ( 'NONE', ( #164 ), #40, .T. ) ;
#47 =( LENGTH_UNIT ( ) NAMED_UNIT ( * ) SI_UNIT ( .MILLI., .METRE. ) );
#48 =( GEOMETRIC_REPRESENTATION_CONTEXT ( 3 ) GLOBAL_UNCERTAINTY_ASSIGNED_CONTEXT ( ( #267 ) ) GLOBAL_UNIT_ASSIGNED_CONTEXT ( ( #153, #157, #84 ) ) REPRESENTATION_CONTEXT ( 'NONE', 'WORKASPACE' ) );
#49 = APPLICATION_PROTOCOL_DEFINITION ( 'draft international standard', 'automotive_design', 1998, #160 ) ;
#50 =( LENGTH_UNIT ( ) NAMED_UNIT ( * ) SI_UNIT ( .MILLI., .METRE. ) );
#51 = SURFACE_SIDE_STYLE ('',( #140 ) ) ;
#52 =( GEOMETRIC_REPRESENTATION_CONTEXT ( 3 ) GLOBAL_UNCERTAINTY_ASSIGNED_CONTEXT ( ( #282 ) ) GLOBAL_UNIT_ASSIGNED_CONTEXT ( ( #193, #239, #11 ) ) REPRESENTATION_CONTEXT ( 'NONE', 'WORKASPACE' ) );
#53 = FILL_AREA_STYLE_COLOUR ( '', #118 ) ;
#54 = EDGE_LOOP ( 'NONE', ( #208, #59 ) ) ;
#55 = ORIENTED_EDGE ( 'NONE', *, *, #149, .T. ) ;
#56 = MECHANICAL_DESIGN_GEOMETRIC_PRESENTATION_REPRESENTATION (  '', ( #268 ), #104 ) ;
#57 = DIRECTION ( 'NONE',  ( -4.082155997157840121E-17, 1.000000000000000000, -0.000000000000000000 ) ) ;
#58 = CLOSED_SHELL ( 'NONE', ( #46, #195, #285, #69 ) ) ;
#59 = ORIENTED_EDGE ( 'NONE', *, *, #75, .F. ) ;
#60 = MECHANICAL_DESIGN_GEOMETRIC_PRESENTATION_REPRESENTATION (  '', ( #27 ), #281 ) ;
#61 = CARTESIAN_POINT ( 'NONE',  ( 12.49999999999999822, 124.9999999999999858, 1.530808498934191719E-15 ) ) ;
#62 = FILL_AREA_STYLE ('',( #148 ) ) ;
#63 = EDGE_LOOP ( 'NONE', ( #223, #55 ) ) ;
#64 = PRESENTATION_STYLE_ASSIGNMENT (( #274 ) ) ;
#65 = PLANE ( 'NONE',  #101 ) ;
#66 = SURFACE_STYLE_FILL_AREA ( #186 ) ;
#67 = DIRECTION ( 'NONE',  ( 0.000000000000000000, -0.000000000000000000, 1.000000000000000000 ) ) ;
#68 = MECHANICAL_DESIGN_GEOMETRIC_PRESENTATION_REPRESENTATION (  '', ( #141 ), #48 ) ;
#69 = ADVANCED_FACE ( 'NONE', ( #265 ), #65, .T. ) ;
#70 = MECHANICAL_DESIGN_GEOMETRIC_PRESENTATION_REPRESENTATION (  '', ( #126 ), #173 ) ;
#71 = ORIENTED_EDGE ( 'NONE', *, *, #149, .F. ) ;
#72 = PRESENTATION_STYLE_ASSIGNMENT (( #230 ) ) ;
#73 = ORIENTED_EDGE ( 'NONE', *, *, #124, .T. ) ;
#74 = CARTESIAN_POINT ( 'NONE',  ( 0.000000000000000000, 50.00000000000000000, -12.50000000000000000 ) ) ;
#75 = EDGE_CURVE ( 'NONE', #188, #273, #83, .T. ) ;
#76 = AXIS2_PLACEMENT_3D ( 'NONE', #221, #17, #41 ) ;
#77 = PRESENTATION_STYLE_ASSIGNMENT (( #31 ) ) ;
#78 = VERTEX_POINT ( 'NONE', #177 ) ;
#79 = PRODUCT_RELATED_PRODUCT_CATEGORY ( 'part', '', ( #172 ) ) ;
#80 = UNCERTAINTY_MEASURE_WITH_UNIT (LENGTH_MEASURE( 1.000000000000000082E-05 ), #50, 'distance_accuracy_value', 'NONE');
#81 = EDGE_LOOP ( 'NONE', ( #14, #244 ) ) ;
#82 = DIRECTION ( 'NONE',  ( -4.082155997157840121E-17, 1.000000000000000000, -0.000000000000000000 ) ) ;
#83 = CIRCLE ( 'NONE', #261, 12.50000000000000000 ) ;
#84 =( NAMED_UNIT ( * ) SI_UNIT ( $, .STERADIAN. ) SOLID_ANGLE_UNIT ( ) );
#85 = CARTESIAN_POINT ( 'NONE',  ( 0.000000000000000000, 0.000000000000000000, -12.50000000000000000 ) ) ;
#86 = LINE ( 'NONE', #115, #151 ) ;
#87 = SURFACE_STYLE_USAGE ( .BOTH. , #216 ) ;
#88 = EDGE_LOOP ( 'NONE', ( #191, #263, #220, #93 ) ) ;
#89 = EDGE_CURVE ( 'NONE', #161, #256, #180, .T. ) ;
#90 = COLOUR_RGB ( '',1.000000000000000000, 0.000000000000000000, 0.000000000000000000 ) ;
#91 = CARTESIAN_POINT ( 'NONE',  ( 0.000000000000000000, 0.000000000000000000, 0.000000000000000000 ) ) ;
#92 = CARTESIAN_POINT ( 'NONE',  ( -3.061616997868379493E-15, 124.9999999999999858, 0.000000000000000000 ) ) ;
#93 = ORIENTED_EDGE ( 'NONE', *, *, #229, .F. ) ;
#94 = EDGE_LOOP ( 'NONE', ( #130, #73, #3, #133 ) ) ;
#95 = AXIS2_PLACEMENT_3D ( 'NONE', #179, #13, #284 ) ;
#96 = DIRECTION ( 'NONE',  ( 1.000000000000000000, 0.000000000000000000, 0.000000000000000000 ) ) ;
#97 = CIRCLE ( 'NONE', #260, 12.50000000000000000 ) ;
#98 =( NAMED_UNIT ( * ) SI_UNIT ( $, .STERADIAN. ) SOLID_ANGLE_UNIT ( ) );
#99 = VECTOR ( 'NONE', #42, 1000.000000000000000 ) ;
#100 = DIRECTION ( 'NONE',  ( -0.000000000000000000, -1.000000000000000000, -0.000000000000000000 ) ) ;
#101 = AXIS2_PLACEMENT_3D ( 'NONE', #22, #121, #236 ) ;
#102 = FACE_OUTER_BOUND ( 'NONE', #253, .T. ) ;
#103 = SURFACE_SIDE_STYLE ('',( #238 ) ) ;
#104 =( GEOMETRIC_REPRESENTATION_CONTEXT ( 3 ) GLOBAL_UNCERTAINTY_ASSIGNED_CONTEXT ( ( #210 ) ) GLOBAL_UNIT_ASSIGNED_CONTEXT ( ( #6, #228, #165 ) ) REPRESENTATION_CONTEXT ( 'NONE', 'WORKASPACE' ) );
#105 = PRESENTATION_LAYER_ASSIGNMENT (  '', '', ( #136 ) ) ;
#106 = DIRECTION ( 'NONE',  ( -0.000000000000000000, -1.000000000000000000, -0.000000000000000000 ) ) ;
#107 = EDGE_CURVE ( 'NONE', #256, #161, #156, .T. ) ;
#108 = FILL_AREA_STYLE_COLOUR ( '', #259 ) ;
#109 =( NAMED_UNIT ( * ) PLANE_ANGLE_UNIT ( ) SI_UNIT ( $, .RADIAN. ) );
#110 = SURFACE_STYLE_USAGE ( .BOTH. , #19 ) ;
#111 = ORIENTED_EDGE ( 'NONE', *, *, #89, .F. ) ;
#112 =( NAMED_UNIT ( * ) SI_UNIT ( $, .STERADIAN. ) SOLID_ANGLE_UNIT ( ) );
#113 = CARTESIAN_POINT ( 'NONE',  ( -3.061616997868379493E-15, 124.9999999999999858, 0.000000000000000000 ) ) ;
#114 = ORIENTED_EDGE ( 'NONE', *, *, #229, .T. ) ;
#115 = CARTESIAN_POINT ( 'NONE',  ( 0.000000000000000000, 0.000000000000000000, -12.50000000000000000 ) ) ;
#116 = AXIS2_PLACEMENT_3D ( 'NONE', #9, #231, #96 ) ;
#117 = APPLICATION_PROTOCOL_DEFINITION ( 'draft international standard', 'automotive_design', 1998, #175 ) ;
#118 = COLOUR_RGB ( '',0.7921568627450980005, 0.8196078431372548767, 0.9333333333333333481 ) ;
#119 = PRODUCT_CONTEXT ( 'NONE', #160, 'mechanical' ) ;
#120 = AXIS2_PLACEMENT_3D ( 'NONE', #247, #137, #134 ) ;
#121 = DIRECTION ( 'NONE',  ( 0.000000000000000000, -1.000000000000000000, -0.000000000000000000 ) ) ;
#122 = CARTESIAN_POINT ( 'NONE',  ( 1.530808498934191521E-15, 0.000000000000000000, 12.50000000000000000 ) ) ;
#123 = DIRECTION ( 'NONE',  ( -1.000000000000000000, 0.000000000000000000, 0.000000000000000000 ) ) ;
#124 = EDGE_CURVE ( 'NONE', #256, #145, #257, .T. ) ;
#125 = DIRECTION ( 'NONE',  ( 0.000000000000000000, 0.000000000000000000, -1.000000000000000000 ) ) ;
#126 = STYLED_ITEM ( 'NONE', ( #64 ), #195 ) ;
#127 = CARTESIAN_POINT ( 'NONE',  ( 12.50000000000000000, 124.9999999999999858, 0.000000000000000000 ) ) ;
#128 = SURFACE_SIDE_STYLE ('',( #205 ) ) ;
#129 = DIRECTION ( 'NONE',  ( -1.000000000000000000, 0.000000000000000000, 0.000000000000000000 ) ) ;
#130 = ORIENTED_EDGE ( 'NONE', *, *, #89, .T. ) ;
#131 = PLANE ( 'NONE',  #76 ) ;
#132 = FILL_AREA_STYLE ('',( #108 ) ) ;
#133 = ORIENTED_EDGE ( 'NONE', *, *, #33, .F. ) ;
#134 = DIRECTION ( 'NONE',  ( -1.000000000000000000, 0.000000000000000000, 0.000000000000000000 ) ) ;
#135 = AXIS2_PLACEMENT_3D ( 'NONE', #185, #106, #162 ) ;
#136 = STYLED_ITEM ( 'NONE', ( #77 ), #168 ) ;
#137 = DIRECTION ( 'NONE',  ( -4.082155997157840121E-17, 1.000000000000000000, -0.000000000000000000 ) ) ;
#138 = PRESENTATION_STYLE_ASSIGNMENT (( #110 ) ) ;
#139 =( NAMED_UNIT ( * ) PLANE_ANGLE_UNIT ( ) SI_UNIT ( $, .RADIAN. ) );
#140 = SURFACE_STYLE_FILL_AREA ( #144 ) ;
#141 = STYLED_ITEM ( 'NONE', ( #196 ), #46 ) ;
#142 = AXIS2_PLACEMENT_3D ( 'NONE', #270, #248, #286 ) ;
#143 = PRODUCT_DEFINITION_SHAPE ( 'NONE', 'NONE',  #275 ) ;
#144 = FILL_AREA_STYLE ('',( #251 ) ) ;
#145 = VERTEX_POINT ( 'NONE', #264 ) ;
#146 = CIRCLE ( 'NONE', #95, 12.50000000000000000 ) ;
#147 = MECHANICAL_DESIGN_GEOMETRIC_PRESENTATION_REPRESENTATION (  '', ( #187 ), #16 ) ;
#148 = FILL_AREA_STYLE_COLOUR ( '', #276 ) ;
#149 = EDGE_CURVE ( 'NONE', #203, #20, #146, .T. ) ;
#150 = PRESENTATION_LAYER_ASSIGNMENT (  '', '', ( #268 ) ) ;
#151 = VECTOR ( 'NONE', #159, 1000.000000000000000 ) ;
#152 = LINE ( 'NONE', #122, #194 ) ;
#153 =( LENGTH_UNIT ( ) NAMED_UNIT ( * ) SI_UNIT ( .MILLI., .METRE. ) );
#154 = EDGE_CURVE ( 'NONE', #145, #78, #189, .T. ) ;
#155 = CARTESIAN_POINT ( 'NONE',  ( -12.50000000000000000, 50.00000000000000000, 0.000000000000000000 ) ) ;
#156 = CIRCLE ( 'NONE', #232, 12.50000000000000000 ) ;
#157 =( NAMED_UNIT ( * ) PLANE_ANGLE_UNIT ( ) SI_UNIT ( $, .RADIAN. ) );
#158 = UNCERTAINTY_MEASURE_WITH_UNIT (LENGTH_MEASURE( 1.000000000000000082E-05 ), #47, 'distance_accuracy_value', 'NONE');
#159 = DIRECTION ( 'NONE',  ( -0.000000000000000000, -1.000000000000000000, -0.000000000000000000 ) ) ;
#160 = APPLICATION_CONTEXT ( 'automotive_design' ) ;
#161 = VERTEX_POINT ( 'NONE', #155 ) ;
#162 = DIRECTION ( 'NONE',  ( 0.000000000000000000, 0.000000000000000000, -1.000000000000000000 ) ) ;
#163 = EDGE_CURVE ( 'NONE', #188, #203, #152, .T. ) ;
#164 = FACE_OUTER_BOUND ( 'NONE', #88, .T. ) ;
#165 =( NAMED_UNIT ( * ) SI_UNIT ( $, .STERADIAN. ) SOLID_ANGLE_UNIT ( ) );
#166 = AXIS2_PLACEMENT_3D ( 'NONE', #25, #100, #190 ) ;
#167 = DIRECTION ( 'NONE',  ( 0.000000000000000000, 1.000000000000000000, 0.000000000000000000 ) ) ;
#168 = MANIFOLD_SOLID_BREP ( 'Revolve - Tool Body (Straight Shanked)', #4 ) ;
#169 = SHAPE_DEFINITION_REPRESENTATION ( #143, #243 ) ;
#170 = AXIS2_PLACEMENT_3D ( 'NONE', #92, #199, #129 ) ;
#171 = EDGE_LOOP ( 'NONE', ( #111, #183 ) ) ;
#172 = PRODUCT ( '59762', '59762', '', ( #119 ) ) ;
#173 =( GEOMETRIC_REPRESENTATION_CONTEXT ( 3 ) GLOBAL_UNCERTAINTY_ASSIGNED_CONTEXT ( ( #200 ) ) GLOBAL_UNIT_ASSIGNED_CONTEXT ( ( #219, #249, #201 ) ) REPRESENTATION_CONTEXT ( 'NONE', 'WORKASPACE' ) );
#174 = DIRECTION ( 'NONE',  ( 0.000000000000000000, 0.000000000000000000, -1.000000000000000000 ) ) ;
#175 = APPLICATION_CONTEXT ( 'automotive_design' ) ;
#176 = MANIFOLD_SOLID_BREP ( 'Revolve - Cutting Edge', #58 ) ;
#177 = CARTESIAN_POINT ( 'NONE',  ( -12.50000000000000711, 124.9999999999999858, 0.000000000000000000 ) ) ;
#178 = VECTOR ( 'NONE', #82, 1000.000000000000000 ) ;
#179 = CARTESIAN_POINT ( 'NONE',  ( 0.000000000000000000, 0.000000000000000000, 0.000000000000000000 ) ) ;
#180 = CIRCLE ( 'NONE', #234, 12.50000000000000000 ) ;
#181 = CARTESIAN_POINT ( 'NONE',  ( 0.000000000000000000, 50.00000000000000000, 0.000000000000000000 ) ) ;
#182 = FILL_AREA_STYLE_COLOUR ( '', #90 ) ;
#183 = ORIENTED_EDGE ( 'NONE', *, *, #107, .F. ) ;
#184 = CARTESIAN_POINT ( 'NONE',  ( -12.50000000000000533, 124.9999999999999858, 0.000000000000000000 ) ) ;
#185 = CARTESIAN_POINT ( 'NONE',  ( 0.000000000000000000, 50.00000000000000000, 0.000000000000000000 ) ) ;
#186 = FILL_AREA_STYLE ('',( #269 ) ) ;
#187 = STYLED_ITEM ( 'NONE', ( #266 ), #176 ) ;
#188 = VERTEX_POINT ( 'NONE', #39 ) ;
#189 = CIRCLE ( 'NONE', #197, 12.50000000000000355 ) ;
#190 = DIRECTION ( 'NONE',  ( 0.000000000000000000, 0.000000000000000000, -1.000000000000000000 ) ) ;
#191 = ORIENTED_EDGE ( 'NONE', *, *, #242, .T. ) ;
#192 = DIRECTION ( 'NONE',  ( -1.000000000000000000, 0.000000000000000000, 0.000000000000000000 ) ) ;
#193 =( LENGTH_UNIT ( ) NAMED_UNIT ( * ) SI_UNIT ( .MILLI., .METRE. ) );
#194 = VECTOR ( 'NONE', #235, 1000.000000000000000 ) ;
#195 = ADVANCED_FACE ( 'NONE', ( #213 ), #255, .T. ) ;
#196 = PRESENTATION_STYLE_ASSIGNMENT (( #87 ) ) ;
#197 = AXIS2_PLACEMENT_3D ( 'NONE', #30, #212, #123 ) ;
#198 = FACE_OUTER_BOUND ( 'NONE', #94, .T. ) ;
#199 = DIRECTION ( 'NONE',  ( -4.082155997157840121E-17, 1.000000000000000000, -0.000000000000000000 ) ) ;
#200 = UNCERTAINTY_MEASURE_WITH_UNIT (LENGTH_MEASURE( 1.000000000000000082E-05 ), #219, 'distance_accuracy_value', 'NONE');
#201 =( NAMED_UNIT ( * ) SI_UNIT ( $, .STERADIAN. ) SOLID_ANGLE_UNIT ( ) );
#202 = DIRECTION ( 'NONE',  ( 4.082155997157840121E-17, -1.000000000000000000, 0.000000000000000000 ) ) ;
#203 = VERTEX_POINT ( 'NONE', #225 ) ;
#204 =( LENGTH_UNIT ( ) NAMED_UNIT ( * ) SI_UNIT ( .MILLI., .METRE. ) );
#205 = SURFACE_STYLE_FILL_AREA ( #211 ) ;
#206 = DIRECTION ( 'NONE',  ( -1.000000000000000000, 0.000000000000000000, 0.000000000000000000 ) ) ;
#207 = AXIS2_PLACEMENT_3D ( 'NONE', #245, #167, #67 ) ;
#208 = ORIENTED_EDGE ( 'NONE', *, *, #242, .F. ) ;
#209 = COLOUR_RGB ( '',1.000000000000000000, 0.000000000000000000, 0.000000000000000000 ) ;
#210 = UNCERTAINTY_MEASURE_WITH_UNIT (LENGTH_MEASURE( 1.000000000000000082E-05 ), #6, 'distance_accuracy_value', 'NONE');
#211 = FILL_AREA_STYLE ('',( #53 ) ) ;
#212 = DIRECTION ( 'NONE',  ( -4.082155997157840121E-17, 1.000000000000000000, -0.000000000000000000 ) ) ;
#213 = FACE_OUTER_BOUND ( 'NONE', #54, .T. ) ;
#214 = EDGE_CURVE ( 'NONE', #20, #203, #97, .T. ) ;
#215 = DIRECTION ( 'NONE',  ( -0.000000000000000000, -1.000000000000000000, -0.000000000000000000 ) ) ;
#216 = SURFACE_SIDE_STYLE ('',( #32 ) ) ;
#217 = PRODUCT_DEFINITION_CONTEXT ( 'detailed design', #175, 'design' ) ;
#218 = FACE_OUTER_BOUND ( 'NONE', #171, .T. ) ;
#219 =( LENGTH_UNIT ( ) NAMED_UNIT ( * ) SI_UNIT ( .MILLI., .METRE. ) );
#220 = ORIENTED_EDGE ( 'NONE', *, *, #214, .F. ) ;
#221 = CARTESIAN_POINT ( 'NONE',  ( 1.041499849070732488E-32, 50.00000000000000000, 0.000000000000000000 ) ) ;
#222 = SURFACE_STYLE_FILL_AREA ( #246 ) ;
#223 = ORIENTED_EDGE ( 'NONE', *, *, #214, .T. ) ;
#224 = AXIS2_PLACEMENT_3D ( 'NONE', #113, #272, #206 ) ;
#225 = CARTESIAN_POINT ( 'NONE',  ( 1.530808498934191521E-15, 0.000000000000000000, 12.50000000000000000 ) ) ;
#226 = CYLINDRICAL_SURFACE ( 'NONE', #224, 12.50000000000000178 ) ;
#227 = CARTESIAN_POINT ( 'NONE',  ( 12.50000000000000000, 50.00000000000000000, 1.530808498934191719E-15 ) ) ;
#228 =( NAMED_UNIT ( * ) PLANE_ANGLE_UNIT ( ) SI_UNIT ( $, .RADIAN. ) );
#229 = EDGE_CURVE ( 'NONE', #273, #20, #86, .T. ) ;
#230 = SURFACE_STYLE_USAGE ( .BOTH. , #51 ) ;
#231 = DIRECTION ( 'NONE',  ( 0.000000000000000000, 0.000000000000000000, 1.000000000000000000 ) ) ;
#232 = AXIS2_PLACEMENT_3D ( 'NONE', #181, #29, #192 ) ;
#233 = ADVANCED_FACE ( 'NONE', ( #218 ), #131, .F. ) ;
#234 = AXIS2_PLACEMENT_3D ( 'NONE', #283, #57, #280 ) ;
#235 = DIRECTION ( 'NONE',  ( -0.000000000000000000, -1.000000000000000000, -0.000000000000000000 ) ) ;
#236 = DIRECTION ( 'NONE',  ( 0.000000000000000000, 0.000000000000000000, -1.000000000000000000 ) ) ;
#237 = ORIENTED_EDGE ( 'NONE', *, *, #154, .F. ) ;
#238 = SURFACE_STYLE_FILL_AREA ( #62 ) ;
#239 =( NAMED_UNIT ( * ) PLANE_ANGLE_UNIT ( ) SI_UNIT ( $, .RADIAN. ) );
#240 = ORIENTED_EDGE ( 'NONE', *, *, #107, .T. ) ;
#241 = CIRCLE ( 'NONE', #135, 12.50000000000000000 ) ;
#242 = EDGE_CURVE ( 'NONE', #273, #188, #241, .T. ) ;
#243 = ADVANCED_BREP_SHAPE_REPRESENTATION ( '59762', ( #176, #168, #116 ), #8 ) ;
#244 = ORIENTED_EDGE ( 'NONE', *, *, #154, .T. ) ;
#245 = CARTESIAN_POINT ( 'NONE',  ( 0.000000000000000000, 50.00000000000000000, 0.000000000000000000 ) ) ;
#246 = FILL_AREA_STYLE ('',( #182 ) ) ;
#247 = CARTESIAN_POINT ( 'NONE',  ( -3.061616997868379493E-15, 124.9999999999999858, 0.000000000000000000 ) ) ;
#248 = DIRECTION ( 'NONE',  ( -0.000000000000000000, -1.000000000000000000, -0.000000000000000000 ) ) ;
#249 =( NAMED_UNIT ( * ) PLANE_ANGLE_UNIT ( ) SI_UNIT ( $, .RADIAN. ) );
#250 = CYLINDRICAL_SURFACE ( 'NONE', #166, 12.50000000000000000 ) ;
#251 = FILL_AREA_STYLE_COLOUR ( '', #45 ) ;
#252 = ADVANCED_FACE ( 'NONE', ( #198 ), #44, .T. ) ;
#253 = EDGE_LOOP ( 'NONE', ( #258, #38, #114, #71 ) ) ;
#254 = PRESENTATION_LAYER_ASSIGNMENT (  '', '', ( #126 ) ) ;
#255 = PLANE ( 'NONE',  #207 ) ;
#256 = VERTEX_POINT ( 'NONE', #227 ) ;
#257 = LINE ( 'NONE', #61, #178 ) ;
#258 = ORIENTED_EDGE ( 'NONE', *, *, #163, .F. ) ;
#259 = COLOUR_RGB ( '',1.000000000000000000, 0.000000000000000000, 0.000000000000000000 ) ;
#260 = AXIS2_PLACEMENT_3D ( 'NONE', #91, #34, #125 ) ;
#261 = AXIS2_PLACEMENT_3D ( 'NONE', #262, #215, #174 ) ;
#262 = CARTESIAN_POINT ( 'NONE',  ( 0.000000000000000000, 50.00000000000000000, 0.000000000000000000 ) ) ;
#263 = ORIENTED_EDGE ( 'NONE', *, *, #163, .T. ) ;
#264 = CARTESIAN_POINT ( 'NONE',  ( 12.50000000000000000, 124.9999999999999858, 1.530808498934191719E-15 ) ) ;
#265 = FACE_OUTER_BOUND ( 'NONE', #63, .T. ) ;
#266 = PRESENTATION_STYLE_ASSIGNMENT (( #271 ) ) ;
#267 = UNCERTAINTY_MEASURE_WITH_UNIT (LENGTH_MEASURE( 1.000000000000000082E-05 ), #153, 'distance_accuracy_value', 'NONE');
#268 = STYLED_ITEM ( 'NONE', ( #138 ), #69 ) ;
#269 = FILL_AREA_STYLE_COLOUR ( '', #209 ) ;
#270 = CARTESIAN_POINT ( 'NONE',  ( 0.000000000000000000, 0.000000000000000000, 0.000000000000000000 ) ) ;
#271 = SURFACE_STYLE_USAGE ( .BOTH. , #128 ) ;
#272 = DIRECTION ( 'NONE',  ( -4.082155997157840121E-17, 1.000000000000000000, -0.000000000000000000 ) ) ;
#273 = VERTEX_POINT ( 'NONE', #74 ) ;
#274 = SURFACE_STYLE_USAGE ( .BOTH. , #287 ) ;
#275 = PRODUCT_DEFINITION ( 'UNKNOWN', '', #10, #217 ) ;
#276 = COLOUR_RGB ( '',0.7921568627450980005, 0.8196078431372548767, 0.9333333333333333481 ) ;
#277 = MECHANICAL_DESIGN_GEOMETRIC_PRESENTATION_REPRESENTATION (  '', ( #136 ), #52 ) ;
#278 =( NAMED_UNIT ( * ) PLANE_ANGLE_UNIT ( ) SI_UNIT ( $, .RADIAN. ) );
#279 = UNCERTAINTY_MEASURE_WITH_UNIT (LENGTH_MEASURE( 1.000000000000000082E-05 ), #204, 'distance_accuracy_value', 'NONE');
#280 = DIRECTION ( 'NONE',  ( -1.000000000000000000, 0.000000000000000000, 0.000000000000000000 ) ) ;
#281 =( GEOMETRIC_REPRESENTATION_CONTEXT ( 3 ) GLOBAL_UNCERTAINTY_ASSIGNED_CONTEXT ( ( #80 ) ) GLOBAL_UNIT_ASSIGNED_CONTEXT ( ( #50, #139, #98 ) ) REPRESENTATION_CONTEXT ( 'NONE', 'WORKASPACE' ) );
#282 = UNCERTAINTY_MEASURE_WITH_UNIT (LENGTH_MEASURE( 1.000000000000000082E-05 ), #193, 'distance_accuracy_value', 'NONE');
#283 = CARTESIAN_POINT ( 'NONE',  ( 0.000000000000000000, 50.00000000000000000, 0.000000000000000000 ) ) ;
#284 = DIRECTION ( 'NONE',  ( 0.000000000000000000, 0.000000000000000000, -1.000000000000000000 ) ) ;
#285 = ADVANCED_FACE ( 'NONE', ( #102 ), #250, .T. ) ;
#286 = DIRECTION ( 'NONE',  ( 0.000000000000000000, 0.000000000000000000, -1.000000000000000000 ) ) ;
#287 = SURFACE_SIDE_STYLE ('',( #66 ) ) ;
#288 = PLANE ( 'NONE',  #1 ) ;
ENDSEC;
END-ISO-10303-21;
