ISO-10303-21;
HEADER;
FILE_DESCRIPTION (( 'STEP AP214' ),
    '1' );
FILE_NAME ('Micro_SFAM-060100.STEP',
    '2021-09-02T04:17:47',
    ( '' ),
    ( '' ),
    'SwSTEP 2.0',
    'SolidWorks 2020',
    '' );
FILE_SCHEMA (( 'AUTOMOTIVE_DESIGN' ));
ENDSEC;

DATA;
#1 = EDGE_LOOP ( 'NONE', ( #224, #21, #249, #297 ) ) ;
#2 = EDGE_CURVE ( 'NONE', #229, #115, #284, .T. ) ;
#3 = UNCERTAINTY_MEASURE_WITH_UNIT (LENGTH_MEASURE( 1.000000000000000082E-05 ), #287, 'distance_accuracy_value', 'NONE');
#4 = ORIENTED_EDGE ( 'NONE', *, *, #217, .T. ) ;
#5 = CARTESIAN_POINT ( 'NONE',  ( 0.0000000000000000000, 0.0000000000000000000, 3.937007999999999619 ) ) ;
#6 = DIRECTION ( 'NONE',  ( -0.7071067811865422437, 0.0000000000000000000, -0.7071067811865527908 ) ) ;
#7 = EDGE_CURVE ( 'NONE', #229, #69, #30, .T. ) ;
#8 = AXIS2_PLACEMENT_3D ( 'NONE', #52, #143, #233 ) ;
#9 = ADVANCED_FACE ( 'NONE', ( #122 ), #101, .T. ) ;
#10 = CARTESIAN_POINT ( 'NONE',  ( 0.1181100000000000066, 1.446430334472939084E-17, 3.922007999999998606 ) ) ;
#11 = ORIENTED_EDGE ( 'NONE', *, *, #90, .T. ) ;
#12 = CARTESIAN_POINT ( 'NONE',  ( 0.0000000000000000000, 0.0000000000000000000, 0.0000000000000000000 ) ) ;
#13 = APPLICATION_CONTEXT ( 'automotive_design' ) ;
#14 = DIRECTION ( 'NONE',  ( -1.000000000000000000, 0.0000000000000000000, 1.224646799147353454E-16 ) ) ;
#15 = AXIS2_PLACEMENT_3D ( 'NONE', #213, #188, #56 ) ;
#16 = DIRECTION ( 'NONE',  ( -1.224646799147353207E-16, -0.0000000000000000000, -1.000000000000000000 ) ) ;
#17 = LINE ( 'NONE', #155, #129 ) ;
#18 = CARTESIAN_POINT ( 'NONE',  ( 9.651096503481483597E-17, 0.0000000000000000000, 0.7880718350957151008 ) ) ;
#19 = CONICAL_SURFACE ( 'NONE', #207, 0.1031099999999988970, 0.7853981633974408405 ) ;
#20 = EDGE_CURVE ( 'NONE', #108, #69, #251, .T. ) ;
#21 = ORIENTED_EDGE ( 'NONE', *, *, #47, .T. ) ;
#22 = ORIENTED_EDGE ( 'NONE', *, *, #226, .F. ) ;
#23 = VERTEX_POINT ( 'NONE', #255 ) ;
#24 = PRODUCT_DEFINITION_SHAPE ( 'NONE', 'NONE',  #194 ) ;
#25 = ORIENTED_EDGE ( 'NONE', *, *, #264, .T. ) ;
#26 = SURFACE_STYLE_FILL_AREA ( #147 ) ;
#27 = PRESENTATION_STYLE_ASSIGNMENT (( #285 ) ) ;
#28 =( CONVERSION_BASED_UNIT ( 'INCH', #78 ) LENGTH_UNIT ( ) NAMED_UNIT ( #139 ) );
#29 = FILL_AREA_STYLE_COLOUR ( '', #262 ) ;
#30 = LINE ( 'NONE', #117, #116 ) ;
#31 = CARTESIAN_POINT ( 'NONE',  ( -0.1179918899999999882, 0.0000000000000000000, 2.889967808276931875E-17 ) ) ;
#32 = DIRECTION ( 'NONE',  ( 1.000000000000000000, 0.0000000000000000000, 0.0000000000000000000 ) ) ;
#33 = DIRECTION ( 'NONE',  ( 1.000000000000000000, 0.0000000000000000000, 0.0000000000000000000 ) ) ;
#34 = FACE_OUTER_BOUND ( 'NONE', #1, .T. ) ;
#35 = CARTESIAN_POINT ( 'NONE',  ( 0.0000000000000000000, 0.0000000000000000000, 3.937007999999999619 ) ) ;
#36 = ADVANCED_FACE ( 'NONE', ( #124 ), #125, .T. ) ;
#37 = SURFACE_STYLE_USAGE ( .BOTH. , #154 ) ;
#38 = DIRECTION ( 'NONE',  ( -1.224646799147353207E-16, -0.0000000000000000000, -1.000000000000000000 ) ) ;
#39 = CARTESIAN_POINT ( 'NONE',  ( 0.1031099999999988970, 1.354581824536880710E-17, 3.937007999999999619 ) ) ;
#40 = EDGE_CURVE ( 'NONE', #203, #115, #288, .T. ) ;
#41 = VECTOR ( 'NONE', #266, 39.37007874015748143 ) ;
#42 = EDGE_LOOP ( 'NONE', ( #192, #140, #159, #135 ) ) ;
#43 = ORIENTED_EDGE ( 'NONE', *, *, #92, .T. ) ;
#44 = FACE_OUTER_BOUND ( 'NONE', #183, .T. ) ;
#45 = DIMENSIONAL_EXPONENTS ( 1.000000000000000000, 0.0000000000000000000, 0.0000000000000000000, 0.0000000000000000000, 0.0000000000000000000, 0.0000000000000000000, 0.0000000000000000000 ) ;
#46 = ORIENTED_EDGE ( 'NONE', *, *, #20, .T. ) ;
#47 = EDGE_CURVE ( 'NONE', #205, #273, #112, .T. ) ;
#48 = VERTEX_POINT ( 'NONE', #39 ) ;
#49 = CARTESIAN_POINT ( 'NONE',  ( 9.651096503481483597E-17, 0.0000000000000000000, 0.7880718350957151008 ) ) ;
#50 = AXIS2_PLACEMENT_3D ( 'NONE', #216, #85, #14 ) ;
#51 = ORIENTED_EDGE ( 'NONE', *, *, #217, .F. ) ;
#52 = CARTESIAN_POINT ( 'NONE',  ( 0.0000000000000000000, 0.0000000000000000000, 3.922007999999998606 ) ) ;
#53 = APPLICATION_CONTEXT ( 'automotive_design' ) ;
#54 = AXIS2_PLACEMENT_3D ( 'NONE', #245, #107, #66 ) ;
#55 = DIRECTION ( 'NONE',  ( -1.000000000000000000, 0.0000000000000000000, 1.224646799147353454E-16 ) ) ;
#56 = DIRECTION ( 'NONE',  ( -1.000000000000000000, 0.0000000000000000000, 1.224646799147353454E-16 ) ) ;
#57 = DIRECTION ( 'NONE',  ( -0.0000000000000000000, -0.0000000000000000000, -1.000000000000000000 ) ) ;
#58 = EDGE_CURVE ( 'NONE', #273, #203, #243, .T. ) ;
#59 = ORIENTED_EDGE ( 'NONE', *, *, #40, .F. ) ;
#60 =( NAMED_UNIT ( * ) SI_UNIT ( $, .STERADIAN. ) SOLID_ANGLE_UNIT ( ) );
#61 = DIRECTION ( 'NONE',  ( 0.0000000000000000000, 0.0000000000000000000, -1.000000000000000000 ) ) ;
#62 = FILL_AREA_STYLE_COLOUR ( '', #186 ) ;
#63 = SURFACE_STYLE_FILL_AREA ( #261 ) ;
#64 = CARTESIAN_POINT ( 'NONE',  ( -0.1181100000000000066, 0.0000000000000000000, 3.922007999999998606 ) ) ;
#65 =( NAMED_UNIT ( * ) SI_UNIT ( $, .STERADIAN. ) SOLID_ANGLE_UNIT ( ) );
#66 = DIRECTION ( 'NONE',  ( -1.000000000000000000, 0.0000000000000000000, 0.0000000000000000000 ) ) ;
#67 = ORIENTED_EDGE ( 'NONE', *, *, #47, .F. ) ;
#68 =( CONVERSION_BASED_UNIT ( 'INCH', #89 ) LENGTH_UNIT ( ) NAMED_UNIT ( #267 ) );
#69 = VERTEX_POINT ( 'NONE', #130 ) ;
#70 = EDGE_CURVE ( 'NONE', #23, #229, #242, .T. ) ;
#71 = EDGE_LOOP ( 'NONE', ( #51, #227, #98, #67 ) ) ;
#72 = AXIS2_PLACEMENT_3D ( 'NONE', #220, #105, #174 ) ;
#73 = ORIENTED_EDGE ( 'NONE', *, *, #198, .F. ) ;
#74 = DIRECTION ( 'NONE',  ( -1.224646799147353207E-16, -0.0000000000000000000, -1.000000000000000000 ) ) ;
#75 = UNCERTAINTY_MEASURE_WITH_UNIT (LENGTH_MEASURE( 1.000000000000000082E-05 ), #28, 'distance_accuracy_value', 'NONE');
#76 = DIRECTION ( 'NONE',  ( 1.000000000000000000, 0.0000000000000000000, -0.0000000000000000000 ) ) ;
#77 = CARTESIAN_POINT ( 'NONE',  ( 9.642893389422242582E-17, 0.0000000000000000000, 0.7874019999999999353 ) ) ;
#78 = LENGTH_MEASURE_WITH_UNIT ( LENGTH_MEASURE( 0.02539999999999999897 ), #275 );
#79 = AXIS2_PLACEMENT_3D ( 'NONE', #49, #74, #163 ) ;
#80 = CARTESIAN_POINT ( 'NONE',  ( 0.1181100000000001177, 1.446430334472940317E-17, 0.7880718350957151008 ) ) ;
#81 = CYLINDRICAL_SURFACE ( 'NONE', #161, 0.1181100000000000066 ) ;
#82 = CARTESIAN_POINT ( 'NONE',  ( 0.1031099999999988970, 1.262733314600822335E-17, 3.937007999999999619 ) ) ;
#83 =( GEOMETRIC_REPRESENTATION_CONTEXT ( 3 ) GLOBAL_UNCERTAINTY_ASSIGNED_CONTEXT ( ( #75 ) ) GLOBAL_UNIT_ASSIGNED_CONTEXT ( ( #28, #165, #278 ) ) REPRESENTATION_CONTEXT ( 'NONE', 'WORKASPACE' ) );
#84 = STYLED_ITEM ( 'NONE', ( #131 ), #127 ) ;
#85 = DIRECTION ( 'NONE',  ( -1.224646799147353207E-16, -0.0000000000000000000, -1.000000000000000000 ) ) ;
#86 = DIRECTION ( 'NONE',  ( 1.000000000000000000, 0.0000000000000000000, 0.0000000000000000000 ) ) ;
#87 = CARTESIAN_POINT ( 'NONE',  ( 9.642893389422242582E-17, 0.0000000000000000000, 0.7874019999999999353 ) ) ;
#88 = PRESENTATION_LAYER_ASSIGNMENT (  '', '', ( #228 ) ) ;
#89 = LENGTH_MEASURE_WITH_UNIT ( LENGTH_MEASURE( 0.02539999999999999897 ), #164 );
#90 = EDGE_CURVE ( 'NONE', #93, #48, #111, .T. ) ;
#91 = EDGE_LOOP ( 'NONE', ( #134, #162, #114, #272 ) ) ;
#92 = EDGE_CURVE ( 'NONE', #205, #115, #222, .T. ) ;
#93 = VERTEX_POINT ( 'NONE', #265 ) ;
#94 = ORIENTED_EDGE ( 'NONE', *, *, #180, .F. ) ;
#95 = VECTOR ( 'NONE', #232, 39.37007874015748143 ) ;
#96 = ADVANCED_FACE ( 'NONE', ( #44 ), #138, .F. ) ;
#97 = FACE_OUTER_BOUND ( 'NONE', #271, .T. ) ;
#98 = ORIENTED_EDGE ( 'NONE', *, *, #198, .T. ) ;
#99 = DIRECTION ( 'NONE',  ( 1.000000000000000000, 0.0000000000000000000, 0.0000000000000000000 ) ) ;
#100 = CARTESIAN_POINT ( 'NONE',  ( -0.1181099999999999095, 0.0000000000000000000, 0.7880718350957151008 ) ) ;
#101 = CONICAL_SURFACE ( 'NONE', #169, 0.1179918899999999882, 0.1745329251994339192 ) ;
#102 = DIRECTION ( 'NONE',  ( 0.0000000000000000000, 0.0000000000000000000, -1.000000000000000000 ) ) ;
#103 = DIRECTION ( 'NONE',  ( -1.000000000000000000, 0.0000000000000000000, 0.0000000000000000000 ) ) ;
#104 = AXIS2_PLACEMENT_3D ( 'NONE', #87, #38, #240 ) ;
#105 = DIRECTION ( 'NONE',  ( 0.0000000000000000000, 0.0000000000000000000, 1.000000000000000000 ) ) ;
#106 = DIRECTION ( 'NONE',  ( 0.0000000000000000000, 0.0000000000000000000, 1.000000000000000000 ) ) ;
#107 = DIRECTION ( 'NONE',  ( -1.224646799147353207E-16, -0.0000000000000000000, -1.000000000000000000 ) ) ;
#108 = VERTEX_POINT ( 'NONE', #31 ) ;
#109 = DIRECTION ( 'NONE',  ( 0.0000000000000000000, 0.0000000000000000000, 1.000000000000000000 ) ) ;
#110 = ADVANCED_FACE ( 'NONE', ( #280 ), #257, .T. ) ;
#111 = CIRCLE ( 'NONE', #72, 0.1031099999999988970 ) ;
#112 = CIRCLE ( 'NONE', #170, 0.1181100000000000066 ) ;
#113 =( GEOMETRIC_REPRESENTATION_CONTEXT ( 3 ) GLOBAL_UNCERTAINTY_ASSIGNED_CONTEXT ( ( #3 ) ) GLOBAL_UNIT_ASSIGNED_CONTEXT ( ( #287, #196, #60 ) ) REPRESENTATION_CONTEXT ( 'NONE', 'WORKASPACE' ) );
#114 = ORIENTED_EDGE ( 'NONE', *, *, #40, .T. ) ;
#115 = VERTEX_POINT ( 'NONE', #80 ) ;
#116 = VECTOR ( 'NONE', #209, 39.37007874015748143 ) ;
#117 = CARTESIAN_POINT ( 'NONE',  ( 0.1179918899999999882, 1.444983904138465938E-17, -1.444983904138465938E-17 ) ) ;
#118 = LINE ( 'NONE', #211, #274 ) ;
#119 = ORIENTED_EDGE ( 'NONE', *, *, #58, .F. ) ;
#120 = DIRECTION ( 'NONE',  ( 0.0000000000000000000, 0.0000000000000000000, 1.000000000000000000 ) ) ;
#121 = ADVANCED_FACE ( 'NONE', ( #97 ), #81, .T. ) ;
#122 = FACE_OUTER_BOUND ( 'NONE', #204, .T. ) ;
#123 = AXIS2_PLACEMENT_3D ( 'NONE', #250, #109, #76 ) ;
#124 = FACE_OUTER_BOUND ( 'NONE', #295, .T. ) ;
#125 = CYLINDRICAL_SURFACE ( 'NONE', #292, 0.1179918899999999882 ) ;
#126 = FACE_OUTER_BOUND ( 'NONE', #91, .T. ) ;
#127 = ADVANCED_BREP_SHAPE_REPRESENTATION ( 'Micro_SFAM-060100', ( #178, #153 ), #113 ) ;
#128 = LINE ( 'NONE', #82, #269 ) ;
#129 = VECTOR ( 'NONE', #215, 39.37007874015748143 ) ;
#130 = CARTESIAN_POINT ( 'NONE',  ( 0.1179918899999999882, 1.444983904138465938E-17, 0.0000000000000000000 ) ) ;
#131 = PRESENTATION_STYLE_ASSIGNMENT (( #37 ) ) ;
#132 = ADVANCED_FACE ( 'NONE', ( #236 ), #19, .T. ) ;
#133 = AXIS2_PLACEMENT_3D ( 'NONE', #239, #152, #103 ) ;
#134 = ORIENTED_EDGE ( 'NONE', *, *, #70, .F. ) ;
#135 = ORIENTED_EDGE ( 'NONE', *, *, #264, .F. ) ;
#136 = ORIENTED_EDGE ( 'NONE', *, *, #173, .F. ) ;
#137 = ORIENTED_EDGE ( 'NONE', *, *, #148, .T. ) ;
#138 = PLANE ( 'NONE',  #123 ) ;
#139 = DIMENSIONAL_EXPONENTS ( 1.000000000000000000, 0.0000000000000000000, 0.0000000000000000000, 0.0000000000000000000, 0.0000000000000000000, 0.0000000000000000000, 0.0000000000000000000 ) ;
#140 = ORIENTED_EDGE ( 'NONE', *, *, #281, .T. ) ;
#141 = ORIENTED_EDGE ( 'NONE', *, *, #2, .T. ) ;
#142 = CARTESIAN_POINT ( 'NONE',  ( 0.0000000000000000000, 0.0000000000000000000, 3.922007999999998606 ) ) ;
#143 = DIRECTION ( 'NONE',  ( 0.0000000000000000000, 0.0000000000000000000, -1.000000000000000000 ) ) ;
#144 = AXIS2_PLACEMENT_3D ( 'NONE', #18, #16, #33 ) ;
#145 = DIRECTION ( 'NONE',  ( -1.000000000000000000, 0.0000000000000000000, 0.0000000000000000000 ) ) ;
#146 = CLOSED_SHELL ( 'NONE', ( #36, #260, #132, #121, #231, #206, #276, #9, #110, #96 ) ) ;
#147 = FILL_AREA_STYLE ('',( #29 ) ) ;
#148 = EDGE_CURVE ( 'NONE', #48, #93, #214, .T. ) ;
#149 = DIRECTION ( 'NONE',  ( 1.224646799147353207E-16, 0.0000000000000000000, 1.000000000000000000 ) ) ;
#150 = CARTESIAN_POINT ( 'NONE',  ( 0.0000000000000000000, 0.0000000000000000000, 3.937007999999999619 ) ) ;
#151 = PRODUCT_DEFINITION_CONTEXT ( 'detailed design', #53, 'design' ) ;
#152 = DIRECTION ( 'NONE',  ( -0.0000000000000000000, -0.0000000000000000000, -1.000000000000000000 ) ) ;
#153 = AXIS2_PLACEMENT_3D ( 'NONE', #158, #279, #179 ) ;
#154 = SURFACE_SIDE_STYLE ('',( #63 ) ) ;
#155 = CARTESIAN_POINT ( 'NONE',  ( -0.1179918899999999882, 0.0000000000000000000, 1.444983904138465938E-17 ) ) ;
#156 = PRODUCT_RELATED_PRODUCT_CATEGORY ( 'part', '', ( #268 ) ) ;
#157 = ORIENTED_EDGE ( 'NONE', *, *, #70, .T. ) ;
#158 = CARTESIAN_POINT ( 'NONE',  ( 0.0000000000000000000, 0.0000000000000000000, 0.0000000000000000000 ) ) ;
#159 = ORIENTED_EDGE ( 'NONE', *, *, #226, .T. ) ;
#160 = DIRECTION ( 'NONE',  ( -1.000000000000000000, 0.0000000000000000000, 1.224646799147353454E-16 ) ) ;
#161 = AXIS2_PLACEMENT_3D ( 'NONE', #168, #57, #145 ) ;
#162 = ORIENTED_EDGE ( 'NONE', *, *, #173, .T. ) ;
#163 = DIRECTION ( 'NONE',  ( 1.000000000000000000, 0.0000000000000000000, 0.0000000000000000000 ) ) ;
#164 =( LENGTH_UNIT ( ) NAMED_UNIT ( * ) SI_UNIT ( $, .METRE. ) );
#165 =( NAMED_UNIT ( * ) PLANE_ANGLE_UNIT ( ) SI_UNIT ( $, .RADIAN. ) );
#166 = ORIENTED_EDGE ( 'NONE', *, *, #148, .F. ) ;
#167 = CARTESIAN_POINT ( 'NONE',  ( 0.0000000000000000000, 0.0000000000000000000, 3.937007999999999619 ) ) ;
#168 = CARTESIAN_POINT ( 'NONE',  ( 0.0000000000000000000, 0.0000000000000000000, 3.937007999999999619 ) ) ;
#169 = AXIS2_PLACEMENT_3D ( 'NONE', #77, #149, #32 ) ;
#170 = AXIS2_PLACEMENT_3D ( 'NONE', #142, #61, #86 ) ;
#171 = CIRCLE ( 'NONE', #50, 0.1179918899999999882 ) ;
#172 = LENGTH_MEASURE_WITH_UNIT ( LENGTH_MEASURE( 0.02539999999999999897 ), #258 );
#173 = EDGE_CURVE ( 'NONE', #23, #203, #185, .T. ) ;
#174 = DIRECTION ( 'NONE',  ( 1.000000000000000000, 0.0000000000000000000, 0.0000000000000000000 ) ) ;
#175 = VECTOR ( 'NONE', #235, 39.37007874015747433 ) ;
#176 = FACE_OUTER_BOUND ( 'NONE', #277, .T. ) ;
#177 = DIRECTION ( 'NONE',  ( -0.0000000000000000000, -0.0000000000000000000, -1.000000000000000000 ) ) ;
#178 = MANIFOLD_SOLID_BREP ( 'Cut-Revolve1', #146 ) ;
#179 = DIRECTION ( 'NONE',  ( 1.000000000000000000, 0.0000000000000000000, 0.0000000000000000000 ) ) ;
#180 = EDGE_CURVE ( 'NONE', #273, #205, #254, .T. ) ;
#181 = PRESENTATION_LAYER_ASSIGNMENT (  '', '', ( #84 ) ) ;
#182 = EDGE_LOOP ( 'NONE', ( #166, #4, #94, #73 ) ) ;
#183 = EDGE_LOOP ( 'NONE', ( #46, #25 ) ) ;
#184 = ORIENTED_EDGE ( 'NONE', *, *, #248, .T. ) ;
#185 = LINE ( 'NONE', #212, #175 ) ;
#186 = COLOUR_RGB ( '',0.7921568627450980005, 0.8196078431372548767, 0.9333333333333333481 ) ;
#187 = DIRECTION ( 'NONE',  ( -1.000000000000000000, 0.0000000000000000000, 0.0000000000000000000 ) ) ;
#188 = DIRECTION ( 'NONE',  ( -1.224646799147353207E-16, -0.0000000000000000000, -1.000000000000000000 ) ) ;
#189 = DIRECTION ( 'NONE',  ( -1.224646799147353207E-16, -0.0000000000000000000, -1.000000000000000000 ) ) ;
#190 = AXIS2_PLACEMENT_3D ( 'NONE', #256, #189, #55 ) ;
#191 = CIRCLE ( 'NONE', #104, 0.1179918899999999882 ) ;
#192 = ORIENTED_EDGE ( 'NONE', *, *, #7, .F. ) ;
#193 = SURFACE_SIDE_STYLE ('',( #26 ) ) ;
#194 = PRODUCT_DEFINITION ( 'UNKNOWN', '', #270, #151 ) ;
#195 = DIRECTION ( 'NONE',  ( -1.224646799147353207E-16, -0.0000000000000000000, -1.000000000000000000 ) ) ;
#196 =( NAMED_UNIT ( * ) PLANE_ANGLE_UNIT ( ) SI_UNIT ( $, .RADIAN. ) );
#197 = CARTESIAN_POINT ( 'NONE',  ( 9.642893389422242582E-17, 0.0000000000000000000, 0.7874019999999999353 ) ) ;
#198 = EDGE_CURVE ( 'NONE', #93, #273, #118, .T. ) ;
#199 = DIRECTION ( 'NONE',  ( 0.0000000000000000000, 0.0000000000000000000, -1.000000000000000000 ) ) ;
#200 = DIRECTION ( 'NONE',  ( -1.000000000000000000, 0.0000000000000000000, 0.0000000000000000000 ) ) ;
#201 = AXIS2_PLACEMENT_3D ( 'NONE', #167, #120, #99 ) ;
#202 =( NAMED_UNIT ( * ) PLANE_ANGLE_UNIT ( ) SI_UNIT ( $, .RADIAN. ) );
#203 = VERTEX_POINT ( 'NONE', #100 ) ;
#204 = EDGE_LOOP ( 'NONE', ( #136, #247, #141, #184 ) ) ;
#205 = VERTEX_POINT ( 'NONE', #10 ) ;
#206 = ADVANCED_FACE ( 'NONE', ( #176 ), #244, .T. ) ;
#207 = AXIS2_PLACEMENT_3D ( 'NONE', #5, #102, #187 ) ;
#208 = CONICAL_SURFACE ( 'NONE', #289, 0.1179918899999999882, 0.1745329251994339192 ) ;
#209 = DIRECTION ( 'NONE',  ( -1.224646799147353207E-16, -0.0000000000000000000, -1.000000000000000000 ) ) ;
#210 = APPLICATION_PROTOCOL_DEFINITION ( 'draft international standard', 'automotive_design', 1998, #53 ) ;
#211 = CARTESIAN_POINT ( 'NONE',  ( -0.1031099999999988970, 0.0000000000000000000, 3.937007999999999619 ) ) ;
#212 = CARTESIAN_POINT ( 'NONE',  ( -0.1179918899999998910, 1.444983904138465938E-17, 0.7874019999999999353 ) ) ;
#213 = CARTESIAN_POINT ( 'NONE',  ( 1.769594913022618037E-33, 0.0000000000000000000, 1.444983904138465938E-17 ) ) ;
#214 = CIRCLE ( 'NONE', #201, 0.1031099999999988970 ) ;
#215 = DIRECTION ( 'NONE',  ( -1.224646799147353207E-16, -0.0000000000000000000, -1.000000000000000000 ) ) ;
#216 = CARTESIAN_POINT ( 'NONE',  ( 1.769594913022618037E-33, 0.0000000000000000000, 1.444983904138465938E-17 ) ) ;
#217 = EDGE_CURVE ( 'NONE', #48, #205, #128, .T. ) ;
#218 = AXIS2_PLACEMENT_3D ( 'NONE', #35, #199, #200 ) ;
#219 = APPLICATION_PROTOCOL_DEFINITION ( 'draft international standard', 'automotive_design', 1998, #13 ) ;
#220 = CARTESIAN_POINT ( 'NONE',  ( 0.0000000000000000000, 0.0000000000000000000, 3.937007999999999619 ) ) ;
#221 = DIRECTION ( 'NONE',  ( 1.224646799147353207E-16, 0.0000000000000000000, 1.000000000000000000 ) ) ;
#222 = LINE ( 'NONE', #293, #282 ) ;
#223 = ORIENTED_EDGE ( 'NONE', *, *, #20, .F. ) ;
#224 = ORIENTED_EDGE ( 'NONE', *, *, #92, .F. ) ;
#225 = UNCERTAINTY_MEASURE_WITH_UNIT (LENGTH_MEASURE( 1.000000000000000082E-05 ), #68, 'distance_accuracy_value', 'NONE');
#226 = EDGE_CURVE ( 'NONE', #23, #108, #17, .T. ) ;
#227 = ORIENTED_EDGE ( 'NONE', *, *, #90, .F. ) ;
#228 = STYLED_ITEM ( 'NONE', ( #27 ), #178 ) ;
#229 = VERTEX_POINT ( 'NONE', #241 ) ;
#230 = ORIENTED_EDGE ( 'NONE', *, *, #7, .T. ) ;
#231 = ADVANCED_FACE ( 'NONE', ( #34 ), #291, .T. ) ;
#232 = DIRECTION ( 'NONE',  ( 0.1736481776669314137, 0.0000000000000000000, 0.9848077530122077983 ) ) ;
#233 = DIRECTION ( 'NONE',  ( 1.000000000000000000, 0.0000000000000000000, 0.0000000000000000000 ) ) ;
#234 = MECHANICAL_DESIGN_GEOMETRIC_PRESENTATION_REPRESENTATION (  '', ( #84 ), #238 ) ;
#235 = DIRECTION ( 'NONE',  ( -0.1736481776669312194, 2.126576849575783625E-17, 0.9848077530122080203 ) ) ;
#236 = FACE_OUTER_BOUND ( 'NONE', #182, .T. ) ;
#237 = MECHANICAL_DESIGN_GEOMETRIC_PRESENTATION_REPRESENTATION (  '', ( #228 ), #83 ) ;
#238 =( GEOMETRIC_REPRESENTATION_CONTEXT ( 3 ) GLOBAL_UNCERTAINTY_ASSIGNED_CONTEXT ( ( #225 ) ) GLOBAL_UNIT_ASSIGNED_CONTEXT ( ( #68, #202, #65 ) ) REPRESENTATION_CONTEXT ( 'NONE', 'WORKASPACE' ) );
#239 = CARTESIAN_POINT ( 'NONE',  ( 0.0000000000000000000, 0.0000000000000000000, 3.937007999999999619 ) ) ;
#240 = DIRECTION ( 'NONE',  ( -1.000000000000000000, 0.0000000000000000000, 0.0000000000000000000 ) ) ;
#241 = CARTESIAN_POINT ( 'NONE',  ( 0.1179918900000000992, 0.0000000000000000000, 0.7874019999999999353 ) ) ;
#242 = CIRCLE ( 'NONE', #54, 0.1179918899999999882 ) ;
#243 = LINE ( 'NONE', #294, #41 ) ;
#244 = PLANE ( 'NONE',  #298 ) ;
#245 = CARTESIAN_POINT ( 'NONE',  ( 9.642893389422242582E-17, 0.0000000000000000000, 0.7874019999999999353 ) ) ;
#246 = DIRECTION ( 'NONE',  ( 1.000000000000000000, 0.0000000000000000000, 0.0000000000000000000 ) ) ;
#247 = ORIENTED_EDGE ( 'NONE', *, *, #281, .F. ) ;
#248 = EDGE_CURVE ( 'NONE', #115, #203, #259, .T. ) ;
#249 = ORIENTED_EDGE ( 'NONE', *, *, #58, .T. ) ;
#250 = CARTESIAN_POINT ( 'NONE',  ( 0.0000000000000000000, 0.0000000000000000000, 0.0000000000000000000 ) ) ;
#251 = CIRCLE ( 'NONE', #15, 0.1179918899999999882 ) ;
#252 = ORIENTED_EDGE ( 'NONE', *, *, #180, .T. ) ;
#253 = CARTESIAN_POINT ( 'NONE',  ( 0.1179918900000000992, 0.0000000000000000000, 0.7874019999999999353 ) ) ;
#254 = CIRCLE ( 'NONE', #8, 0.1181100000000000066 ) ;
#255 = CARTESIAN_POINT ( 'NONE',  ( -0.1179918899999998910, 1.445707119305702357E-17, 0.7874019999999999353 ) ) ;
#256 = CARTESIAN_POINT ( 'NONE',  ( 0.0000000000000000000, 0.0000000000000000000, 0.0000000000000000000 ) ) ;
#257 = CYLINDRICAL_SURFACE ( 'NONE', #190, 0.1179918899999999882 ) ;
#258 =( LENGTH_UNIT ( ) NAMED_UNIT ( * ) SI_UNIT ( $, .METRE. ) );
#259 = CIRCLE ( 'NONE', #144, 0.1181100000000000066 ) ;
#260 = ADVANCED_FACE ( 'NONE', ( #126 ), #208, .T. ) ;
#261 = FILL_AREA_STYLE ('',( #62 ) ) ;
#262 = COLOUR_RGB ( '',0.7921568627450980005, 0.8196078431372548767, 0.9333333333333333481 ) ;
#263 = DIRECTION ( 'NONE',  ( 0.7071067811865422437, 8.659560562354868763E-17, -0.7071067811865527908 ) ) ;
#264 = EDGE_CURVE ( 'NONE', #69, #108, #171, .T. ) ;
#265 = CARTESIAN_POINT ( 'NONE',  ( -0.1031099999999988970, 0.0000000000000000000, 3.937007999999999619 ) ) ;
#266 = DIRECTION ( 'NONE',  ( -0.0000000000000000000, -0.0000000000000000000, -1.000000000000000000 ) ) ;
#267 = DIMENSIONAL_EXPONENTS ( 1.000000000000000000, 0.0000000000000000000, 0.0000000000000000000, 0.0000000000000000000, 0.0000000000000000000, 0.0000000000000000000, 0.0000000000000000000 ) ;
#268 = PRODUCT ( 'Micro_SFAM-060100', 'Micro_SFAM-060100', '', ( #296 ) ) ;
#269 = VECTOR ( 'NONE', #263, 39.37007874015748143 ) ;
#270 = PRODUCT_DEFINITION_FORMATION_WITH_SPECIFIED_SOURCE ( 'ANY', '', #268, .NOT_KNOWN. ) ;
#271 = EDGE_LOOP ( 'NONE', ( #252, #43, #59, #119 ) ) ;
#272 = ORIENTED_EDGE ( 'NONE', *, *, #2, .F. ) ;
#273 = VERTEX_POINT ( 'NONE', #64 ) ;
#274 = VECTOR ( 'NONE', #6, 39.37007874015748143 ) ;
#275 =( LENGTH_UNIT ( ) NAMED_UNIT ( * ) SI_UNIT ( $, .METRE. ) );
#276 = ADVANCED_FACE ( 'NONE', ( #290 ), #283, .T. ) ;
#277 = EDGE_LOOP ( 'NONE', ( #11, #137 ) ) ;
#278 =( NAMED_UNIT ( * ) SI_UNIT ( $, .STERADIAN. ) SOLID_ANGLE_UNIT ( ) );
#279 = DIRECTION ( 'NONE',  ( 0.0000000000000000000, 0.0000000000000000000, 1.000000000000000000 ) ) ;
#280 = FACE_OUTER_BOUND ( 'NONE', #42, .T. ) ;
#281 = EDGE_CURVE ( 'NONE', #229, #23, #191, .T. ) ;
#282 = VECTOR ( 'NONE', #177, 39.37007874015748143 ) ;
#283 = CONICAL_SURFACE ( 'NONE', #218, 0.1031099999999988970, 0.7853981633974408405 ) ;
#284 = LINE ( 'NONE', #253, #95 ) ;
#285 = SURFACE_STYLE_USAGE ( .BOTH. , #193 ) ;
#286 = DIRECTION ( 'NONE',  ( 1.000000000000000000, 0.0000000000000000000, -0.0000000000000000000 ) ) ;
#287 =( CONVERSION_BASED_UNIT ( 'INCH', #172 ) LENGTH_UNIT ( ) NAMED_UNIT ( #45 ) );
#288 = CIRCLE ( 'NONE', #79, 0.1181100000000000066 ) ;
#289 = AXIS2_PLACEMENT_3D ( 'NONE', #197, #221, #246 ) ;
#290 = FACE_OUTER_BOUND ( 'NONE', #71, .T. ) ;
#291 = CYLINDRICAL_SURFACE ( 'NONE', #133, 0.1181100000000000066 ) ;
#292 = AXIS2_PLACEMENT_3D ( 'NONE', #12, #195, #160 ) ;
#293 = CARTESIAN_POINT ( 'NONE',  ( 0.1181100000000000066, 1.446430334472939084E-17, 3.937007999999999619 ) ) ;
#294 = CARTESIAN_POINT ( 'NONE',  ( -0.1181100000000000066, 0.0000000000000000000, 3.937007999999999619 ) ) ;
#295 = EDGE_LOOP ( 'NONE', ( #157, #230, #223, #22 ) ) ;
#296 = PRODUCT_CONTEXT ( 'NONE', #13, 'mechanical' ) ;
#297 = ORIENTED_EDGE ( 'NONE', *, *, #248, .F. ) ;
#298 = AXIS2_PLACEMENT_3D ( 'NONE', #150, #106, #286 ) ;
#299 = SHAPE_DEFINITION_REPRESENTATION ( #24, #127 ) ;
ENDSEC;
END-ISO-10303-21;
