ISO-10303-21;
HEADER;
FILE_DESCRIPTION (( 'STEP AP214' ),
    '1' );
FILE_NAME ('06393.STEP',
    '2023-07-05T16:02:26',
    ( '' ),
    ( '' ),
    'SwSTEP 2.0',
    'SolidWorks 2023',
    '' );
FILE_SCHEMA (( 'AUTOMOTIVE_DESIGN' ));
ENDSEC;

DATA;
#1 = DIRECTION ( 'NONE',  ( -1.513561308394753449E-16, 1.000000000000000000, -0.000000000000000000 ) ) ;
#2 = VERTEX_POINT ( 'NONE', #18 ) ;
#3 = UNCERTAINTY_MEASURE_WITH_UNIT (LENGTH_MEASURE( 1.000000000000000082E-05 ), #132, 'distance_accuracy_value', 'NONE');
#4 = PLANE ( 'NONE',  #17 ) ;
#5 = ORIENTED_EDGE ( 'NONE', *, *, #117, .F. ) ;
#6 = FILL_AREA_STYLE_COLOUR ( '', #256 ) ;
#7 = PRESENTATION_LAYER_ASSIGNMENT (  '', '', ( #47 ) ) ;
#8 = FILL_AREA_STYLE_COLOUR ( '', #35 ) ;
#9 = ORIENTED_EDGE ( 'NONE', *, *, #68, .T. ) ;
#10 = ADVANCED_FACE ( 'NONE', ( #106 ), #202, .F. ) ;
#11 = CYLINDRICAL_SURFACE ( 'NONE', #166, 0.3749999999999998335 ) ;
#12 = PRESENTATION_STYLE_ASSIGNMENT (( #255 ) ) ;
#13 = AXIS2_PLACEMENT_3D ( 'NONE', #252, #253, #113 ) ;
#14 = DIRECTION ( 'NONE',  ( -0.000000000000000000, -1.000000000000000000, -0.000000000000000000 ) ) ;
#15 = AXIS2_PLACEMENT_3D ( 'NONE', #103, #183, #87 ) ;
#16 = EDGE_CURVE ( 'NONE', #124, #2, #75, .T. ) ;
#17 = AXIS2_PLACEMENT_3D ( 'NONE', #141, #133, #50 ) ;
#18 = CARTESIAN_POINT ( 'NONE',  ( -0.3749999999999993894, 0.6495190528383271156, 0.000000000000000000 ) ) ;
#19 = APPLICATION_CONTEXT ( 'automotive_design' ) ;
#20 = SURFACE_SIDE_STYLE ('',( #200 ) ) ;
#21 = CARTESIAN_POINT ( 'NONE',  ( 2.945273618169283567E-16, 0.6495190528383271156, 0.000000000000000000 ) ) ;
#22 = ORIENTED_EDGE ( 'NONE', *, *, #234, .F. ) ;
#23 = ORIENTED_EDGE ( 'NONE', *, *, #128, .T. ) ;
#24 = DIRECTION ( 'NONE',  ( -1.513561308394753449E-16, 1.000000000000000000, -0.000000000000000000 ) ) ;
#25 = DIMENSIONAL_EXPONENTS ( 1.000000000000000000, 0.000000000000000000, 0.000000000000000000, 0.000000000000000000, 0.000000000000000000, 0.000000000000000000, 0.000000000000000000 ) ;
#26 = FACE_OUTER_BOUND ( 'NONE', #204, .T. ) ;
#27 = MANIFOLD_SOLID_BREP ( 'Revolve - Cutting Edge', #60 ) ;
#28 = ORIENTED_EDGE ( 'NONE', *, *, #84, .T. ) ;
#29 = CYLINDRICAL_SURFACE ( 'NONE', #96, 0.3749999999999998335 ) ;
#30 = VECTOR ( 'NONE', #1, 39.37007874015748143 ) ;
#31 = APPLICATION_CONTEXT ( 'automotive_design' ) ;
#32 = CARTESIAN_POINT ( 'NONE',  ( 2.945273618169283567E-16, 0.6495190528383271156, 0.000000000000000000 ) ) ;
#33 = MANIFOLD_SOLID_BREP ( 'Revolve - Tool Body (Pointed)', #152 ) ;
#34 = CARTESIAN_POINT ( 'NONE',  ( 0.000000000000000000, 39.37007874015748143, 0.000000000000000000 ) ) ;
#35 = COLOUR_RGB ( '',1.000000000000000000, 0.000000000000000000, 0.000000000000000000 ) ;
#36 = ADVANCED_FACE ( 'NONE', ( #26 ), #4, .F. ) ;
#37 = FILL_AREA_STYLE_COLOUR ( '', #259 ) ;
#38 =( LENGTH_UNIT ( ) NAMED_UNIT ( * ) SI_UNIT ( $, .METRE. ) );
#39 = AXIS2_PLACEMENT_3D ( 'NONE', #34, #175, #139 ) ;
#40 = CARTESIAN_POINT ( 'NONE',  ( 0.000000000000000000, 0.000000000000000000, 0.000000000000000000 ) ) ;
#41 = FILL_AREA_STYLE_COLOUR ( '', #224 ) ;
#42 = MECHANICAL_DESIGN_GEOMETRIC_PRESENTATION_REPRESENTATION (  '', ( #98 ), #198 ) ;
#43 = ORIENTED_EDGE ( 'NONE', *, *, #68, .F. ) ;
#44 = UNCERTAINTY_MEASURE_WITH_UNIT (LENGTH_MEASURE( 1.000000000000000082E-05 ), #145, 'distance_accuracy_value', 'NONE');
#45 = ORIENTED_EDGE ( 'NONE', *, *, #112, .T. ) ;
#46 = VERTEX_POINT ( 'NONE', #109 ) ;
#47 = STYLED_ITEM ( 'NONE', ( #12 ), #182 ) ;
#48 = ADVANCED_FACE ( 'NONE', ( #150 ), #108, .T. ) ;
#49 = CARTESIAN_POINT ( 'NONE',  ( -6.123233995736772199E-17, 3.000000000000000444, 0.000000000000000000 ) ) ;
#50 = DIRECTION ( 'NONE',  ( -1.000000000000000000, -1.513561308394753449E-16, 0.000000000000000000 ) ) ;
#51 = CIRCLE ( 'NONE', #13, 0.3750000000000000555 ) ;
#52 = LENGTH_MEASURE_WITH_UNIT ( LENGTH_MEASURE( 0.02539999999999999897 ), #70 );
#53 = CARTESIAN_POINT ( 'NONE',  ( 0.000000000000000000, 0.6495190528383271156, 0.000000000000000000 ) ) ;
#54 = CARTESIAN_POINT ( 'NONE',  ( 4.592425496802573602E-17, 0.6495190528383271156, -0.3749999999999999445 ) ) ;
#55 = COLOUR_RGB ( '',1.000000000000000000, 0.000000000000000000, 0.000000000000000000 ) ;
#56 = SURFACE_STYLE_FILL_AREA ( #216 ) ;
#57 = ADVANCED_FACE ( 'NONE', ( #210 ), #29, .T. ) ;
#58 =( NAMED_UNIT ( * ) PLANE_ANGLE_UNIT ( ) SI_UNIT ( $, .RADIAN. ) );
#59 =( NAMED_UNIT ( * ) SI_UNIT ( $, .STERADIAN. ) SOLID_ANGLE_UNIT ( ) );
#60 = CLOSED_SHELL ( 'NONE', ( #182, #79, #48 ) ) ;
#61 = ORIENTED_EDGE ( 'NONE', *, *, #72, .F. ) ;
#62 = VERTEX_POINT ( 'NONE', #67 ) ;
#63 = ADVANCED_FACE ( 'NONE', ( #191 ), #11, .T. ) ;
#64 = UNCERTAINTY_MEASURE_WITH_UNIT (LENGTH_MEASURE( 1.000000000000000082E-05 ), #168, 'distance_accuracy_value', 'NONE');
#65 = EDGE_LOOP ( 'NONE', ( #228, #243, #43, #205 ) ) ;
#66 =( GEOMETRIC_REPRESENTATION_CONTEXT ( 3 ) GLOBAL_UNCERTAINTY_ASSIGNED_CONTEXT ( ( #3 ) ) GLOBAL_UNIT_ASSIGNED_CONTEXT ( ( #132, #208, #73 ) ) REPRESENTATION_CONTEXT ( 'NONE', 'WORKASPACE' ) );
#67 = CARTESIAN_POINT ( 'NONE',  ( 0.000000000000000000, 0.6495190528383271156, 0.3749999999999999445 ) ) ;
#68 = EDGE_CURVE ( 'NONE', #46, #165, #51, .T. ) ;
#69 = AXIS2_PLACEMENT_3D ( 'NONE', #32, #136, #192 ) ;
#70 =( LENGTH_UNIT ( ) NAMED_UNIT ( * ) SI_UNIT ( $, .METRE. ) );
#71 = LENGTH_MEASURE_WITH_UNIT ( LENGTH_MEASURE( 0.02539999999999999897 ), #207 );
#72 = EDGE_CURVE ( 'NONE', #264, #90, #147, .T. ) ;
#73 =( NAMED_UNIT ( * ) SI_UNIT ( $, .STERADIAN. ) SOLID_ANGLE_UNIT ( ) );
#74 =( GEOMETRIC_REPRESENTATION_CONTEXT ( 3 ) GLOBAL_UNCERTAINTY_ASSIGNED_CONTEXT ( ( #105 ) ) GLOBAL_UNIT_ASSIGNED_CONTEXT ( ( #212, #172, #151 ) ) REPRESENTATION_CONTEXT ( 'NONE', 'WORKASPACE' ) );
#75 = CIRCLE ( 'NONE', #237, 0.3749999999999996669 ) ;
#76 = CARTESIAN_POINT ( 'NONE',  ( 0.000000000000000000, 0.6495190528383271156, 0.000000000000000000 ) ) ;
#77 = CARTESIAN_POINT ( 'NONE',  ( 0.000000000000000000, 0.000000000000000000, 0.000000000000000000 ) ) ;
#78 = PRESENTATION_STYLE_ASSIGNMENT (( #154 ) ) ;
#79 = ADVANCED_FACE ( 'NONE', ( #149 ), #129, .T. ) ;
#80 = SURFACE_STYLE_FILL_AREA ( #142 ) ;
#81 = PRESENTATION_STYLE_ASSIGNMENT (( #176 ) ) ;
#82 = UNCERTAINTY_MEASURE_WITH_UNIT (LENGTH_MEASURE( 1.000000000000000082E-05 ), #83, 'distance_accuracy_value', 'NONE');
#83 =( CONVERSION_BASED_UNIT ( 'INCH', #201 ) LENGTH_UNIT ( ) NAMED_UNIT ( #247 ) );
#84 = EDGE_CURVE ( 'NONE', #165, #46, #197, .T. ) ;
#85 = CARTESIAN_POINT ( 'NONE',  ( 0.000000000000000000, 0.6495190528383271156, 0.000000000000000000 ) ) ;
#86 =( LENGTH_UNIT ( ) NAMED_UNIT ( * ) SI_UNIT ( $, .METRE. ) );
#87 = DIRECTION ( 'NONE',  ( 1.000000000000000000, 1.513561308394753449E-16, 0.000000000000000000 ) ) ;
#88 = AXIS2_PLACEMENT_3D ( 'NONE', #53, #194, #95 ) ;
#89 = SURFACE_STYLE_USAGE ( .BOTH. , #251 ) ;
#90 = VERTEX_POINT ( 'NONE', #54 ) ;
#91 = DIMENSIONAL_EXPONENTS ( 1.000000000000000000, 0.000000000000000000, 0.000000000000000000, 0.000000000000000000, 0.000000000000000000, 0.000000000000000000, 0.000000000000000000 ) ;
#92 = PRESENTATION_LAYER_ASSIGNMENT (  '', '', ( #178 ) ) ;
#93 = DIRECTION ( 'NONE',  ( -1.000000000000000000, 0.000000000000000000, 0.000000000000000000 ) ) ;
#94 = DIRECTION ( 'NONE',  ( 0.000000000000000000, 0.000000000000000000, 1.000000000000000000 ) ) ;
#95 = DIRECTION ( 'NONE',  ( 0.000000000000000000, -0.000000000000000000, 1.000000000000000000 ) ) ;
#96 = AXIS2_PLACEMENT_3D ( 'NONE', #211, #111, #188 ) ;
#97 = SURFACE_SIDE_STYLE ('',( #217 ) ) ;
#98 = STYLED_ITEM ( 'NONE', ( #249 ), #27 ) ;
#99 = DIRECTION ( 'NONE',  ( -1.513561308394753449E-16, 1.000000000000000000, -0.000000000000000000 ) ) ;
#100 =( NAMED_UNIT ( * ) SI_UNIT ( $, .STERADIAN. ) SOLID_ANGLE_UNIT ( ) );
#101 = DIRECTION ( 'NONE',  ( -1.513561308394753449E-16, 1.000000000000000000, -0.000000000000000000 ) ) ;
#102 = SHAPE_DEFINITION_REPRESENTATION ( #232, #220 ) ;
#103 = CARTESIAN_POINT ( 'NONE',  ( 0.3749999999999999445, 3.000000000000000444, 0.000000000000000000 ) ) ;
#104 = EDGE_LOOP ( 'NONE', ( #244, #163, #23 ) ) ;
#105 = UNCERTAINTY_MEASURE_WITH_UNIT (LENGTH_MEASURE( 1.000000000000000082E-05 ), #212, 'distance_accuracy_value', 'NONE');
#106 = FACE_OUTER_BOUND ( 'NONE', #143, .T. ) ;
#107 = EDGE_LOOP ( 'NONE', ( #22, #263, #45, #181 ) ) ;
#108 = CONICAL_SURFACE ( 'NONE', #190, 22.73032555864674364, 0.5235987755983000369 ) ;
#109 = CARTESIAN_POINT ( 'NONE',  ( -0.3750000000000001110, 3.000000000000000444, 0.000000000000000000 ) ) ;
#110 = ORIENTED_EDGE ( 'NONE', *, *, #258, .F. ) ;
#111 = DIRECTION ( 'NONE',  ( -1.513561308394753449E-16, 1.000000000000000000, -0.000000000000000000 ) ) ;
#112 = EDGE_CURVE ( 'NONE', #2, #46, #138, .T. ) ;
#113 = DIRECTION ( 'NONE',  ( -1.000000000000000000, 0.000000000000000000, 0.000000000000000000 ) ) ;
#114 = CIRCLE ( 'NONE', #134, 0.3749999999999999445 ) ;
#115 = DIRECTION ( 'NONE',  ( 0.000000000000000000, 1.000000000000000000, 0.000000000000000000 ) ) ;
#116 = CARTESIAN_POINT ( 'NONE',  ( 0.3749999999999999445, 0.6495190528383271156, 4.592425496802574219E-17 ) ) ;
#117 = EDGE_CURVE ( 'NONE', #2, #124, #203, .T. ) ;
#118 = LENGTH_MEASURE_WITH_UNIT ( LENGTH_MEASURE( 0.02539999999999999897 ), #213 );
#119 =( NAMED_UNIT ( * ) PLANE_ANGLE_UNIT ( ) SI_UNIT ( $, .RADIAN. ) );
#120 = VECTOR ( 'NONE', #174, 39.37007874015748143 ) ;
#121 = DIRECTION ( 'NONE',  ( 0.000000000000000000, 0.000000000000000000, 1.000000000000000000 ) ) ;
#122 = FILL_AREA_STYLE ('',( #41 ) ) ;
#123 = ORIENTED_EDGE ( 'NONE', *, *, #16, .F. ) ;
#124 = VERTEX_POINT ( 'NONE', #116 ) ;
#125 = MECHANICAL_DESIGN_GEOMETRIC_PRESENTATION_REPRESENTATION (  '', ( #178 ), #137 ) ;
#126 = APPLICATION_PROTOCOL_DEFINITION ( 'draft international standard', 'automotive_design', 1998, #19 ) ;
#127 = DIRECTION ( 'NONE',  ( -1.000000000000000000, 0.000000000000000000, 0.000000000000000000 ) ) ;
#128 = EDGE_CURVE ( 'NONE', #90, #62, #114, .T. ) ;
#129 = PLANE ( 'NONE',  #88 ) ;
#130 = PRODUCT_DEFINITION_FORMATION_WITH_SPECIFIED_SOURCE ( 'ANY', '', #206, .NOT_KNOWN. ) ;
#131 = EDGE_CURVE ( 'NONE', #264, #62, #156, .T. ) ;
#132 =( CONVERSION_BASED_UNIT ( 'INCH', #71 ) LENGTH_UNIT ( ) NAMED_UNIT ( #164 ) );
#133 = DIRECTION ( 'NONE',  ( -1.513561308394753449E-16, 1.000000000000000000, 0.000000000000000000 ) ) ;
#134 = AXIS2_PLACEMENT_3D ( 'NONE', #76, #14, #173 ) ;
#135 = SURFACE_SIDE_STYLE ('',( #56 ) ) ;
#136 = DIRECTION ( 'NONE',  ( -1.513561308394753449E-16, 1.000000000000000000, -0.000000000000000000 ) ) ;
#137 =( GEOMETRIC_REPRESENTATION_CONTEXT ( 3 ) GLOBAL_UNCERTAINTY_ASSIGNED_CONTEXT ( ( #64 ) ) GLOBAL_UNIT_ASSIGNED_CONTEXT ( ( #168, #185, #167 ) ) REPRESENTATION_CONTEXT ( 'NONE', 'WORKASPACE' ) );
#138 = LINE ( 'NONE', #240, #193 ) ;
#139 = DIRECTION ( 'NONE',  ( 0.000000000000000000, 0.000000000000000000, 1.000000000000000000 ) ) ;
#140 = AXIS2_PLACEMENT_3D ( 'NONE', #85, #162, #262 ) ;
#141 = CARTESIAN_POINT ( 'NONE',  ( 2.945273618169283567E-16, 0.6495190528383271156, 0.000000000000000000 ) ) ;
#142 = FILL_AREA_STYLE ('',( #6 ) ) ;
#143 = EDGE_LOOP ( 'NONE', ( #9, #28 ) ) ;
#144 = CONICAL_SURFACE ( 'NONE', #39, 22.73032555864674364, 0.5235987755983000369 ) ;
#145 =( CONVERSION_BASED_UNIT ( 'INCH', #158 ) LENGTH_UNIT ( ) NAMED_UNIT ( #146 ) );
#146 = DIMENSIONAL_EXPONENTS ( 1.000000000000000000, 0.000000000000000000, 0.000000000000000000, 0.000000000000000000, 0.000000000000000000, 0.000000000000000000, 0.000000000000000000 ) ;
#147 = LINE ( 'NONE', #229, #160 ) ;
#148 = STYLED_ITEM ( 'NONE', ( #81 ), #33 ) ;
#149 = FACE_OUTER_BOUND ( 'NONE', #219, .T. ) ;
#150 = FACE_OUTER_BOUND ( 'NONE', #227, .T. ) ;
#151 =( NAMED_UNIT ( * ) SI_UNIT ( $, .STERADIAN. ) SOLID_ANGLE_UNIT ( ) );
#152 = CLOSED_SHELL ( 'NONE', ( #63, #36, #57, #10 ) ) ;
#153 =( CONVERSION_BASED_UNIT ( 'INCH', #118 ) LENGTH_UNIT ( ) NAMED_UNIT ( #91 ) );
#154 = SURFACE_STYLE_USAGE ( .BOTH. , #97 ) ;
#155 = CARTESIAN_POINT ( 'NONE',  ( -6.123233995736770966E-17, 3.000000000000000444, 0.000000000000000000 ) ) ;
#156 = LINE ( 'NONE', #77, #120 ) ;
#157 = LINE ( 'NONE', #177, #30 ) ;
#158 = LENGTH_MEASURE_WITH_UNIT ( LENGTH_MEASURE( 0.02539999999999999897 ), #86 );
#159 =( LENGTH_UNIT ( ) NAMED_UNIT ( * ) SI_UNIT ( $, .METRE. ) );
#160 = VECTOR ( 'NONE', #189, 39.37007874015748143 ) ;
#161 = UNCERTAINTY_MEASURE_WITH_UNIT (LENGTH_MEASURE( 1.000000000000000082E-05 ), #153, 'distance_accuracy_value', 'NONE');
#162 = DIRECTION ( 'NONE',  ( -0.000000000000000000, -1.000000000000000000, -0.000000000000000000 ) ) ;
#163 = ORIENTED_EDGE ( 'NONE', *, *, #72, .T. ) ;
#164 = DIMENSIONAL_EXPONENTS ( 1.000000000000000000, 0.000000000000000000, 0.000000000000000000, 0.000000000000000000, 0.000000000000000000, 0.000000000000000000, 0.000000000000000000 ) ;
#165 = VERTEX_POINT ( 'NONE', #214 ) ;
#166 = AXIS2_PLACEMENT_3D ( 'NONE', #49, #171, #93 ) ;
#167 =( NAMED_UNIT ( * ) SI_UNIT ( $, .STERADIAN. ) SOLID_ANGLE_UNIT ( ) );
#168 =( CONVERSION_BASED_UNIT ( 'INCH', #52 ) LENGTH_UNIT ( ) NAMED_UNIT ( #25 ) );
#169 = ORIENTED_EDGE ( 'NONE', *, *, #258, .T. ) ;
#170 = MECHANICAL_DESIGN_GEOMETRIC_PRESENTATION_REPRESENTATION (  '', ( #148 ), #66 ) ;
#171 = DIRECTION ( 'NONE',  ( -1.513561308394753449E-16, 1.000000000000000000, -0.000000000000000000 ) ) ;
#172 =( NAMED_UNIT ( * ) PLANE_ANGLE_UNIT ( ) SI_UNIT ( $, .RADIAN. ) );
#173 = DIRECTION ( 'NONE',  ( 0.000000000000000000, 0.000000000000000000, -1.000000000000000000 ) ) ;
#174 = DIRECTION ( 'NONE',  ( 0.000000000000000000, 0.8660254037844380415, 0.5000000000000009992 ) ) ;
#175 = DIRECTION ( 'NONE',  ( 0.000000000000000000, 1.000000000000000000, 0.000000000000000000 ) ) ;
#176 = SURFACE_STYLE_USAGE ( .BOTH. , #20 ) ;
#177 = CARTESIAN_POINT ( 'NONE',  ( 0.3749999999999997780, 3.000000000000000444, 4.592425496802572370E-17 ) ) ;
#178 = STYLED_ITEM ( 'NONE', ( #250 ), #48 ) ;
#179 = SURFACE_STYLE_USAGE ( .BOTH. , #221 ) ;
#180 =( NAMED_UNIT ( * ) SI_UNIT ( $, .STERADIAN. ) SOLID_ANGLE_UNIT ( ) );
#181 = ORIENTED_EDGE ( 'NONE', *, *, #84, .F. ) ;
#182 = ADVANCED_FACE ( 'NONE', ( #257 ), #144, .T. ) ;
#183 = DIRECTION ( 'NONE',  ( 1.513561308394753449E-16, -1.000000000000000000, 0.000000000000000000 ) ) ;
#184 = FILL_AREA_STYLE ('',( #8 ) ) ;
#185 =( NAMED_UNIT ( * ) PLANE_ANGLE_UNIT ( ) SI_UNIT ( $, .RADIAN. ) );
#186 = ORIENTED_EDGE ( 'NONE', *, *, #131, .T. ) ;
#187 = PRODUCT_CONTEXT ( 'NONE', #19, 'mechanical' ) ;
#188 = DIRECTION ( 'NONE',  ( -1.000000000000000000, 0.000000000000000000, 0.000000000000000000 ) ) ;
#189 = DIRECTION ( 'NONE',  ( 6.123233995736778362E-17, 0.8660254037844380415, -0.5000000000000009992 ) ) ;
#190 = AXIS2_PLACEMENT_3D ( 'NONE', #230, #115, #94 ) ;
#191 = FACE_OUTER_BOUND ( 'NONE', #65, .T. ) ;
#192 = DIRECTION ( 'NONE',  ( -1.000000000000000000, 0.000000000000000000, 0.000000000000000000 ) ) ;
#193 = VECTOR ( 'NONE', #101, 39.37007874015748143 ) ;
#194 = DIRECTION ( 'NONE',  ( 0.000000000000000000, 1.000000000000000000, 0.000000000000000000 ) ) ;
#195 = PRODUCT_DEFINITION ( 'UNKNOWN', '', #130, #222 ) ;
#196 = FILL_AREA_STYLE ('',( #233 ) ) ;
#197 = CIRCLE ( 'NONE', #236, 0.3750000000000000555 ) ;
#198 =( GEOMETRIC_REPRESENTATION_CONTEXT ( 3 ) GLOBAL_UNCERTAINTY_ASSIGNED_CONTEXT ( ( #44 ) ) GLOBAL_UNIT_ASSIGNED_CONTEXT ( ( #145, #225, #59 ) ) REPRESENTATION_CONTEXT ( 'NONE', 'WORKASPACE' ) );
#199 = DIRECTION ( 'NONE',  ( 1.000000000000000000, 0.000000000000000000, 0.000000000000000000 ) ) ;
#200 = SURFACE_STYLE_FILL_AREA ( #122 ) ;
#201 = LENGTH_MEASURE_WITH_UNIT ( LENGTH_MEASURE( 0.02539999999999999897 ), #159 );
#202 = PLANE ( 'NONE',  #15 ) ;
#203 = CIRCLE ( 'NONE', #69, 0.3749999999999996669 ) ;
#204 = EDGE_LOOP ( 'NONE', ( #5, #123 ) ) ;
#205 = ORIENTED_EDGE ( 'NONE', *, *, #112, .F. ) ;
#206 = PRODUCT ( '06393', '06393', '', ( #187 ) ) ;
#207 =( LENGTH_UNIT ( ) NAMED_UNIT ( * ) SI_UNIT ( $, .METRE. ) );
#208 =( NAMED_UNIT ( * ) PLANE_ANGLE_UNIT ( ) SI_UNIT ( $, .RADIAN. ) );
#209 =( GEOMETRIC_REPRESENTATION_CONTEXT ( 3 ) GLOBAL_UNCERTAINTY_ASSIGNED_CONTEXT ( ( #82 ) ) GLOBAL_UNIT_ASSIGNED_CONTEXT ( ( #83, #58, #180 ) ) REPRESENTATION_CONTEXT ( 'NONE', 'WORKASPACE' ) );
#210 = FACE_OUTER_BOUND ( 'NONE', #107, .T. ) ;
#211 = CARTESIAN_POINT ( 'NONE',  ( -6.123233995736772199E-17, 3.000000000000000444, 0.000000000000000000 ) ) ;
#212 =( CONVERSION_BASED_UNIT ( 'INCH', #260 ) LENGTH_UNIT ( ) NAMED_UNIT ( #226 ) );
#213 =( LENGTH_UNIT ( ) NAMED_UNIT ( * ) SI_UNIT ( $, .METRE. ) );
#214 = CARTESIAN_POINT ( 'NONE',  ( 0.3749999999999999445, 3.000000000000000444, 4.592425496802574219E-17 ) ) ;
#215 = MECHANICAL_DESIGN_GEOMETRIC_PRESENTATION_REPRESENTATION (  '', ( #47 ), #74 ) ;
#216 = FILL_AREA_STYLE ('',( #37 ) ) ;
#217 = SURFACE_STYLE_FILL_AREA ( #196 ) ;
#218 = STYLED_ITEM ( 'NONE', ( #78 ), #79 ) ;
#219 = EDGE_LOOP ( 'NONE', ( #110, #246 ) ) ;
#220 = ADVANCED_BREP_SHAPE_REPRESENTATION ( '06393', ( #27, #33, #241 ), #209 ) ;
#221 = SURFACE_SIDE_STYLE ('',( #80 ) ) ;
#222 = PRODUCT_DEFINITION_CONTEXT ( 'detailed design', #31, 'design' ) ;
#223 = APPLICATION_PROTOCOL_DEFINITION ( 'draft international standard', 'automotive_design', 1998, #31 ) ;
#224 = COLOUR_RGB ( '',0.7921568627450980005, 0.8196078431372548767, 0.9333333333333333481 ) ;
#225 =( NAMED_UNIT ( * ) PLANE_ANGLE_UNIT ( ) SI_UNIT ( $, .RADIAN. ) );
#226 = DIMENSIONAL_EXPONENTS ( 1.000000000000000000, 0.000000000000000000, 0.000000000000000000, 0.000000000000000000, 0.000000000000000000, 0.000000000000000000, 0.000000000000000000 ) ;
#227 = EDGE_LOOP ( 'NONE', ( #61, #186, #169 ) ) ;
#228 = ORIENTED_EDGE ( 'NONE', *, *, #117, .T. ) ;
#229 = CARTESIAN_POINT ( 'NONE',  ( 0.000000000000000000, 0.000000000000000000, 0.000000000000000000 ) ) ;
#230 = CARTESIAN_POINT ( 'NONE',  ( 0.000000000000000000, 39.37007874015748143, 0.000000000000000000 ) ) ;
#231 = PRESENTATION_LAYER_ASSIGNMENT (  '', '', ( #218 ) ) ;
#232 = PRODUCT_DEFINITION_SHAPE ( 'NONE', 'NONE',  #195 ) ;
#233 = FILL_AREA_STYLE_COLOUR ( '', #55 ) ;
#234 = EDGE_CURVE ( 'NONE', #124, #165, #157, .T. ) ;
#235 = SURFACE_STYLE_FILL_AREA ( #184 ) ;
#236 = AXIS2_PLACEMENT_3D ( 'NONE', #155, #99, #239 ) ;
#237 = AXIS2_PLACEMENT_3D ( 'NONE', #21, #24, #127 ) ;
#238 = PRESENTATION_LAYER_ASSIGNMENT (  '', '', ( #148 ) ) ;
#239 = DIRECTION ( 'NONE',  ( -1.000000000000000000, 0.000000000000000000, 0.000000000000000000 ) ) ;
#240 = CARTESIAN_POINT ( 'NONE',  ( -0.3749999999999998890, 3.000000000000000444, 0.000000000000000000 ) ) ;
#241 = AXIS2_PLACEMENT_3D ( 'NONE', #40, #121, #199 ) ;
#242 = PRESENTATION_LAYER_ASSIGNMENT (  '', '', ( #98 ) ) ;
#243 = ORIENTED_EDGE ( 'NONE', *, *, #234, .T. ) ;
#244 = ORIENTED_EDGE ( 'NONE', *, *, #131, .F. ) ;
#245 = CARTESIAN_POINT ( 'NONE',  ( 0.000000000000000000, 0.000000000000000000, 0.000000000000000000 ) ) ;
#246 = ORIENTED_EDGE ( 'NONE', *, *, #128, .F. ) ;
#247 = DIMENSIONAL_EXPONENTS ( 1.000000000000000000, 0.000000000000000000, 0.000000000000000000, 0.000000000000000000, 0.000000000000000000, 0.000000000000000000, 0.000000000000000000 ) ;
#248 =( GEOMETRIC_REPRESENTATION_CONTEXT ( 3 ) GLOBAL_UNCERTAINTY_ASSIGNED_CONTEXT ( ( #161 ) ) GLOBAL_UNIT_ASSIGNED_CONTEXT ( ( #153, #119, #100 ) ) REPRESENTATION_CONTEXT ( 'NONE', 'WORKASPACE' ) );
#249 = PRESENTATION_STYLE_ASSIGNMENT (( #179 ) ) ;
#250 = PRESENTATION_STYLE_ASSIGNMENT (( #89 ) ) ;
#251 = SURFACE_SIDE_STYLE ('',( #235 ) ) ;
#252 = CARTESIAN_POINT ( 'NONE',  ( -6.123233995736770966E-17, 3.000000000000000444, 0.000000000000000000 ) ) ;
#253 = DIRECTION ( 'NONE',  ( -1.513561308394753449E-16, 1.000000000000000000, -0.000000000000000000 ) ) ;
#254 = CIRCLE ( 'NONE', #140, 0.3749999999999999445 ) ;
#255 = SURFACE_STYLE_USAGE ( .BOTH. , #135 ) ;
#256 = COLOUR_RGB ( '',0.7921568627450980005, 0.8196078431372548767, 0.9333333333333333481 ) ;
#257 = FACE_OUTER_BOUND ( 'NONE', #104, .T. ) ;
#258 = EDGE_CURVE ( 'NONE', #62, #90, #254, .T. ) ;
#259 = COLOUR_RGB ( '',1.000000000000000000, 0.000000000000000000, 0.000000000000000000 ) ;
#260 = LENGTH_MEASURE_WITH_UNIT ( LENGTH_MEASURE( 0.02539999999999999897 ), #38 );
#261 = PRODUCT_RELATED_PRODUCT_CATEGORY ( 'part', '', ( #206 ) ) ;
#262 = DIRECTION ( 'NONE',  ( 0.000000000000000000, 0.000000000000000000, -1.000000000000000000 ) ) ;
#263 = ORIENTED_EDGE ( 'NONE', *, *, #16, .T. ) ;
#264 = VERTEX_POINT ( 'NONE', #245 ) ;
#265 = MECHANICAL_DESIGN_GEOMETRIC_PRESENTATION_REPRESENTATION (  '', ( #218 ), #248 ) ;
ENDSEC;
END-ISO-10303-21;
