ISO-10303-21;
HEADER;
FILE_DESCRIPTION (( 'STEP AP214' ),
    '1' );
FILE_NAME ('01345.STEP',
    '2023-06-22T14:27:25',
    ( '' ),
    ( '' ),
    'SwSTEP 2.0',
    'SolidWorks 2023',
    '' );
FILE_SCHEMA (( 'AUTOMOTIVE_DESIGN' ));
ENDSEC;

DATA;
#1 = ORIENTED_EDGE ( 'NONE', *, *, #162, .F. ) ;
#2 =( LENGTH_UNIT ( ) NAMED_UNIT ( * ) SI_UNIT ( $, .METRE. ) );
#3 = VERTEX_POINT ( 'NONE', #256 ) ;
#4 = APPLICATION_CONTEXT ( 'automotive_design' ) ;
#5 = ORIENTED_EDGE ( 'NONE', *, *, #34, .F. ) ;
#6 = VECTOR ( 'NONE', #265, 39.37007874015748143 ) ;
#7 = DIMENSIONAL_EXPONENTS ( 1.000000000000000000, 0.000000000000000000, 0.000000000000000000, 0.000000000000000000, 0.000000000000000000, 0.000000000000000000, 0.000000000000000000 ) ;
#8 = EDGE_CURVE ( 'NONE', #122, #3, #18, .T. ) ;
#9 = FILL_AREA_STYLE_COLOUR ( '', #43 ) ;
#10 = DIMENSIONAL_EXPONENTS ( 1.000000000000000000, 0.000000000000000000, 0.000000000000000000, 0.000000000000000000, 0.000000000000000000, 0.000000000000000000, 0.000000000000000000 ) ;
#11 = SURFACE_SIDE_STYLE ('',( #55 ) ) ;
#12 = ORIENTED_EDGE ( 'NONE', *, *, #41, .T. ) ;
#13 = MECHANICAL_DESIGN_GEOMETRIC_PRESENTATION_REPRESENTATION (  '', ( #298 ), #262 ) ;
#14 =( NAMED_UNIT ( * ) SI_UNIT ( $, .STERADIAN. ) SOLID_ANGLE_UNIT ( ) );
#15 =( NAMED_UNIT ( * ) SI_UNIT ( $, .STERADIAN. ) SOLID_ANGLE_UNIT ( ) );
#16 =( LENGTH_UNIT ( ) NAMED_UNIT ( * ) SI_UNIT ( $, .METRE. ) );
#17 = FILL_AREA_STYLE ('',( #222 ) ) ;
#18 = CIRCLE ( 'NONE', #285, 0.1875000000000000278 ) ;
#19 = LENGTH_MEASURE_WITH_UNIT ( LENGTH_MEASURE( 0.02539999999999999897 ), #16 );
#20 = SURFACE_STYLE_FILL_AREA ( #81 ) ;
#21 = CYLINDRICAL_SURFACE ( 'NONE', #303, 0.1875000000000000833 ) ;
#22 = PLANE ( 'NONE',  #23 ) ;
#23 = AXIS2_PLACEMENT_3D ( 'NONE', #250, #161, #51 ) ;
#24 = CARTESIAN_POINT ( 'NONE',  ( -1.224646799147353700E-16, 3.000000000000000444, 0.000000000000000000 ) ) ;
#25 = FILL_AREA_STYLE_COLOUR ( '', #223 ) ;
#26 = MANIFOLD_SOLID_BREP ( 'Revolve - Cutting Edge', #247 ) ;
#27 = AXIS2_PLACEMENT_3D ( 'NONE', #230, #281, #135 ) ;
#28 = ADVANCED_FACE ( 'NONE', ( #59 ), #240, .T. ) ;
#29 = ORIENTED_EDGE ( 'NONE', *, *, #71, .T. ) ;
#30 = VERTEX_POINT ( 'NONE', #111 ) ;
#31 = VECTOR ( 'NONE', #299, 39.37007874015748143 ) ;
#32 = EDGE_LOOP ( 'NONE', ( #12, #123, #167, #105 ) ) ;
#33 =( NAMED_UNIT ( * ) SI_UNIT ( $, .STERADIAN. ) SOLID_ANGLE_UNIT ( ) );
#34 = EDGE_CURVE ( 'NONE', #30, #210, #163, .T. ) ;
#35 = CARTESIAN_POINT ( 'NONE',  ( 0.000000000000000000, 0.000000000000000000, 0.000000000000000000 ) ) ;
#36 = AXIS2_PLACEMENT_3D ( 'NONE', #174, #155, #153 ) ;
#37 = CIRCLE ( 'NONE', #27, 0.1875000000000000278 ) ;
#38 = APPLICATION_CONTEXT ( 'automotive_design' ) ;
#39 = DIRECTION ( 'NONE',  ( 0.000000000000000000, -0.000000000000000000, 1.000000000000000000 ) ) ;
#40 = CARTESIAN_POINT ( 'NONE',  ( 0.1874999999999999445, 3.000000000000000444, 2.296212748401288342E-17 ) ) ;
#41 = EDGE_CURVE ( 'NONE', #259, #287, #124, .T. ) ;
#42 =( LENGTH_UNIT ( ) NAMED_UNIT ( * ) SI_UNIT ( $, .METRE. ) );
#43 = COLOUR_RGB ( '',1.000000000000000000, 0.000000000000000000, 0.000000000000000000 ) ;
#44 = PRESENTATION_LAYER_ASSIGNMENT (  '', '', ( #96 ) ) ;
#45 = CYLINDRICAL_SURFACE ( 'NONE', #164, 0.1875000000000000278 ) ;
#46 = EDGE_CURVE ( 'NONE', #3, #30, #176, .T. ) ;
#47 = FACE_OUTER_BOUND ( 'NONE', #100, .T. ) ;
#48 = PRODUCT_DEFINITION_SHAPE ( 'NONE', 'NONE',  #296 ) ;
#49 = FACE_OUTER_BOUND ( 'NONE', #142, .T. ) ;
#50 = ADVANCED_FACE ( 'NONE', ( #249 ), #45, .T. ) ;
#51 = DIRECTION ( 'NONE',  ( 1.000000000000000000, 6.123233995736769734E-17, 0.000000000000000000 ) ) ;
#52 = FILL_AREA_STYLE ('',( #234 ) ) ;
#53 = EDGE_LOOP ( 'NONE', ( #236, #125, #212, #233 ) ) ;
#54 = AXIS2_PLACEMENT_3D ( 'NONE', #224, #270, #87 ) ;
#55 = SURFACE_STYLE_FILL_AREA ( #52 ) ;
#56 = AXIS2_PLACEMENT_3D ( 'NONE', #82, #268, #288 ) ;
#57 = APPLICATION_PROTOCOL_DEFINITION ( 'draft international standard', 'automotive_design', 1998, #38 ) ;
#58 = DIMENSIONAL_EXPONENTS ( 1.000000000000000000, 0.000000000000000000, 0.000000000000000000, 0.000000000000000000, 0.000000000000000000, 0.000000000000000000, 0.000000000000000000 ) ;
#59 = FACE_OUTER_BOUND ( 'NONE', #209, .T. ) ;
#60 = DIMENSIONAL_EXPONENTS ( 1.000000000000000000, 0.000000000000000000, 0.000000000000000000, 0.000000000000000000, 0.000000000000000000, 0.000000000000000000, 0.000000000000000000 ) ;
#61 =( GEOMETRIC_REPRESENTATION_CONTEXT ( 3 ) GLOBAL_UNCERTAINTY_ASSIGNED_CONTEXT ( ( #305 ) ) GLOBAL_UNIT_ASSIGNED_CONTEXT ( ( #203, #94, #158 ) ) REPRESENTATION_CONTEXT ( 'NONE', 'WORKASPACE' ) );
#62 = DIRECTION ( 'NONE',  ( 0.000000000000000000, 0.000000000000000000, -1.000000000000000000 ) ) ;
#63 =( NAMED_UNIT ( * ) PLANE_ANGLE_UNIT ( ) SI_UNIT ( $, .RADIAN. ) );
#64 = ADVANCED_FACE ( 'NONE', ( #47 ), #21, .T. ) ;
#65 = CARTESIAN_POINT ( 'NONE',  ( 2.296212748401287726E-17, 1.000000000000000000, 0.1875000000000000278 ) ) ;
#66 =( NAMED_UNIT ( * ) SI_UNIT ( $, .STERADIAN. ) SOLID_ANGLE_UNIT ( ) );
#67 = UNCERTAINTY_MEASURE_WITH_UNIT (LENGTH_MEASURE( 1.000000000000000082E-05 ), #202, 'distance_accuracy_value', 'NONE');
#68 =( CONVERSION_BASED_UNIT ( 'INCH', #181 ) LENGTH_UNIT ( ) NAMED_UNIT ( #84 ) );
#69 = DIRECTION ( 'NONE',  ( -1.000000000000000000, -6.123233995736769734E-17, 0.000000000000000000 ) ) ;
#70 = DIRECTION ( 'NONE',  ( -6.123233995736769734E-17, 1.000000000000000000, -0.000000000000000000 ) ) ;
#71 = EDGE_CURVE ( 'NONE', #218, #77, #37, .T. ) ;
#72 = DIRECTION ( 'NONE',  ( -0.000000000000000000, -1.000000000000000000, -0.000000000000000000 ) ) ;
#73 = ORIENTED_EDGE ( 'NONE', *, *, #80, .T. ) ;
#74 = CLOSED_SHELL ( 'NONE', ( #64, #99, #140, #116 ) ) ;
#75 = VECTOR ( 'NONE', #113, 39.37007874015748143 ) ;
#76 =( NAMED_UNIT ( * ) SI_UNIT ( $, .STERADIAN. ) SOLID_ANGLE_UNIT ( ) );
#77 = VERTEX_POINT ( 'NONE', #119 ) ;
#78 = CARTESIAN_POINT ( 'NONE',  ( -0.1875000000000002220, 3.000000000000000444, 0.000000000000000000 ) ) ;
#79 = ORIENTED_EDGE ( 'NONE', *, *, #207, .T. ) ;
#80 = EDGE_CURVE ( 'NONE', #210, #30, #279, .T. ) ;
#81 = FILL_AREA_STYLE ('',( #110 ) ) ;
#82 = CARTESIAN_POINT ( 'NONE',  ( 0.000000000000000000, 0.000000000000000000, 0.000000000000000000 ) ) ;
#83 = SURFACE_SIDE_STYLE ('',( #198 ) ) ;
#84 = DIMENSIONAL_EXPONENTS ( 1.000000000000000000, 0.000000000000000000, 0.000000000000000000, 0.000000000000000000, 0.000000000000000000, 0.000000000000000000, 0.000000000000000000 ) ;
#85 = DIRECTION ( 'NONE',  ( 0.000000000000000000, -1.000000000000000000, -0.000000000000000000 ) ) ;
#86 = SURFACE_SIDE_STYLE ('',( #89 ) ) ;
#87 = DIRECTION ( 'NONE',  ( 0.000000000000000000, 0.000000000000000000, -1.000000000000000000 ) ) ;
#88 = MECHANICAL_DESIGN_GEOMETRIC_PRESENTATION_REPRESENTATION (  '', ( #96 ), #121 ) ;
#89 = SURFACE_STYLE_FILL_AREA ( #242 ) ;
#90 = SURFACE_STYLE_FILL_AREA ( #17 ) ;
#91 = PRESENTATION_STYLE_ASSIGNMENT (( #171 ) ) ;
#92 = LENGTH_MEASURE_WITH_UNIT ( LENGTH_MEASURE( 0.02539999999999999897 ), #225 );
#93 = UNCERTAINTY_MEASURE_WITH_UNIT (LENGTH_MEASURE( 1.000000000000000082E-05 ), #243, 'distance_accuracy_value', 'NONE');
#94 =( NAMED_UNIT ( * ) PLANE_ANGLE_UNIT ( ) SI_UNIT ( $, .RADIAN. ) );
#95 = STYLED_ITEM ( 'NONE', ( #169 ), #26 ) ;
#96 = STYLED_ITEM ( 'NONE', ( #91 ), #263 ) ;
#97 = DIRECTION ( 'NONE',  ( -6.123233995736769734E-17, 1.000000000000000000, -0.000000000000000000 ) ) ;
#98 = SURFACE_STYLE_FILL_AREA ( #208 ) ;
#99 = ADVANCED_FACE ( 'NONE', ( #49 ), #251, .F. ) ;
#100 = EDGE_LOOP ( 'NONE', ( #166, #217, #126, #266 ) ) ;
#101 = PRODUCT_CONTEXT ( 'NONE', #4, 'mechanical' ) ;
#102 = COLOUR_RGB ( '',1.000000000000000000, 0.000000000000000000, 0.000000000000000000 ) ;
#103 =( NAMED_UNIT ( * ) PLANE_ANGLE_UNIT ( ) SI_UNIT ( $, .RADIAN. ) );
#104 = CYLINDRICAL_SURFACE ( 'NONE', #286, 0.1875000000000000278 ) ;
#105 = ORIENTED_EDGE ( 'NONE', *, *, #282, .F. ) ;
#106 =( NAMED_UNIT ( * ) PLANE_ANGLE_UNIT ( ) SI_UNIT ( $, .RADIAN. ) );
#107 = EDGE_CURVE ( 'NONE', #77, #218, #276, .T. ) ;
#108 = AXIS2_PLACEMENT_3D ( 'NONE', #24, #97, #227 ) ;
#109 = CARTESIAN_POINT ( 'NONE',  ( 0.000000000000000000, 1.000000000000000000, -0.1875000000000000278 ) ) ;
#110 = FILL_AREA_STYLE_COLOUR ( '', #219 ) ;
#111 = CARTESIAN_POINT ( 'NONE',  ( 0.1875000000000000278, 3.000000000000000444, 2.296212748401288650E-17 ) ) ;
#112 =( GEOMETRIC_REPRESENTATION_CONTEXT ( 3 ) GLOBAL_UNCERTAINTY_ASSIGNED_CONTEXT ( ( #67 ) ) GLOBAL_UNIT_ASSIGNED_CONTEXT ( ( #202, #199, #33 ) ) REPRESENTATION_CONTEXT ( 'NONE', 'WORKASPACE' ) );
#113 = DIRECTION ( 'NONE',  ( -6.123233995736769734E-17, 1.000000000000000000, -0.000000000000000000 ) ) ;
#114 = CARTESIAN_POINT ( 'NONE',  ( 2.296212748401287726E-17, 0.000000000000000000, 0.1875000000000000278 ) ) ;
#115 = CARTESIAN_POINT ( 'NONE',  ( -0.1875000000000000278, 1.000000000000000000, 0.000000000000000000 ) ) ;
#116 = ADVANCED_FACE ( 'NONE', ( #137 ), #22, .F. ) ;
#117 = CYLINDRICAL_SURFACE ( 'NONE', #241, 0.1875000000000000833 ) ;
#118 = DIRECTION ( 'NONE',  ( -6.123233995736769734E-17, 1.000000000000000000, 0.000000000000000000 ) ) ;
#119 = CARTESIAN_POINT ( 'NONE',  ( 0.000000000000000000, 0.000000000000000000, -0.1875000000000000278 ) ) ;
#120 = DIRECTION ( 'NONE',  ( -0.000000000000000000, -1.000000000000000000, -0.000000000000000000 ) ) ;
#121 =( GEOMETRIC_REPRESENTATION_CONTEXT ( 3 ) GLOBAL_UNCERTAINTY_ASSIGNED_CONTEXT ( ( #93 ) ) GLOBAL_UNIT_ASSIGNED_CONTEXT ( ( #243, #128, #14 ) ) REPRESENTATION_CONTEXT ( 'NONE', 'WORKASPACE' ) );
#122 = VERTEX_POINT ( 'NONE', #115 ) ;
#123 = ORIENTED_EDGE ( 'NONE', *, *, #237, .T. ) ;
#124 = CIRCLE ( 'NONE', #54, 0.1875000000000000278 ) ;
#125 = ORIENTED_EDGE ( 'NONE', *, *, #254, .T. ) ;
#126 = ORIENTED_EDGE ( 'NONE', *, *, #80, .F. ) ;
#127 = ADVANCED_BREP_SHAPE_REPRESENTATION ( '01345', ( #26, #228, #56 ), #129 ) ;
#128 =( NAMED_UNIT ( * ) PLANE_ANGLE_UNIT ( ) SI_UNIT ( $, .RADIAN. ) );
#129 =( GEOMETRIC_REPRESENTATION_CONTEXT ( 3 ) GLOBAL_UNCERTAINTY_ASSIGNED_CONTEXT ( ( #302 ) ) GLOBAL_UNIT_ASSIGNED_CONTEXT ( ( #291, #106, #76 ) ) REPRESENTATION_CONTEXT ( 'NONE', 'WORKASPACE' ) );
#130 = DIRECTION ( 'NONE',  ( 0.000000000000000000, 1.000000000000000000, 0.000000000000000000 ) ) ;
#131 = LINE ( 'NONE', #197, #31 ) ;
#132 = CARTESIAN_POINT ( 'NONE',  ( 2.296212748401287726E-17, 0.000000000000000000, 0.1875000000000000278 ) ) ;
#133 =( GEOMETRIC_REPRESENTATION_CONTEXT ( 3 ) GLOBAL_UNCERTAINTY_ASSIGNED_CONTEXT ( ( #201 ) ) GLOBAL_UNIT_ASSIGNED_CONTEXT ( ( #244, #63, #15 ) ) REPRESENTATION_CONTEXT ( 'NONE', 'WORKASPACE' ) );
#134 = PRESENTATION_LAYER_ASSIGNMENT (  '', '', ( #235 ) ) ;
#135 = DIRECTION ( 'NONE',  ( 0.000000000000000000, 0.000000000000000000, -1.000000000000000000 ) ) ;
#136 = AXIS2_PLACEMENT_3D ( 'NONE', #138, #309, #160 ) ;
#137 = FACE_OUTER_BOUND ( 'NONE', #145, .T. ) ;
#138 = CARTESIAN_POINT ( 'NONE',  ( 3.032960542342103792E-32, 1.000000000000000000, 0.000000000000000000 ) ) ;
#139 = AXIS2_PLACEMENT_3D ( 'NONE', #35, #85, #297 ) ;
#140 = ADVANCED_FACE ( 'NONE', ( #301 ), #117, .T. ) ;
#141 = ORIENTED_EDGE ( 'NONE', *, *, #41, .F. ) ;
#142 = EDGE_LOOP ( 'NONE', ( #283, #1 ) ) ;
#143 = SURFACE_STYLE_USAGE ( .BOTH. , #11 ) ;
#144 = CIRCLE ( 'NONE', #170, 0.1875000000000000278 ) ;
#145 = EDGE_LOOP ( 'NONE', ( #73, #289 ) ) ;
#146 = CARTESIAN_POINT ( 'NONE',  ( 0.000000000000000000, 1.000000000000000000, 0.000000000000000000 ) ) ;
#147 = FILL_AREA_STYLE ('',( #9 ) ) ;
#148 = PLANE ( 'NONE',  #294 ) ;
#149 = PRESENTATION_LAYER_ASSIGNMENT (  '', '', ( #95 ) ) ;
#150 = MECHANICAL_DESIGN_GEOMETRIC_PRESENTATION_REPRESENTATION (  '', ( #235 ), #112 ) ;
#151 = PRESENTATION_STYLE_ASSIGNMENT (( #248 ) ) ;
#152 =( LENGTH_UNIT ( ) NAMED_UNIT ( * ) SI_UNIT ( $, .METRE. ) );
#153 = DIRECTION ( 'NONE',  ( -1.000000000000000000, 0.000000000000000000, 0.000000000000000000 ) ) ;
#154 =( LENGTH_UNIT ( ) NAMED_UNIT ( * ) SI_UNIT ( $, .METRE. ) );
#155 = DIRECTION ( 'NONE',  ( -6.123233995736769734E-17, 1.000000000000000000, -0.000000000000000000 ) ) ;
#156 = PRESENTATION_STYLE_ASSIGNMENT (( #179 ) ) ;
#157 = DIRECTION ( 'NONE',  ( 0.000000000000000000, 0.000000000000000000, -1.000000000000000000 ) ) ;
#158 =( NAMED_UNIT ( * ) SI_UNIT ( $, .STERADIAN. ) SOLID_ANGLE_UNIT ( ) );
#159 = PRESENTATION_LAYER_ASSIGNMENT (  '', '', ( #232 ) ) ;
#160 = DIRECTION ( 'NONE',  ( -1.000000000000000000, 0.000000000000000000, 0.000000000000000000 ) ) ;
#161 = DIRECTION ( 'NONE',  ( 6.123233995736769734E-17, -1.000000000000000000, 0.000000000000000000 ) ) ;
#162 = EDGE_CURVE ( 'NONE', #3, #122, #180, .T. ) ;
#163 = CIRCLE ( 'NONE', #36, 0.1875000000000001388 ) ;
#164 = AXIS2_PLACEMENT_3D ( 'NONE', #278, #120, #157 ) ;
#165 =( NAMED_UNIT ( * ) SI_UNIT ( $, .STERADIAN. ) SOLID_ANGLE_UNIT ( ) );
#166 = ORIENTED_EDGE ( 'NONE', *, *, #8, .T. ) ;
#167 = ORIENTED_EDGE ( 'NONE', *, *, #107, .F. ) ;
#168 = ORIENTED_EDGE ( 'NONE', *, *, #107, .T. ) ;
#169 = PRESENTATION_STYLE_ASSIGNMENT (( #143 ) ) ;
#170 = AXIS2_PLACEMENT_3D ( 'NONE', #146, #221, #62 ) ;
#171 = SURFACE_STYLE_USAGE ( .BOTH. , #300 ) ;
#172 = PRESENTATION_STYLE_ASSIGNMENT (( #295 ) ) ;
#173 = ADVANCED_FACE ( 'NONE', ( #252 ), #104, .T. ) ;
#174 = CARTESIAN_POINT ( 'NONE',  ( -1.224646799147353700E-16, 3.000000000000000444, 0.000000000000000000 ) ) ;
#175 = LINE ( 'NONE', #132, #215 ) ;
#176 = LINE ( 'NONE', #40, #75 ) ;
#177 = SURFACE_STYLE_USAGE ( .BOTH. , #200 ) ;
#178 =( CONVERSION_BASED_UNIT ( 'INCH', #196 ) LENGTH_UNIT ( ) NAMED_UNIT ( #10 ) );
#179 = SURFACE_STYLE_USAGE ( .BOTH. , #186 ) ;
#180 = CIRCLE ( 'NONE', #136, 0.1875000000000000278 ) ;
#181 = LENGTH_MEASURE_WITH_UNIT ( LENGTH_MEASURE( 0.02539999999999999897 ), #204 );
#182 = CARTESIAN_POINT ( 'NONE',  ( -1.224646799147353700E-16, 3.000000000000000444, 0.000000000000000000 ) ) ;
#183 = UNCERTAINTY_MEASURE_WITH_UNIT (LENGTH_MEASURE( 1.000000000000000082E-05 ), #68, 'distance_accuracy_value', 'NONE');
#184 = CARTESIAN_POINT ( 'NONE',  ( -1.224646799147353700E-16, 3.000000000000000444, 0.000000000000000000 ) ) ;
#185 = COLOUR_RGB ( '',0.7921568627450980005, 0.8196078431372548767, 0.9333333333333333481 ) ;
#186 = SURFACE_SIDE_STYLE ('',( #98 ) ) ;
#187 = MECHANICAL_DESIGN_GEOMETRIC_PRESENTATION_REPRESENTATION (  '', ( #232 ), #61 ) ;
#188 = ORIENTED_EDGE ( 'NONE', *, *, #254, .F. ) ;
#189 = DIRECTION ( 'NONE',  ( 0.000000000000000000, 0.000000000000000000, -1.000000000000000000 ) ) ;
#190 = DIRECTION ( 'NONE',  ( -6.123233995736769734E-17, 1.000000000000000000, -0.000000000000000000 ) ) ;
#191 = CARTESIAN_POINT ( 'NONE',  ( 0.000000000000000000, 0.000000000000000000, 0.000000000000000000 ) ) ;
#192 = LENGTH_MEASURE_WITH_UNIT ( LENGTH_MEASURE( 0.02539999999999999897 ), #2 );
#193 = CARTESIAN_POINT ( 'NONE',  ( -0.1875000000000002776, 3.000000000000000444, 0.000000000000000000 ) ) ;
#194 =( NAMED_UNIT ( * ) PLANE_ANGLE_UNIT ( ) SI_UNIT ( $, .RADIAN. ) );
#195 = CARTESIAN_POINT ( 'NONE',  ( 0.000000000000000000, 1.000000000000000000, 0.000000000000000000 ) ) ;
#196 = LENGTH_MEASURE_WITH_UNIT ( LENGTH_MEASURE( 0.02539999999999999897 ), #152 );
#197 = CARTESIAN_POINT ( 'NONE',  ( 0.000000000000000000, 0.000000000000000000, -0.1875000000000000278 ) ) ;
#198 = SURFACE_STYLE_FILL_AREA ( #147 ) ;
#199 =( NAMED_UNIT ( * ) PLANE_ANGLE_UNIT ( ) SI_UNIT ( $, .RADIAN. ) );
#200 = SURFACE_SIDE_STYLE ('',( #90 ) ) ;
#201 = UNCERTAINTY_MEASURE_WITH_UNIT (LENGTH_MEASURE( 1.000000000000000082E-05 ), #244, 'distance_accuracy_value', 'NONE');
#202 =( CONVERSION_BASED_UNIT ( 'INCH', #19 ) LENGTH_UNIT ( ) NAMED_UNIT ( #60 ) );
#203 =( CONVERSION_BASED_UNIT ( 'INCH', #229 ) LENGTH_UNIT ( ) NAMED_UNIT ( #7 ) );
#204 =( LENGTH_UNIT ( ) NAMED_UNIT ( * ) SI_UNIT ( $, .METRE. ) );
#205 = DIRECTION ( 'NONE',  ( 0.000000000000000000, 0.000000000000000000, -1.000000000000000000 ) ) ;
#206 = CARTESIAN_POINT ( 'NONE',  ( 0.000000000000000000, 0.000000000000000000, 0.000000000000000000 ) ) ;
#207 = EDGE_CURVE ( 'NONE', #122, #210, #290, .T. ) ;
#208 = FILL_AREA_STYLE ('',( #25 ) ) ;
#209 = EDGE_LOOP ( 'NONE', ( #168, #29 ) ) ;
#210 = VERTEX_POINT ( 'NONE', #193 ) ;
#211 = APPLICATION_PROTOCOL_DEFINITION ( 'draft international standard', 'automotive_design', 1998, #4 ) ;
#212 = ORIENTED_EDGE ( 'NONE', *, *, #282, .T. ) ;
#213 = ORIENTED_EDGE ( 'NONE', *, *, #162, .T. ) ;
#214 = MECHANICAL_DESIGN_GEOMETRIC_PRESENTATION_REPRESENTATION (  '', ( #231 ), #275 ) ;
#215 = VECTOR ( 'NONE', #272, 39.37007874015748143 ) ;
#216 = EDGE_LOOP ( 'NONE', ( #141, #188 ) ) ;
#217 = ORIENTED_EDGE ( 'NONE', *, *, #46, .T. ) ;
#218 = VERTEX_POINT ( 'NONE', #114 ) ;
#219 = COLOUR_RGB ( '',1.000000000000000000, 0.000000000000000000, 0.000000000000000000 ) ;
#220 = UNCERTAINTY_MEASURE_WITH_UNIT (LENGTH_MEASURE( 1.000000000000000082E-05 ), #178, 'distance_accuracy_value', 'NONE');
#221 = DIRECTION ( 'NONE',  ( -0.000000000000000000, -1.000000000000000000, -0.000000000000000000 ) ) ;
#222 = FILL_AREA_STYLE_COLOUR ( '', #102 ) ;
#223 = COLOUR_RGB ( '',1.000000000000000000, 0.000000000000000000, 0.000000000000000000 ) ;
#224 = CARTESIAN_POINT ( 'NONE',  ( 0.000000000000000000, 1.000000000000000000, 0.000000000000000000 ) ) ;
#225 =( LENGTH_UNIT ( ) NAMED_UNIT ( * ) SI_UNIT ( $, .METRE. ) );
#226 = AXIS2_PLACEMENT_3D ( 'NONE', #206, #72, #205 ) ;
#227 = DIRECTION ( 'NONE',  ( -1.000000000000000000, 0.000000000000000000, 0.000000000000000000 ) ) ;
#228 = MANIFOLD_SOLID_BREP ( 'Revolve - Tool Body (Straight Shanked)', #74 ) ;
#229 = LENGTH_MEASURE_WITH_UNIT ( LENGTH_MEASURE( 0.02539999999999999897 ), #42 );
#230 = CARTESIAN_POINT ( 'NONE',  ( 0.000000000000000000, 0.000000000000000000, 0.000000000000000000 ) ) ;
#231 = STYLED_ITEM ( 'NONE', ( #172 ), #28 ) ;
#232 = STYLED_ITEM ( 'NONE', ( #273 ), #50 ) ;
#233 = ORIENTED_EDGE ( 'NONE', *, *, #71, .F. ) ;
#234 = FILL_AREA_STYLE_COLOUR ( '', #307 ) ;
#235 = STYLED_ITEM ( 'NONE', ( #151 ), #228 ) ;
#236 = ORIENTED_EDGE ( 'NONE', *, *, #237, .F. ) ;
#237 = EDGE_CURVE ( 'NONE', #287, #218, #175, .T. ) ;
#238 = DIRECTION ( 'NONE',  ( -0.000000000000000000, -1.000000000000000000, -0.000000000000000000 ) ) ;
#239 = LENGTH_MEASURE_WITH_UNIT ( LENGTH_MEASURE( 0.02539999999999999897 ), #154 );
#240 = PLANE ( 'NONE',  #139 ) ;
#241 = AXIS2_PLACEMENT_3D ( 'NONE', #184, #306, #280 ) ;
#242 = FILL_AREA_STYLE ('',( #267 ) ) ;
#243 =( CONVERSION_BASED_UNIT ( 'INCH', #239 ) LENGTH_UNIT ( ) NAMED_UNIT ( #269 ) );
#244 =( CONVERSION_BASED_UNIT ( 'INCH', #92 ) LENGTH_UNIT ( ) NAMED_UNIT ( #257 ) );
#245 = PRODUCT_RELATED_PRODUCT_CATEGORY ( 'part', '', ( #246 ) ) ;
#246 = PRODUCT ( '01345', '01345', '', ( #101 ) ) ;
#247 = CLOSED_SHELL ( 'NONE', ( #173, #263, #50, #28 ) ) ;
#248 = SURFACE_STYLE_USAGE ( .BOTH. , #86 ) ;
#249 = FACE_OUTER_BOUND ( 'NONE', #53, .T. ) ;
#250 = CARTESIAN_POINT ( 'NONE',  ( 0.1875000000000000278, 3.000000000000000444, 0.000000000000000000 ) ) ;
#251 = PLANE ( 'NONE',  #271 ) ;
#252 = FACE_OUTER_BOUND ( 'NONE', #32, .T. ) ;
#253 = DIRECTION ( 'NONE',  ( -1.000000000000000000, 0.000000000000000000, 0.000000000000000000 ) ) ;
#254 = EDGE_CURVE ( 'NONE', #287, #259, #144, .T. ) ;
#255 = ORIENTED_EDGE ( 'NONE', *, *, #46, .F. ) ;
#256 = CARTESIAN_POINT ( 'NONE',  ( 0.1875000000000000278, 1.000000000000000000, 2.296212748401288650E-17 ) ) ;
#257 = DIMENSIONAL_EXPONENTS ( 1.000000000000000000, 0.000000000000000000, 0.000000000000000000, 0.000000000000000000, 0.000000000000000000, 0.000000000000000000, 0.000000000000000000 ) ;
#258 = DIRECTION ( 'NONE',  ( -1.000000000000000000, 0.000000000000000000, 0.000000000000000000 ) ) ;
#259 = VERTEX_POINT ( 'NONE', #109 ) ;
#260 = CARTESIAN_POINT ( 'NONE',  ( 3.032960542342103792E-32, 1.000000000000000000, 0.000000000000000000 ) ) ;
#261 = MECHANICAL_DESIGN_GEOMETRIC_PRESENTATION_REPRESENTATION (  '', ( #95 ), #133 ) ;
#262 =( GEOMETRIC_REPRESENTATION_CONTEXT ( 3 ) GLOBAL_UNCERTAINTY_ASSIGNED_CONTEXT ( ( #183 ) ) GLOBAL_UNIT_ASSIGNED_CONTEXT ( ( #68, #103, #165 ) ) REPRESENTATION_CONTEXT ( 'NONE', 'WORKASPACE' ) );
#263 = ADVANCED_FACE ( 'NONE', ( #274 ), #148, .T. ) ;
#264 = PRODUCT_DEFINITION_FORMATION_WITH_SPECIFIED_SOURCE ( 'ANY', '', #246, .NOT_KNOWN. ) ;
#265 = DIRECTION ( 'NONE',  ( -6.123233995736769734E-17, 1.000000000000000000, -0.000000000000000000 ) ) ;
#266 = ORIENTED_EDGE ( 'NONE', *, *, #207, .F. ) ;
#267 = FILL_AREA_STYLE_COLOUR ( '', #185 ) ;
#268 = DIRECTION ( 'NONE',  ( 0.000000000000000000, 0.000000000000000000, 1.000000000000000000 ) ) ;
#269 = DIMENSIONAL_EXPONENTS ( 1.000000000000000000, 0.000000000000000000, 0.000000000000000000, 0.000000000000000000, 0.000000000000000000, 0.000000000000000000, 0.000000000000000000 ) ;
#270 = DIRECTION ( 'NONE',  ( -0.000000000000000000, -1.000000000000000000, -0.000000000000000000 ) ) ;
#271 = AXIS2_PLACEMENT_3D ( 'NONE', #304, #118, #69 ) ;
#272 = DIRECTION ( 'NONE',  ( -0.000000000000000000, -1.000000000000000000, -0.000000000000000000 ) ) ;
#273 = PRESENTATION_STYLE_ASSIGNMENT (( #177 ) ) ;
#274 = FACE_OUTER_BOUND ( 'NONE', #216, .T. ) ;
#275 =( GEOMETRIC_REPRESENTATION_CONTEXT ( 3 ) GLOBAL_UNCERTAINTY_ASSIGNED_CONTEXT ( ( #220 ) ) GLOBAL_UNIT_ASSIGNED_CONTEXT ( ( #178, #194, #66 ) ) REPRESENTATION_CONTEXT ( 'NONE', 'WORKASPACE' ) );
#276 = CIRCLE ( 'NONE', #226, 0.1875000000000000278 ) ;
#277 = PRODUCT_DEFINITION_CONTEXT ( 'detailed design', #38, 'design' ) ;
#278 = CARTESIAN_POINT ( 'NONE',  ( 0.000000000000000000, 0.000000000000000000, 0.000000000000000000 ) ) ;
#279 = CIRCLE ( 'NONE', #108, 0.1875000000000001388 ) ;
#280 = DIRECTION ( 'NONE',  ( -1.000000000000000000, 0.000000000000000000, 0.000000000000000000 ) ) ;
#281 = DIRECTION ( 'NONE',  ( -0.000000000000000000, -1.000000000000000000, -0.000000000000000000 ) ) ;
#282 = EDGE_CURVE ( 'NONE', #259, #77, #131, .T. ) ;
#283 = ORIENTED_EDGE ( 'NONE', *, *, #8, .F. ) ;
#284 = SHAPE_DEFINITION_REPRESENTATION ( #48, #127 ) ;
#285 = AXIS2_PLACEMENT_3D ( 'NONE', #260, #190, #258 ) ;
#286 = AXIS2_PLACEMENT_3D ( 'NONE', #191, #238, #189 ) ;
#287 = VERTEX_POINT ( 'NONE', #65 ) ;
#288 = DIRECTION ( 'NONE',  ( 1.000000000000000000, 0.000000000000000000, 0.000000000000000000 ) ) ;
#289 = ORIENTED_EDGE ( 'NONE', *, *, #34, .T. ) ;
#290 = LINE ( 'NONE', #78, #6 ) ;
#291 =( CONVERSION_BASED_UNIT ( 'INCH', #192 ) LENGTH_UNIT ( ) NAMED_UNIT ( #58 ) );
#292 = EDGE_LOOP ( 'NONE', ( #255, #213, #79, #5 ) ) ;
#293 = PRESENTATION_LAYER_ASSIGNMENT (  '', '', ( #231 ) ) ;
#294 = AXIS2_PLACEMENT_3D ( 'NONE', #195, #130, #39 ) ;
#295 = SURFACE_STYLE_USAGE ( .BOTH. , #83 ) ;
#296 = PRODUCT_DEFINITION ( 'UNKNOWN', '', #264, #277 ) ;
#297 = DIRECTION ( 'NONE',  ( 0.000000000000000000, 0.000000000000000000, -1.000000000000000000 ) ) ;
#298 = STYLED_ITEM ( 'NONE', ( #156 ), #173 ) ;
#299 = DIRECTION ( 'NONE',  ( -0.000000000000000000, -1.000000000000000000, -0.000000000000000000 ) ) ;
#300 = SURFACE_SIDE_STYLE ('',( #20 ) ) ;
#301 = FACE_OUTER_BOUND ( 'NONE', #292, .T. ) ;
#302 = UNCERTAINTY_MEASURE_WITH_UNIT (LENGTH_MEASURE( 1.000000000000000082E-05 ), #291, 'distance_accuracy_value', 'NONE');
#303 = AXIS2_PLACEMENT_3D ( 'NONE', #182, #70, #253 ) ;
#304 = CARTESIAN_POINT ( 'NONE',  ( 3.515061990613733472E-34, 1.000000000000000000, 0.000000000000000000 ) ) ;
#305 = UNCERTAINTY_MEASURE_WITH_UNIT (LENGTH_MEASURE( 1.000000000000000082E-05 ), #203, 'distance_accuracy_value', 'NONE');
#306 = DIRECTION ( 'NONE',  ( -6.123233995736769734E-17, 1.000000000000000000, -0.000000000000000000 ) ) ;
#307 = COLOUR_RGB ( '',0.7921568627450980005, 0.8196078431372548767, 0.9333333333333333481 ) ;
#308 = PRESENTATION_LAYER_ASSIGNMENT (  '', '', ( #298 ) ) ;
#309 = DIRECTION ( 'NONE',  ( -6.123233995736769734E-17, 1.000000000000000000, -0.000000000000000000 ) ) ;
ENDSEC;
END-ISO-10303-21;
