ISO-10303-21;
HEADER;
FILE_DESCRIPTION (( 'STEP AP214' ),
    '1' );
FILE_NAME ('81398.STEP',
    '2023-06-23T01:01:49',
    ( '' ),
    ( '' ),
    'SwSTEP 2.0',
    'SolidWorks 2023',
    '' );
FILE_SCHEMA (( 'AUTOMOTIVE_DESIGN' ));
ENDSEC;

DATA;
#1 = FILL_AREA_STYLE_COLOUR ( '', #218 ) ;
#2 = CARTESIAN_POINT ( 'NONE',  ( 9.564794532282254349E-34, 0.7499999999999998890, 0.000000000000000000 ) ) ;
#3 = PRESENTATION_LAYER_ASSIGNMENT (  '', '', ( #160 ) ) ;
#4 = CARTESIAN_POINT ( 'NONE',  ( 0.000000000000000000, 0.000000000000000000, 0.000000000000000000 ) ) ;
#5 = LENGTH_MEASURE_WITH_UNIT ( LENGTH_MEASURE( 0.02539999999999999897 ), #143 );
#6 = ADVANCED_FACE ( 'NONE', ( #26 ), #70, .F. ) ;
#7 = PRESENTATION_STYLE_ASSIGNMENT (( #37 ) ) ;
#8 = CARTESIAN_POINT ( 'NONE',  ( 0.000000000000000000, 0.7499999999999998890, -0.06250000000000001388 ) ) ;
#9 = CIRCLE ( 'NONE', #243, 0.06250000000000001388 ) ;
#10 = ADVANCED_FACE ( 'NONE', ( #139 ), #185, .T. ) ;
#11 = PLANE ( 'NONE',  #290 ) ;
#12 = AXIS2_PLACEMENT_3D ( 'NONE', #4, #208, #211 ) ;
#13 = PRODUCT_DEFINITION_FORMATION_WITH_SPECIFIED_SOURCE ( 'ANY', '', #44, .NOT_KNOWN. ) ;
#14 = ORIENTED_EDGE ( 'NONE', *, *, #295, .T. ) ;
#15 =( LENGTH_UNIT ( ) NAMED_UNIT ( * ) SI_UNIT ( $, .METRE. ) );
#16 = ORIENTED_EDGE ( 'NONE', *, *, #256, .T. ) ;
#17 = LENGTH_MEASURE_WITH_UNIT ( LENGTH_MEASURE( 0.02539999999999999897 ), #86 );
#18 = ORIENTED_EDGE ( 'NONE', *, *, #73, .F. ) ;
#19 = CIRCLE ( 'NONE', #154, 0.06249999999999970857 ) ;
#20 = SURFACE_STYLE_USAGE ( .BOTH. , #45 ) ;
#21 = FILL_AREA_STYLE ('',( #219 ) ) ;
#22 = ADVANCED_BREP_SHAPE_REPRESENTATION ( '81398', ( #261, #255, #262 ), #28 ) ;
#23 = ORIENTED_EDGE ( 'NONE', *, *, #73, .T. ) ;
#24 = APPLICATION_CONTEXT ( 'automotive_design' ) ;
#25 = EDGE_CURVE ( 'NONE', #66, #47, #301, .T. ) ;
#26 = FACE_OUTER_BOUND ( 'NONE', #248, .T. ) ;
#27 = COLOUR_RGB ( '',1.000000000000000000, 0.000000000000000000, 0.000000000000000000 ) ;
#28 =( GEOMETRIC_REPRESENTATION_CONTEXT ( 3 ) GLOBAL_UNCERTAINTY_ASSIGNED_CONTEXT ( ( #263 ) ) GLOBAL_UNIT_ASSIGNED_CONTEXT ( ( #156, #48, #199 ) ) REPRESENTATION_CONTEXT ( 'NONE', 'WORKASPACE' ) );
#29 = LENGTH_MEASURE_WITH_UNIT ( LENGTH_MEASURE( 0.02539999999999999897 ), #234 );
#30 = EDGE_LOOP ( 'NONE', ( #178, #145, #133, #231 ) ) ;
#31 = SHAPE_DEFINITION_REPRESENTATION ( #100, #22 ) ;
#32 =( GEOMETRIC_REPRESENTATION_CONTEXT ( 3 ) GLOBAL_UNCERTAINTY_ASSIGNED_CONTEXT ( ( #97 ) ) GLOBAL_UNIT_ASSIGNED_CONTEXT ( ( #33, #286, #167 ) ) REPRESENTATION_CONTEXT ( 'NONE', 'WORKASPACE' ) );
#33 =( CONVERSION_BASED_UNIT ( 'INCH', #5 ) LENGTH_UNIT ( ) NAMED_UNIT ( #259 ) );
#34 =( NAMED_UNIT ( * ) PLANE_ANGLE_UNIT ( ) SI_UNIT ( $, .RADIAN. ) );
#35 = DIMENSIONAL_EXPONENTS ( 1.000000000000000000, 0.000000000000000000, 0.000000000000000000, 0.000000000000000000, 0.000000000000000000, 0.000000000000000000, 0.000000000000000000 ) ;
#36 = CARTESIAN_POINT ( 'NONE',  ( 7.654042494670959086E-18, 0.000000000000000000, 0.06250000000000001388 ) ) ;
#37 = SURFACE_STYLE_USAGE ( .BOTH. , #101 ) ;
#38 =( NAMED_UNIT ( * ) SI_UNIT ( $, .STERADIAN. ) SOLID_ANGLE_UNIT ( ) );
#39 = PRESENTATION_LAYER_ASSIGNMENT (  '', '', ( #266 ) ) ;
#40 = CARTESIAN_POINT ( 'NONE',  ( 0.000000000000000000, 0.000000000000000000, 0.000000000000000000 ) ) ;
#41 = SURFACE_SIDE_STYLE ('',( #307 ) ) ;
#42 = PRESENTATION_LAYER_ASSIGNMENT (  '', '', ( #131 ) ) ;
#43 = ORIENTED_EDGE ( 'NONE', *, *, #170, .F. ) ;
#44 = PRODUCT ( '81398', '81398', '', ( #257 ) ) ;
#45 = SURFACE_SIDE_STYLE ('',( #68 ) ) ;
#46 = EDGE_CURVE ( 'NONE', #47, #66, #98, .T. ) ;
#47 = VERTEX_POINT ( 'NONE', #58 ) ;
#48 =( NAMED_UNIT ( * ) PLANE_ANGLE_UNIT ( ) SI_UNIT ( $, .RADIAN. ) );
#49 = DIRECTION ( 'NONE',  ( -1.000000000000000000, 1.749495427353361372E-16, 0.000000000000000000 ) ) ;
#50 = PLANE ( 'NONE',  #249 ) ;
#51 = CARTESIAN_POINT ( 'NONE',  ( 3.061616997868383141E-16, 2.500000000000000000, 0.000000000000000000 ) ) ;
#52 =( GEOMETRIC_REPRESENTATION_CONTEXT ( 3 ) GLOBAL_UNCERTAINTY_ASSIGNED_CONTEXT ( ( #61 ) ) GLOBAL_UNIT_ASSIGNED_CONTEXT ( ( #226, #111, #122 ) ) REPRESENTATION_CONTEXT ( 'NONE', 'WORKASPACE' ) );
#53 = STYLED_ITEM ( 'NONE', ( #244 ), #261 ) ;
#54 = CARTESIAN_POINT ( 'NONE',  ( 0.000000000000000000, 0.7499999999999998890, 0.000000000000000000 ) ) ;
#55 = FACE_OUTER_BOUND ( 'NONE', #30, .T. ) ;
#56 = DIRECTION ( 'NONE',  ( -1.749495427353361372E-16, -1.000000000000000000, 0.000000000000000000 ) ) ;
#57 = AXIS2_PLACEMENT_3D ( 'NONE', #239, #144, #190 ) ;
#58 = CARTESIAN_POINT ( 'NONE',  ( -0.06250000000000001388, 0.7499999999999998890, 0.000000000000000000 ) ) ;
#59 = DIRECTION ( 'NONE',  ( 1.749495427353361372E-16, 1.000000000000000000, -0.000000000000000000 ) ) ;
#60 = DIRECTION ( 'NONE',  ( -1.000000000000000000, 0.000000000000000000, 0.000000000000000000 ) ) ;
#61 = UNCERTAINTY_MEASURE_WITH_UNIT (LENGTH_MEASURE( 1.000000000000000082E-05 ), #226, 'distance_accuracy_value', 'NONE');
#62 = ADVANCED_FACE ( 'NONE', ( #94 ), #79, .F. ) ;
#63 = VERTEX_POINT ( 'NONE', #150 ) ;
#64 = EDGE_CURVE ( 'NONE', #175, #87, #297, .T. ) ;
#65 = PRESENTATION_STYLE_ASSIGNMENT (( #20 ) ) ;
#66 = VERTEX_POINT ( 'NONE', #288 ) ;
#67 = CARTESIAN_POINT ( 'NONE',  ( 0.000000000000000000, 0.000000000000000000, 0.000000000000000000 ) ) ;
#68 = SURFACE_STYLE_FILL_AREA ( #274 ) ;
#69 = SURFACE_SIDE_STYLE ('',( #227 ) ) ;
#70 = PLANE ( 'NONE',  #162 ) ;
#71 = MECHANICAL_DESIGN_GEOMETRIC_PRESENTATION_REPRESENTATION (  '', ( #131 ), #224 ) ;
#72 = LINE ( 'NONE', #74, #136 ) ;
#73 = EDGE_CURVE ( 'NONE', #47, #303, #148, .T. ) ;
#74 = CARTESIAN_POINT ( 'NONE',  ( 0.06250000000000016653, 2.500000000000000000, 7.654042494670940597E-18 ) ) ;
#75 = EDGE_LOOP ( 'NONE', ( #279, #135, #220, #18 ) ) ;
#76 = SURFACE_SIDE_STYLE ('',( #165 ) ) ;
#77 = FILL_AREA_STYLE_COLOUR ( '', #89 ) ;
#78 = PRESENTATION_LAYER_ASSIGNMENT (  '', '', ( #152 ) ) ;
#79 = PLANE ( 'NONE',  #153 ) ;
#80 = UNCERTAINTY_MEASURE_WITH_UNIT (LENGTH_MEASURE( 1.000000000000000082E-05 ), #118, 'distance_accuracy_value', 'NONE');
#81 = DIRECTION ( 'NONE',  ( -0.000000000000000000, -1.000000000000000000, -0.000000000000000000 ) ) ;
#82 = CARTESIAN_POINT ( 'NONE',  ( 0.000000000000000000, 0.000000000000000000, -0.06250000000000001388 ) ) ;
#83 = MECHANICAL_DESIGN_GEOMETRIC_PRESENTATION_REPRESENTATION (  '', ( #305 ), #283 ) ;
#84 = ORIENTED_EDGE ( 'NONE', *, *, #217, .F. ) ;
#85 = EDGE_LOOP ( 'NONE', ( #43, #285, #23, #84 ) ) ;
#86 =( LENGTH_UNIT ( ) NAMED_UNIT ( * ) SI_UNIT ( $, .METRE. ) );
#87 = VERTEX_POINT ( 'NONE', #82 ) ;
#88 = FILL_AREA_STYLE_COLOUR ( '', #27 ) ;
#89 = COLOUR_RGB ( '',1.000000000000000000, 0.000000000000000000, 0.000000000000000000 ) ;
#90 = ORIENTED_EDGE ( 'NONE', *, *, #217, .T. ) ;
#91 = CARTESIAN_POINT ( 'NONE',  ( 3.061616997868383141E-16, 2.500000000000000000, 0.000000000000000000 ) ) ;
#92 = ORIENTED_EDGE ( 'NONE', *, *, #252, .F. ) ;
#93 = AXIS2_PLACEMENT_3D ( 'NONE', #229, #183, #192 ) ;
#94 = FACE_OUTER_BOUND ( 'NONE', #195, .T. ) ;
#95 = DIMENSIONAL_EXPONENTS ( 1.000000000000000000, 0.000000000000000000, 0.000000000000000000, 0.000000000000000000, 0.000000000000000000, 0.000000000000000000, 0.000000000000000000 ) ;
#96 = LINE ( 'NONE', #36, #197 ) ;
#97 = UNCERTAINTY_MEASURE_WITH_UNIT (LENGTH_MEASURE( 1.000000000000000082E-05 ), #33, 'distance_accuracy_value', 'NONE');
#98 = CIRCLE ( 'NONE', #203, 0.06250000000000001388 ) ;
#99 =( LENGTH_UNIT ( ) NAMED_UNIT ( * ) SI_UNIT ( $, .METRE. ) );
#100 = PRODUCT_DEFINITION_SHAPE ( 'NONE', 'NONE',  #212 ) ;
#101 = SURFACE_SIDE_STYLE ('',( #238 ) ) ;
#102 = CIRCLE ( 'NONE', #242, 0.06250000000000001388 ) ;
#103 = ORIENTED_EDGE ( 'NONE', *, *, #64, .T. ) ;
#104 = DIRECTION ( 'NONE',  ( 0.000000000000000000, 0.000000000000000000, -1.000000000000000000 ) ) ;
#105 = EDGE_LOOP ( 'NONE', ( #164, #298 ) ) ;
#106 = DIRECTION ( 'NONE',  ( -0.000000000000000000, -1.000000000000000000, -0.000000000000000000 ) ) ;
#107 = COLOUR_RGB ( '',1.000000000000000000, 0.000000000000000000, 0.000000000000000000 ) ;
#108 = CARTESIAN_POINT ( 'NONE',  ( 0.000000000000000000, 0.000000000000000000, -0.06250000000000001388 ) ) ;
#109 = CARTESIAN_POINT ( 'NONE',  ( 0.000000000000000000, 0.000000000000000000, 0.000000000000000000 ) ) ;
#110 = ADVANCED_FACE ( 'NONE', ( #128 ), #11, .T. ) ;
#111 =( NAMED_UNIT ( * ) PLANE_ANGLE_UNIT ( ) SI_UNIT ( $, .RADIAN. ) );
#112 = VERTEX_POINT ( 'NONE', #228 ) ;
#113 = FACE_OUTER_BOUND ( 'NONE', #105, .T. ) ;
#114 = FILL_AREA_STYLE_COLOUR ( '', #107 ) ;
#115 = COLOUR_RGB ( '',0.7921568627450980005, 0.8196078431372548767, 0.9333333333333333481 ) ;
#116 = SURFACE_SIDE_STYLE ('',( #264 ) ) ;
#117 = ADVANCED_FACE ( 'NONE', ( #161 ), #253, .T. ) ;
#118 =( CONVERSION_BASED_UNIT ( 'INCH', #29 ) LENGTH_UNIT ( ) NAMED_UNIT ( #287 ) );
#119 = CARTESIAN_POINT ( 'NONE',  ( 0.000000000000000000, 0.000000000000000000, 0.000000000000000000 ) ) ;
#120 = CLOSED_SHELL ( 'NONE', ( #126, #6, #10, #62 ) ) ;
#121 = MECHANICAL_DESIGN_GEOMETRIC_PRESENTATION_REPRESENTATION (  '', ( #53 ), #267 ) ;
#122 =( NAMED_UNIT ( * ) SI_UNIT ( $, .STERADIAN. ) SOLID_ANGLE_UNIT ( ) );
#123 = UNCERTAINTY_MEASURE_WITH_UNIT (LENGTH_MEASURE( 1.000000000000000082E-05 ), #265, 'distance_accuracy_value', 'NONE');
#124 = DIRECTION ( 'NONE',  ( 0.000000000000000000, 0.000000000000000000, -1.000000000000000000 ) ) ;
#125 = DIRECTION ( 'NONE',  ( -0.000000000000000000, -1.000000000000000000, -0.000000000000000000 ) ) ;
#126 = ADVANCED_FACE ( 'NONE', ( #250 ), #254, .T. ) ;
#127 = DIRECTION ( 'NONE',  ( 1.000000000000000000, -1.749495427353361372E-16, 0.000000000000000000 ) ) ;
#128 = FACE_OUTER_BOUND ( 'NONE', #304, .T. ) ;
#129 = CLOSED_SHELL ( 'NONE', ( #181, #166, #117, #110 ) ) ;
#130 = PRODUCT_RELATED_PRODUCT_CATEGORY ( 'part', '', ( #44 ) ) ;
#131 = STYLED_ITEM ( 'NONE', ( #308 ), #255 ) ;
#132 = EDGE_CURVE ( 'NONE', #225, #63, #102, .T. ) ;
#133 = ORIENTED_EDGE ( 'NONE', *, *, #256, .F. ) ;
#134 =( CONVERSION_BASED_UNIT ( 'INCH', #159 ) LENGTH_UNIT ( ) NAMED_UNIT ( #186 ) );
#135 = ORIENTED_EDGE ( 'NONE', *, *, #170, .T. ) ;
#136 = VECTOR ( 'NONE', #141, 39.37007874015748143 ) ;
#137 = DIRECTION ( 'NONE',  ( -1.000000000000000000, 0.000000000000000000, 0.000000000000000000 ) ) ;
#138 = DIRECTION ( 'NONE',  ( 0.000000000000000000, 0.000000000000000000, -1.000000000000000000 ) ) ;
#139 = FACE_OUTER_BOUND ( 'NONE', #85, .T. ) ;
#140 = DIRECTION ( 'NONE',  ( -1.000000000000000000, 0.000000000000000000, 0.000000000000000000 ) ) ;
#141 = DIRECTION ( 'NONE',  ( 1.749495427353361372E-16, 1.000000000000000000, -0.000000000000000000 ) ) ;
#142 = VECTOR ( 'NONE', #247, 39.37007874015748143 ) ;
#143 =( LENGTH_UNIT ( ) NAMED_UNIT ( * ) SI_UNIT ( $, .METRE. ) );
#144 = DIRECTION ( 'NONE',  ( 1.749495427353361372E-16, 1.000000000000000000, -0.000000000000000000 ) ) ;
#145 = ORIENTED_EDGE ( 'NONE', *, *, #252, .T. ) ;
#146 = PRESENTATION_STYLE_ASSIGNMENT (( #258 ) ) ;
#147 = AXIS2_PLACEMENT_3D ( 'NONE', #40, #81, #124 ) ;
#148 = LINE ( 'NONE', #215, #174 ) ;
#149 = CYLINDRICAL_SURFACE ( 'NONE', #12, 0.06250000000000001388 ) ;
#150 = CARTESIAN_POINT ( 'NONE',  ( 7.654042494670959086E-18, 0.7499999999999998890, 0.06250000000000001388 ) ) ;
#151 = EDGE_CURVE ( 'NONE', #225, #87, #299, .T. ) ;
#152 = STYLED_ITEM ( 'NONE', ( #177 ), #117 ) ;
#153 = AXIS2_PLACEMENT_3D ( 'NONE', #294, #56, #127 ) ;
#154 = AXIS2_PLACEMENT_3D ( 'NONE', #51, #176, #140 ) ;
#155 = DIRECTION ( 'NONE',  ( -0.000000000000000000, -1.000000000000000000, -0.000000000000000000 ) ) ;
#156 =( CONVERSION_BASED_UNIT ( 'INCH', #251 ) LENGTH_UNIT ( ) NAMED_UNIT ( #35 ) );
#157 = DIRECTION ( 'NONE',  ( -0.000000000000000000, -1.000000000000000000, -0.000000000000000000 ) ) ;
#158 = ORIENTED_EDGE ( 'NONE', *, *, #64, .F. ) ;
#159 = LENGTH_MEASURE_WITH_UNIT ( LENGTH_MEASURE( 0.02539999999999999897 ), #15 );
#160 = STYLED_ITEM ( 'NONE', ( #146 ), #181 ) ;
#161 = FACE_OUTER_BOUND ( 'NONE', #271, .T. ) ;
#162 = AXIS2_PLACEMENT_3D ( 'NONE', #2, #189, #49 ) ;
#163 = FILL_AREA_STYLE ('',( #206 ) ) ;
#164 = ORIENTED_EDGE ( 'NONE', *, *, #132, .F. ) ;
#165 = SURFACE_STYLE_FILL_AREA ( #163 ) ;
#166 = ADVANCED_FACE ( 'NONE', ( #113 ), #50, .T. ) ;
#167 =( NAMED_UNIT ( * ) SI_UNIT ( $, .STERADIAN. ) SOLID_ANGLE_UNIT ( ) );
#168 = MECHANICAL_DESIGN_GEOMETRIC_PRESENTATION_REPRESENTATION (  '', ( #266 ), #52 ) ;
#169 = DIRECTION ( 'NONE',  ( 1.749495427353361372E-16, 1.000000000000000000, -0.000000000000000000 ) ) ;
#170 = EDGE_CURVE ( 'NONE', #66, #112, #72, .T. ) ;
#171 = DIMENSIONAL_EXPONENTS ( 1.000000000000000000, 0.000000000000000000, 0.000000000000000000, 0.000000000000000000, 0.000000000000000000, 0.000000000000000000, 0.000000000000000000 ) ;
#172 = UNCERTAINTY_MEASURE_WITH_UNIT (LENGTH_MEASURE( 1.000000000000000082E-05 ), #134, 'distance_accuracy_value', 'NONE');
#173 = FILL_AREA_STYLE ('',( #77 ) ) ;
#174 = VECTOR ( 'NONE', #59, 39.37007874015748143 ) ;
#175 = VERTEX_POINT ( 'NONE', #284 ) ;
#176 = DIRECTION ( 'NONE',  ( 1.749495427353361372E-16, 1.000000000000000000, -0.000000000000000000 ) ) ;
#177 = PRESENTATION_STYLE_ASSIGNMENT (( #302 ) ) ;
#178 = ORIENTED_EDGE ( 'NONE', *, *, #132, .T. ) ;
#179 = DIRECTION ( 'NONE',  ( 0.000000000000000000, 0.000000000000000000, -1.000000000000000000 ) ) ;
#180 =( NAMED_UNIT ( * ) SI_UNIT ( $, .STERADIAN. ) SOLID_ANGLE_UNIT ( ) );
#181 = ADVANCED_FACE ( 'NONE', ( #55 ), #149, .T. ) ;
#182 = LENGTH_MEASURE_WITH_UNIT ( LENGTH_MEASURE( 0.02539999999999999897 ), #221 );
#183 = DIRECTION ( 'NONE',  ( 1.749495427353361372E-16, 1.000000000000000000, -0.000000000000000000 ) ) ;
#184 = APPLICATION_PROTOCOL_DEFINITION ( 'draft international standard', 'automotive_design', 1998, #24 ) ;
#185 = CYLINDRICAL_SURFACE ( 'NONE', #93, 0.06249999999999986122 ) ;
#186 = DIMENSIONAL_EXPONENTS ( 1.000000000000000000, 0.000000000000000000, 0.000000000000000000, 0.000000000000000000, 0.000000000000000000, 0.000000000000000000, 0.000000000000000000 ) ;
#187 =( GEOMETRIC_REPRESENTATION_CONTEXT ( 3 ) GLOBAL_UNCERTAINTY_ASSIGNED_CONTEXT ( ( #172 ) ) GLOBAL_UNIT_ASSIGNED_CONTEXT ( ( #134, #306, #198 ) ) REPRESENTATION_CONTEXT ( 'NONE', 'WORKASPACE' ) );
#188 = CIRCLE ( 'NONE', #277, 0.06250000000000001388 ) ;
#189 = DIRECTION ( 'NONE',  ( 1.749495427353361372E-16, 1.000000000000000000, -0.000000000000000000 ) ) ;
#190 = DIRECTION ( 'NONE',  ( -1.000000000000000000, 0.000000000000000000, 0.000000000000000000 ) ) ;
#191 = CARTESIAN_POINT ( 'NONE',  ( 0.000000000000000000, 0.000000000000000000, 0.000000000000000000 ) ) ;
#192 = DIRECTION ( 'NONE',  ( -1.000000000000000000, 0.000000000000000000, 0.000000000000000000 ) ) ;
#193 = CARTESIAN_POINT ( 'NONE',  ( 0.000000000000000000, 0.7499999999999998890, 0.000000000000000000 ) ) ;
#194 = COLOUR_RGB ( '',1.000000000000000000, 0.000000000000000000, 0.000000000000000000 ) ;
#195 = EDGE_LOOP ( 'NONE', ( #14, #90 ) ) ;
#196 = DIRECTION ( 'NONE',  ( 1.749495427353361372E-16, 1.000000000000000000, -0.000000000000000000 ) ) ;
#197 = VECTOR ( 'NONE', #125, 39.37007874015748143 ) ;
#198 =( NAMED_UNIT ( * ) SI_UNIT ( $, .STERADIAN. ) SOLID_ANGLE_UNIT ( ) );
#199 =( NAMED_UNIT ( * ) SI_UNIT ( $, .STERADIAN. ) SOLID_ANGLE_UNIT ( ) );
#200 = APPLICATION_PROTOCOL_DEFINITION ( 'draft international standard', 'automotive_design', 1998, #293 ) ;
#201 = ORIENTED_EDGE ( 'NONE', *, *, #151, .T. ) ;
#202 = SURFACE_STYLE_USAGE ( .BOTH. , #69 ) ;
#203 = AXIS2_PLACEMENT_3D ( 'NONE', #296, #292, #240 ) ;
#204 = FILL_AREA_STYLE ('',( #114 ) ) ;
#205 = SURFACE_STYLE_USAGE ( .BOTH. , #116 ) ;
#206 = FILL_AREA_STYLE_COLOUR ( '', #194 ) ;
#207 = ORIENTED_EDGE ( 'NONE', *, *, #46, .F. ) ;
#208 = DIRECTION ( 'NONE',  ( -0.000000000000000000, -1.000000000000000000, -0.000000000000000000 ) ) ;
#209 = MECHANICAL_DESIGN_GEOMETRIC_PRESENTATION_REPRESENTATION (  '', ( #160 ), #32 ) ;
#210 = DIRECTION ( 'NONE',  ( 0.000000000000000000, 1.000000000000000000, 0.000000000000000000 ) ) ;
#211 = DIRECTION ( 'NONE',  ( 0.000000000000000000, 0.000000000000000000, -1.000000000000000000 ) ) ;
#212 = PRODUCT_DEFINITION ( 'UNKNOWN', '', #13, #281 ) ;
#213 = DIRECTION ( 'NONE',  ( 0.000000000000000000, 0.000000000000000000, -1.000000000000000000 ) ) ;
#214 = DIRECTION ( 'NONE',  ( -0.000000000000000000, -1.000000000000000000, -0.000000000000000000 ) ) ;
#215 = CARTESIAN_POINT ( 'NONE',  ( -0.06249999999999955591, 2.500000000000000000, 0.000000000000000000 ) ) ;
#216 =( NAMED_UNIT ( * ) SI_UNIT ( $, .STERADIAN. ) SOLID_ANGLE_UNIT ( ) );
#217 = EDGE_CURVE ( 'NONE', #112, #303, #276, .T. ) ;
#218 = COLOUR_RGB ( '',0.7921568627450980005, 0.8196078431372548767, 0.9333333333333333481 ) ;
#219 = FILL_AREA_STYLE_COLOUR ( '', #115 ) ;
#220 = ORIENTED_EDGE ( 'NONE', *, *, #295, .F. ) ;
#221 =( LENGTH_UNIT ( ) NAMED_UNIT ( * ) SI_UNIT ( $, .METRE. ) );
#222 = DIRECTION ( 'NONE',  ( 0.000000000000000000, 0.000000000000000000, -1.000000000000000000 ) ) ;
#223 = PRESENTATION_LAYER_ASSIGNMENT (  '', '', ( #305 ) ) ;
#224 =( GEOMETRIC_REPRESENTATION_CONTEXT ( 3 ) GLOBAL_UNCERTAINTY_ASSIGNED_CONTEXT ( ( #80 ) ) GLOBAL_UNIT_ASSIGNED_CONTEXT ( ( #118, #282, #216 ) ) REPRESENTATION_CONTEXT ( 'NONE', 'WORKASPACE' ) );
#225 = VERTEX_POINT ( 'NONE', #8 ) ;
#226 =( CONVERSION_BASED_UNIT ( 'INCH', #182 ) LENGTH_UNIT ( ) NAMED_UNIT ( #237 ) );
#227 = SURFACE_STYLE_FILL_AREA ( #21 ) ;
#228 = CARTESIAN_POINT ( 'NONE',  ( 0.06250000000000002776, 2.500000000000000000, 7.654042494670951382E-18 ) ) ;
#229 = CARTESIAN_POINT ( 'NONE',  ( 3.061616997868383141E-16, 2.500000000000000000, 0.000000000000000000 ) ) ;
#230 =( NAMED_UNIT ( * ) PLANE_ANGLE_UNIT ( ) SI_UNIT ( $, .RADIAN. ) );
#231 = ORIENTED_EDGE ( 'NONE', *, *, #151, .F. ) ;
#232 = AXIS2_PLACEMENT_3D ( 'NONE', #91, #196, #137 ) ;
#233 = DIRECTION ( 'NONE',  ( 0.000000000000000000, 0.000000000000000000, 1.000000000000000000 ) ) ;
#234 =( LENGTH_UNIT ( ) NAMED_UNIT ( * ) SI_UNIT ( $, .METRE. ) );
#235 = ORIENTED_EDGE ( 'NONE', *, *, #25, .F. ) ;
#236 = AXIS2_PLACEMENT_3D ( 'NONE', #193, #169, #60 ) ;
#237 = DIMENSIONAL_EXPONENTS ( 1.000000000000000000, 0.000000000000000000, 0.000000000000000000, 0.000000000000000000, 0.000000000000000000, 0.000000000000000000, 0.000000000000000000 ) ;
#238 = SURFACE_STYLE_FILL_AREA ( #173 ) ;
#239 = CARTESIAN_POINT ( 'NONE',  ( 3.061616997868383141E-16, 2.500000000000000000, 0.000000000000000000 ) ) ;
#240 = DIRECTION ( 'NONE',  ( -1.000000000000000000, 0.000000000000000000, 0.000000000000000000 ) ) ;
#241 = LENGTH_MEASURE_WITH_UNIT ( LENGTH_MEASURE( 0.02539999999999999897 ), #99 );
#242 = AXIS2_PLACEMENT_3D ( 'NONE', #278, #157, #104 ) ;
#243 = AXIS2_PLACEMENT_3D ( 'NONE', #191, #214, #213 ) ;
#244 = PRESENTATION_STYLE_ASSIGNMENT (( #202 ) ) ;
#245 = DIRECTION ( 'NONE',  ( 0.000000000000000000, -1.000000000000000000, -0.000000000000000000 ) ) ;
#246 = ORIENTED_EDGE ( 'NONE', *, *, #268, .T. ) ;
#247 = DIRECTION ( 'NONE',  ( -0.000000000000000000, -1.000000000000000000, -0.000000000000000000 ) ) ;
#248 = EDGE_LOOP ( 'NONE', ( #207, #235 ) ) ;
#249 = AXIS2_PLACEMENT_3D ( 'NONE', #54, #210, #280 ) ;
#250 = FACE_OUTER_BOUND ( 'NONE', #75, .T. ) ;
#251 = LENGTH_MEASURE_WITH_UNIT ( LENGTH_MEASURE( 0.02539999999999999897 ), #275 );
#252 = EDGE_CURVE ( 'NONE', #63, #175, #96, .T. ) ;
#253 = CYLINDRICAL_SURFACE ( 'NONE', #260, 0.06250000000000001388 ) ;
#254 = CYLINDRICAL_SURFACE ( 'NONE', #232, 0.06249999999999986122 ) ;
#255 = MANIFOLD_SOLID_BREP ( 'Revolve - Tool Body (Straight Shanked)', #120 ) ;
#256 = EDGE_CURVE ( 'NONE', #87, #175, #9, .T. ) ;
#257 = PRODUCT_CONTEXT ( 'NONE', #293, 'mechanical' ) ;
#258 = SURFACE_STYLE_USAGE ( .BOTH. , #76 ) ;
#259 = DIMENSIONAL_EXPONENTS ( 1.000000000000000000, 0.000000000000000000, 0.000000000000000000, 0.000000000000000000, 0.000000000000000000, 0.000000000000000000, 0.000000000000000000 ) ;
#260 = AXIS2_PLACEMENT_3D ( 'NONE', #67, #155, #179 ) ;
#261 = MANIFOLD_SOLID_BREP ( 'Revolve - Cutting Edge', #129 ) ;
#262 = AXIS2_PLACEMENT_3D ( 'NONE', #119, #233, #309 ) ;
#263 = UNCERTAINTY_MEASURE_WITH_UNIT (LENGTH_MEASURE( 1.000000000000000082E-05 ), #156, 'distance_accuracy_value', 'NONE');
#264 = SURFACE_STYLE_FILL_AREA ( #289 ) ;
#265 =( CONVERSION_BASED_UNIT ( 'INCH', #241 ) LENGTH_UNIT ( ) NAMED_UNIT ( #95 ) );
#266 = STYLED_ITEM ( 'NONE', ( #65 ), #166 ) ;
#267 =( GEOMETRIC_REPRESENTATION_CONTEXT ( 3 ) GLOBAL_UNCERTAINTY_ASSIGNED_CONTEXT ( ( #272 ) ) GLOBAL_UNIT_ASSIGNED_CONTEXT ( ( #300, #230, #180 ) ) REPRESENTATION_CONTEXT ( 'NONE', 'WORKASPACE' ) );
#268 = EDGE_CURVE ( 'NONE', #63, #225, #188, .T. ) ;
#269 = MECHANICAL_DESIGN_GEOMETRIC_PRESENTATION_REPRESENTATION (  '', ( #152 ), #187 ) ;
#270 = CARTESIAN_POINT ( 'NONE',  ( -0.06249999999999940326, 2.500000000000000000, 0.000000000000000000 ) ) ;
#271 = EDGE_LOOP ( 'NONE', ( #92, #246, #201, #158 ) ) ;
#272 = UNCERTAINTY_MEASURE_WITH_UNIT (LENGTH_MEASURE( 1.000000000000000082E-05 ), #300, 'distance_accuracy_value', 'NONE');
#273 = CARTESIAN_POINT ( 'NONE',  ( 0.000000000000000000, 0.7499999999999998890, 0.000000000000000000 ) ) ;
#274 = FILL_AREA_STYLE ('',( #88 ) ) ;
#275 =( LENGTH_UNIT ( ) NAMED_UNIT ( * ) SI_UNIT ( $, .METRE. ) );
#276 = CIRCLE ( 'NONE', #57, 0.06249999999999970857 ) ;
#277 = AXIS2_PLACEMENT_3D ( 'NONE', #273, #106, #222 ) ;
#278 = CARTESIAN_POINT ( 'NONE',  ( 0.000000000000000000, 0.7499999999999998890, 0.000000000000000000 ) ) ;
#279 = ORIENTED_EDGE ( 'NONE', *, *, #46, .T. ) ;
#280 = DIRECTION ( 'NONE',  ( 0.000000000000000000, -0.000000000000000000, 1.000000000000000000 ) ) ;
#281 = PRODUCT_DEFINITION_CONTEXT ( 'detailed design', #24, 'design' ) ;
#282 =( NAMED_UNIT ( * ) PLANE_ANGLE_UNIT ( ) SI_UNIT ( $, .RADIAN. ) );
#283 =( GEOMETRIC_REPRESENTATION_CONTEXT ( 3 ) GLOBAL_UNCERTAINTY_ASSIGNED_CONTEXT ( ( #123 ) ) GLOBAL_UNIT_ASSIGNED_CONTEXT ( ( #265, #34, #38 ) ) REPRESENTATION_CONTEXT ( 'NONE', 'WORKASPACE' ) );
#284 = CARTESIAN_POINT ( 'NONE',  ( 7.654042494670959086E-18, 0.000000000000000000, 0.06250000000000001388 ) ) ;
#285 = ORIENTED_EDGE ( 'NONE', *, *, #25, .T. ) ;
#286 =( NAMED_UNIT ( * ) PLANE_ANGLE_UNIT ( ) SI_UNIT ( $, .RADIAN. ) );
#287 = DIMENSIONAL_EXPONENTS ( 1.000000000000000000, 0.000000000000000000, 0.000000000000000000, 0.000000000000000000, 0.000000000000000000, 0.000000000000000000, 0.000000000000000000 ) ;
#288 = CARTESIAN_POINT ( 'NONE',  ( 0.06250000000000002776, 0.7499999999999998890, 7.654042494670951382E-18 ) ) ;
#289 = FILL_AREA_STYLE ('',( #1 ) ) ;
#290 = AXIS2_PLACEMENT_3D ( 'NONE', #109, #245, #138 ) ;
#291 = PRESENTATION_LAYER_ASSIGNMENT (  '', '', ( #53 ) ) ;
#292 = DIRECTION ( 'NONE',  ( 1.749495427353361372E-16, 1.000000000000000000, -0.000000000000000000 ) ) ;
#293 = APPLICATION_CONTEXT ( 'automotive_design' ) ;
#294 = CARTESIAN_POINT ( 'NONE',  ( 0.06250000000000001388, 2.500000000000000000, 0.000000000000000000 ) ) ;
#295 = EDGE_CURVE ( 'NONE', #303, #112, #19, .T. ) ;
#296 = CARTESIAN_POINT ( 'NONE',  ( 0.000000000000000000, 0.7499999999999998890, 0.000000000000000000 ) ) ;
#297 = CIRCLE ( 'NONE', #147, 0.06250000000000001388 ) ;
#298 = ORIENTED_EDGE ( 'NONE', *, *, #268, .F. ) ;
#299 = LINE ( 'NONE', #108, #142 ) ;
#300 =( CONVERSION_BASED_UNIT ( 'INCH', #17 ) LENGTH_UNIT ( ) NAMED_UNIT ( #171 ) );
#301 = CIRCLE ( 'NONE', #236, 0.06250000000000001388 ) ;
#302 = SURFACE_STYLE_USAGE ( .BOTH. , #41 ) ;
#303 = VERTEX_POINT ( 'NONE', #270 ) ;
#304 = EDGE_LOOP ( 'NONE', ( #16, #103 ) ) ;
#305 = STYLED_ITEM ( 'NONE', ( #7 ), #110 ) ;
#306 =( NAMED_UNIT ( * ) PLANE_ANGLE_UNIT ( ) SI_UNIT ( $, .RADIAN. ) );
#307 = SURFACE_STYLE_FILL_AREA ( #204 ) ;
#308 = PRESENTATION_STYLE_ASSIGNMENT (( #205 ) ) ;
#309 = DIRECTION ( 'NONE',  ( 1.000000000000000000, 0.000000000000000000, 0.000000000000000000 ) ) ;
ENDSEC;
END-ISO-10303-21;
