ISO-10303-21;
HEADER;
FILE_DESCRIPTION (( 'STEP AP214' ),
    '1' );
FILE_NAME ('Micro_BMRM-009-2X.STEP',
    '2021-09-03T14:21:23',
    ( '' ),
    ( '' ),
    'SwSTEP 2.0',
    'SolidWorks 2020',
    '' );
FILE_SCHEMA (( 'AUTOMOTIVE_DESIGN' ));
ENDSEC;

DATA;
#1 = CARTESIAN_POINT ( 'NONE',  ( 0.0000000000000000000, 0.0000000000000000000, 1.968503999999999809 ) ) ;
#2 = DIRECTION ( 'NONE',  ( -1.000000000000000000, 0.0000000000000000000, 0.0000000000000000000 ) ) ;
#3 = CARTESIAN_POINT ( 'NONE',  ( 0.0000000000000000000, 0.0000000000000000000, 0.0000000000000000000 ) ) ;
#4 = ORIENTED_EDGE ( 'NONE', *, *, #151, .F. ) ;
#5 =( LENGTH_UNIT ( ) NAMED_UNIT ( * ) SI_UNIT ( $, .METRE. ) );
#6 = CIRCLE ( 'NONE', #198, 0.06374000000000018540 ) ;
#7 = LENGTH_MEASURE_WITH_UNIT ( LENGTH_MEASURE( 0.02539999999999999897 ), #5 );
#8 = ORIENTED_EDGE ( 'NONE', *, *, #61, .T. ) ;
#9 =( NAMED_UNIT ( * ) PLANE_ANGLE_UNIT ( ) SI_UNIT ( $, .RADIAN. ) );
#10 = ORIENTED_EDGE ( 'NONE', *, *, #279, .T. ) ;
#11 = VERTEX_POINT ( 'NONE', #17 ) ;
#12 = AXIS2_PLACEMENT_3D ( 'NONE', #121, #200, #144 ) ;
#13 = FILL_AREA_STYLE_COLOUR ( '', #283 ) ;
#14 =( GEOMETRIC_REPRESENTATION_CONTEXT ( 3 ) GLOBAL_UNCERTAINTY_ASSIGNED_CONTEXT ( ( #268 ) ) GLOBAL_UNIT_ASSIGNED_CONTEXT ( ( #269, #266, #285 ) ) REPRESENTATION_CONTEXT ( 'NONE', 'WORKASPACE' ) );
#15 = LINE ( 'NONE', #110, #238 ) ;
#16 = EDGE_CURVE ( 'NONE', #246, #179, #111, .T. ) ;
#17 = CARTESIAN_POINT ( 'NONE',  ( -0.06374000000000018540, 0.0000000000000000000, 1.968503999999999809 ) ) ;
#18 = PRESENTATION_STYLE_ASSIGNMENT (( #214 ) ) ;
#19 = ORIENTED_EDGE ( 'NONE', *, *, #94, .T. ) ;
#20 = AXIS2_PLACEMENT_3D ( 'NONE', #63, #237, #161 ) ;
#21 = EDGE_LOOP ( 'NONE', ( #177, #221, #306, #23 ) ) ;
#22 = EDGE_CURVE ( 'NONE', #31, #11, #6, .T. ) ;
#23 = ORIENTED_EDGE ( 'NONE', *, *, #279, .F. ) ;
#24 = CARTESIAN_POINT ( 'NONE',  ( 0.06374000000000018540, 7.805898697765251255E-18, 1.968503999999999809 ) ) ;
#25 = EDGE_CURVE ( 'NONE', #106, #139, #203, .T. ) ;
#26 = DIRECTION ( 'NONE',  ( 1.224646799147353207E-16, 1.000000000000000000, -0.0000000000000000000 ) ) ;
#27 = CARTESIAN_POINT ( 'NONE',  ( 2.167475856207698752E-18, 0.0000000000000000000, 0.01769878349999999892 ) ) ;
#28 = CARTESIAN_POINT ( 'NONE',  ( 0.07874000000000000443, 9.642868896486258509E-18, 1.953504000000000129 ) ) ;
#29 = DIRECTION ( 'NONE',  ( -1.000000000000000000, 0.0000000000000000000, 1.224646799147353207E-16 ) ) ;
#30 = PRESENTATION_LAYER_ASSIGNMENT (  '', '', ( #316 ) ) ;
#31 = VERTEX_POINT ( 'NONE', #186 ) ;
#32 = AXIS2_PLACEMENT_3D ( 'NONE', #83, #137, #315 ) ;
#33 = AXIS2_PLACEMENT_3D ( 'NONE', #171, #48, #224 ) ;
#34 = CARTESIAN_POINT ( 'NONE',  ( 0.0000000000000000000, 0.0000000000000000000, 0.0000000000000000000 ) ) ;
#35 = DIRECTION ( 'NONE',  ( 1.000000000000000000, 0.0000000000000000000, 0.0000000000000000000 ) ) ;
#36 = EDGE_LOOP ( 'NONE', ( #189, #264, #8, #4 ) ) ;
#37 = ADVANCED_FACE ( 'NONE', ( #84 ), #293, .T. ) ;
#38 = PRODUCT_CONTEXT ( 'NONE', #47, 'mechanical' ) ;
#39 = ORIENTED_EDGE ( 'NONE', *, *, #52, .T. ) ;
#40 = DIRECTION ( 'NONE',  ( 0.0000000000000000000, 0.0000000000000000000, -1.000000000000000000 ) ) ;
#41 = DIRECTION ( 'NONE',  ( 1.000000000000000000, 0.0000000000000000000, -0.0000000000000000000 ) ) ;
#42 = DIRECTION ( 'NONE',  ( -1.224646799147353207E-16, -0.0000000000000000000, -1.000000000000000000 ) ) ;
#43 = EDGE_CURVE ( 'NONE', #107, #246, #193, .T. ) ;
#44 = CARTESIAN_POINT ( 'NONE',  ( 0.01769878350000001280, 0.0000000000000000000, 0.1062990000000000046 ) ) ;
#45 = AXIS2_PLACEMENT_3D ( 'NONE', #265, #216, #317 ) ;
#46 = CARTESIAN_POINT ( 'NONE',  ( 0.07874000000000004607, 9.642868896486264672E-18, 0.4524809413837967420 ) ) ;
#47 = APPLICATION_CONTEXT ( 'automotive_design' ) ;
#48 = DIRECTION ( 'NONE',  ( 0.0000000000000000000, 1.000000000000000000, 0.0000000000000000000 ) ) ;
#49 = AXIS2_PLACEMENT_3D ( 'NONE', #66, #62, #191 ) ;
#50 = FACE_OUTER_BOUND ( 'NONE', #210, .T. ) ;
#51 = CARTESIAN_POINT ( 'NONE',  ( 0.07874000000000000443, 9.642868896486258509E-18, 1.968503999999999809 ) ) ;
#52 = EDGE_CURVE ( 'NONE', #246, #107, #257, .T. ) ;
#53 = DIRECTION ( 'NONE',  ( -0.7071067811865502373, 0.0000000000000000000, -0.7071067811865446862 ) ) ;
#54 = ORIENTED_EDGE ( 'NONE', *, *, #128, .T. ) ;
#55 = VECTOR ( 'NONE', #70, 39.37007874015748143 ) ;
#56 = UNCERTAINTY_MEASURE_WITH_UNIT (LENGTH_MEASURE( 1.000000000000000082E-05 ), #105, 'distance_accuracy_value', 'NONE');
#57 = ADVANCED_BREP_SHAPE_REPRESENTATION ( 'Micro_BMRM-009-2X', ( #313, #91 ), #219 ) ;
#58 = APPLICATION_PROTOCOL_DEFINITION ( 'draft international standard', 'automotive_design', 1998, #47 ) ;
#59 = DIRECTION ( 'NONE',  ( -1.224646799147353207E-16, -0.0000000000000000000, -1.000000000000000000 ) ) ;
#60 = ORIENTED_EDGE ( 'NONE', *, *, #196, .F. ) ;
#61 = EDGE_CURVE ( 'NONE', #179, #202, #89, .T. ) ;
#62 = DIRECTION ( 'NONE',  ( -1.224646799147353207E-16, -0.0000000000000000000, -1.000000000000000000 ) ) ;
#63 = CARTESIAN_POINT ( 'NONE',  ( 1.301787301025644899E-17, 0.0000000000000000000, 0.1062990000000000046 ) ) ;
#64 = VECTOR ( 'NONE', #192, 39.37007874015747433 ) ;
#65 = AXIS2_PLACEMENT_3D ( 'NONE', #249, #71, #2 ) ;
#66 = CARTESIAN_POINT ( 'NONE',  ( 1.301787301025644899E-17, 0.0000000000000000000, 0.1062990000000000046 ) ) ;
#67 = CARTESIAN_POINT ( 'NONE',  ( 0.0000000000000000000, 0.0000000000000000000, 1.968503999999999809 ) ) ;
#68 = PRODUCT_DEFINITION_SHAPE ( 'NONE', 'NONE',  #232 ) ;
#69 = CARTESIAN_POINT ( 'NONE',  ( 0.01769878350000000239, 2.167475856207698752E-18, 0.01769878349999999892 ) ) ;
#70 = DIRECTION ( 'NONE',  ( -1.224646799147353207E-16, -0.0000000000000000000, -1.000000000000000000 ) ) ;
#71 = DIRECTION ( 'NONE',  ( -0.0000000000000000000, -0.0000000000000000000, -1.000000000000000000 ) ) ;
#72 = DIRECTION ( 'NONE',  ( -1.000000000000000000, 0.0000000000000000000, 1.224646799147353207E-16 ) ) ;
#73 = CIRCLE ( 'NONE', #12, 0.07874000000000000443 ) ;
#74 =( NAMED_UNIT ( * ) SI_UNIT ( $, .STERADIAN. ) SOLID_ANGLE_UNIT ( ) );
#75 = ADVANCED_FACE ( 'NONE', ( #136 ), #147, .T. ) ;
#76 = DIRECTION ( 'NONE',  ( -1.224646799147353207E-16, -0.0000000000000000000, -1.000000000000000000 ) ) ;
#77 = ORIENTED_EDGE ( 'NONE', *, *, #159, .T. ) ;
#78 = DIRECTION ( 'NONE',  ( 1.224646799147353207E-16, 0.0000000000000000000, 1.000000000000000000 ) ) ;
#79 = ORIENTED_EDGE ( 'NONE', *, *, #169, .F. ) ;
#80 = VECTOR ( 'NONE', #125, 39.37007874015748143 ) ;
#81 = EDGE_CURVE ( 'NONE', #115, #158, #127, .T. ) ;
#82 = EDGE_LOOP ( 'NONE', ( #321, #134, #100, #205 ) ) ;
#83 = CARTESIAN_POINT ( 'NONE',  ( 2.167475856207698752E-18, 0.0000000000000000000, 0.01769878349999999892 ) ) ;
#84 = FACE_OUTER_BOUND ( 'NONE', #181, .T. ) ;
#85 = AXIS2_PLACEMENT_3D ( 'NONE', #163, #59, #270 ) ;
#86 = CARTESIAN_POINT ( 'NONE',  ( 0.0000000000000000000, 0.0000000000000000000, 1.953504000000000129 ) ) ;
#87 = DIRECTION ( 'NONE',  ( 1.000000000000000000, 0.0000000000000000000, 0.0000000000000000000 ) ) ;
#88 = CARTESIAN_POINT ( 'NONE',  ( -0.01769878349999998851, 2.167475856207698752E-18, 0.1062990000000000046 ) ) ;
#89 = CIRCLE ( 'NONE', #85, 0.07874000000000000443 ) ;
#90 = DIRECTION ( 'NONE',  ( -1.000000000000000000, 0.0000000000000000000, 1.205877367249678918E-16 ) ) ;
#91 = AXIS2_PLACEMENT_3D ( 'NONE', #34, #318, #262 ) ;
#92 = PLANE ( 'NONE',  #113 ) ;
#93 = DIRECTION ( 'NONE',  ( -0.0000000000000000000, -0.0000000000000000000, -1.000000000000000000 ) ) ;
#94 = EDGE_CURVE ( 'NONE', #246, #139, #15, .T. ) ;
#95 = CARTESIAN_POINT ( 'NONE',  ( -0.07874000000000000443, 0.0000000000000000000, 1.953504000000000129 ) ) ;
#96 = CIRCLE ( 'NONE', #323, 0.01769878349999999892 ) ;
#97 = CARTESIAN_POINT ( 'NONE',  ( 2.167475856207698752E-18, 0.0000000000000000000, 0.01769878349999999892 ) ) ;
#98 = UNCERTAINTY_MEASURE_WITH_UNIT (LENGTH_MEASURE( 1.000000000000000082E-05 ), #155, 'distance_accuracy_value', 'NONE');
#99 = SURFACE_STYLE_USAGE ( .BOTH. , #278 ) ;
#100 = ORIENTED_EDGE ( 'NONE', *, *, #61, .F. ) ;
#101 = CARTESIAN_POINT ( 'NONE',  ( 0.0000000000000000000, 0.0000000000000000000, 1.953504000000000129 ) ) ;
#102 = ORIENTED_EDGE ( 'NONE', *, *, #43, .F. ) ;
#103 = CARTESIAN_POINT ( 'NONE',  ( 3.251213784311548129E-18, 0.0000000000000000000, 0.0000000000000000000 ) ) ;
#104 = ORIENTED_EDGE ( 'NONE', *, *, #25, .T. ) ;
#105 =( CONVERSION_BASED_UNIT ( 'INCH', #7 ) LENGTH_UNIT ( ) NAMED_UNIT ( #168 ) );
#106 = VERTEX_POINT ( 'NONE', #69 ) ;
#107 = VERTEX_POINT ( 'NONE', #140 ) ;
#108 = VECTOR ( 'NONE', #300, 39.37007874015748143 ) ;
#109 = APPLICATION_CONTEXT ( 'automotive_design' ) ;
#110 = CARTESIAN_POINT ( 'NONE',  ( -0.01769878349999999892, 0.0000000000000000000, 2.167475856207698752E-18 ) ) ;
#111 = LINE ( 'NONE', #88, #64 ) ;
#112 = ORIENTED_EDGE ( 'NONE', *, *, #124, .T. ) ;
#113 = AXIS2_PLACEMENT_3D ( 'NONE', #1, #295, #41 ) ;
#114 = EDGE_LOOP ( 'NONE', ( #60, #241, #79 ) ) ;
#115 = VERTEX_POINT ( 'NONE', #95 ) ;
#116 = PRODUCT_RELATED_PRODUCT_CATEGORY ( 'part', '', ( #118 ) ) ;
#117 = CARTESIAN_POINT ( 'NONE',  ( -0.07873999999999994892, 0.0000000000000000000, 0.4524809413837967420 ) ) ;
#118 = PRODUCT ( 'Micro_BMRM-009-2X', 'Micro_BMRM-009-2X', '', ( #38 ) ) ;
#119 = DIRECTION ( 'NONE',  ( 0.7071067811865502373, 8.659560562354966138E-17, -0.7071067811865446862 ) ) ;
#120 = FACE_OUTER_BOUND ( 'NONE', #82, .T. ) ;
#121 = CARTESIAN_POINT ( 'NONE',  ( 5.541293365408478039E-17, 0.0000000000000000000, 0.4524809413837967420 ) ) ;
#122 = COLOUR_RGB ( '',0.7921568627450980005, 0.8196078431372548767, 0.9333333333333333481 ) ;
#123 = DIRECTION ( 'NONE',  ( -0.0000000000000000000, -0.0000000000000000000, -1.000000000000000000 ) ) ;
#124 = EDGE_CURVE ( 'NONE', #31, #158, #229, .T. ) ;
#125 = DIRECTION ( 'NONE',  ( -0.0000000000000000000, -0.0000000000000000000, -1.000000000000000000 ) ) ;
#126 = ORIENTED_EDGE ( 'NONE', *, *, #240, .T. ) ;
#127 = CIRCLE ( 'NONE', #160, 0.07874000000000000443 ) ;
#128 = EDGE_CURVE ( 'NONE', #202, #179, #73, .T. ) ;
#129 = FILL_AREA_STYLE ('',( #206 ) ) ;
#130 = SURFACE_STYLE_FILL_AREA ( #185 ) ;
#131 = ORIENTED_EDGE ( 'NONE', *, *, #22, .F. ) ;
#132 = VECTOR ( 'NONE', #119, 39.37007874015748854 ) ;
#133 = PRODUCT_DEFINITION_FORMATION_WITH_SPECIFIED_SOURCE ( 'ANY', '', #118, .NOT_KNOWN. ) ;
#134 = ORIENTED_EDGE ( 'NONE', *, *, #289, .T. ) ;
#135 = ADVANCED_FACE ( 'NONE', ( #274 ), #250, .T. ) ;
#136 = FACE_OUTER_BOUND ( 'NONE', #21, .T. ) ;
#137 = DIRECTION ( 'NONE',  ( 1.224646799147353207E-16, 0.0000000000000000000, 1.000000000000000000 ) ) ;
#138 = AXIS2_PLACEMENT_3D ( 'NONE', #255, #234, #29 ) ;
#139 = VERTEX_POINT ( 'NONE', #199 ) ;
#140 = CARTESIAN_POINT ( 'NONE',  ( 0.01769878350000001280, 0.0000000000000000000, 0.1062990000000000046 ) ) ;
#141 = CYLINDRICAL_SURFACE ( 'NONE', #211, 0.07874000000000000443 ) ;
#142 = AXIS2_PLACEMENT_3D ( 'NONE', #230, #78, #176 ) ;
#143 = STYLED_ITEM ( 'NONE', ( #18 ), #57 ) ;
#144 = DIRECTION ( 'NONE',  ( 1.000000000000000000, 0.0000000000000000000, 0.0000000000000000000 ) ) ;
#145 = CARTESIAN_POINT ( 'NONE',  ( 0.0000000000000000000, 0.0000000000000000000, 1.968503999999999809 ) ) ;
#146 = CARTESIAN_POINT ( 'NONE',  ( 0.01769878349999999892, 2.167475856207698752E-18, -2.167475856207698752E-18 ) ) ;
#147 = CONICAL_SURFACE ( 'NONE', #45, 0.06374000000000018540, 0.7853981633974522758 ) ;
#148 = MECHANICAL_DESIGN_GEOMETRIC_PRESENTATION_REPRESENTATION (  '', ( #143 ), #14 ) ;
#149 = DIRECTION ( 'NONE',  ( 0.0000000000000000000, 0.0000000000000000000, -1.000000000000000000 ) ) ;
#150 = CARTESIAN_POINT ( 'NONE',  ( -0.07874000000000000443, 0.0000000000000000000, 1.968503999999999809 ) ) ;
#151 = EDGE_CURVE ( 'NONE', #107, #202, #277, .T. ) ;
#152 = LENGTH_MEASURE_WITH_UNIT ( LENGTH_MEASURE( 0.02539999999999999897 ), #256 );
#153 = EDGE_LOOP ( 'NONE', ( #131, #112, #184, #156 ) ) ;
#154 = CIRCLE ( 'NONE', #188, 0.06374000000000018540 ) ;
#155 =( CONVERSION_BASED_UNIT ( 'INCH', #152 ) LENGTH_UNIT ( ) NAMED_UNIT ( #244 ) );
#156 = ORIENTED_EDGE ( 'NONE', *, *, #307, .F. ) ;
#157 =( LENGTH_UNIT ( ) NAMED_UNIT ( * ) SI_UNIT ( $, .METRE. ) );
#158 = VERTEX_POINT ( 'NONE', #28 ) ;
#159 = EDGE_CURVE ( 'NONE', #11, #31, #154, .T. ) ;
#160 = AXIS2_PLACEMENT_3D ( 'NONE', #86, #40, #261 ) ;
#161 = DIRECTION ( 'NONE',  ( -1.000000000000000000, 0.0000000000000000000, 0.0000000000000000000 ) ) ;
#162 = ORIENTED_EDGE ( 'NONE', *, *, #43, .T. ) ;
#163 = CARTESIAN_POINT ( 'NONE',  ( 5.541293365408478039E-17, 0.0000000000000000000, 0.4524809413837967420 ) ) ;
#164 = DIRECTION ( 'NONE',  ( 1.000000000000000000, 0.0000000000000000000, 0.0000000000000000000 ) ) ;
#165 = DIMENSIONAL_EXPONENTS ( 1.000000000000000000, 0.0000000000000000000, 0.0000000000000000000, 0.0000000000000000000, 0.0000000000000000000, 0.0000000000000000000, 0.0000000000000000000 ) ;
#166 = CARTESIAN_POINT ( 'NONE',  ( 0.0000000000000000000, 0.0000000000000000000, 1.968503999999999809 ) ) ;
#167 = CARTESIAN_POINT ( 'NONE',  ( 2.167475856207698752E-18, 0.0000000000000000000, 0.01769878349999999892 ) ) ;
#168 = DIMENSIONAL_EXPONENTS ( 1.000000000000000000, 0.0000000000000000000, 0.0000000000000000000, 0.0000000000000000000, 0.0000000000000000000, 0.0000000000000000000, 0.0000000000000000000 ) ;
#169 = EDGE_CURVE ( 'NONE', #139, #106, #287, .T. ) ;
#170 = CONICAL_SURFACE ( 'NONE', #142, 0.01769878349999999892, 0.1745329251994338637 ) ;
#171 = CARTESIAN_POINT ( 'NONE',  ( 2.167475856207698752E-18, 0.0000000000000000000, 0.01769878349999999892 ) ) ;
#172 = SPHERICAL_SURFACE ( 'NONE', #33, 0.01769878349999999892 ) ;
#173 = ADVANCED_FACE ( 'NONE', ( #222 ), #141, .T. ) ;
#174 =( NAMED_UNIT ( * ) SI_UNIT ( $, .STERADIAN. ) SOLID_ANGLE_UNIT ( ) );
#175 = AXIS2_PLACEMENT_3D ( 'NONE', #97, #226, #164 ) ;
#176 = DIRECTION ( 'NONE',  ( 1.000000000000000000, 0.0000000000000000000, 0.0000000000000000000 ) ) ;
#177 = ORIENTED_EDGE ( 'NONE', *, *, #124, .F. ) ;
#178 = DIRECTION ( 'NONE',  ( 1.000000000000000000, 0.0000000000000000000, 0.0000000000000000000 ) ) ;
#179 = VERTEX_POINT ( 'NONE', #117 ) ;
#180 = LINE ( 'NONE', #204, #303 ) ;
#181 = EDGE_LOOP ( 'NONE', ( #187, #102, #288, #54 ) ) ;
#182 = CIRCLE ( 'NONE', #311, 0.01769878349999999892 ) ;
#183 = APPLICATION_PROTOCOL_DEFINITION ( 'draft international standard', 'automotive_design', 1998, #109 ) ;
#184 = ORIENTED_EDGE ( 'NONE', *, *, #81, .F. ) ;
#185 = FILL_AREA_STYLE ('',( #13 ) ) ;
#186 = CARTESIAN_POINT ( 'NONE',  ( 0.06374000000000018540, 8.724383797125754882E-18, 1.968503999999999809 ) ) ;
#187 = ORIENTED_EDGE ( 'NONE', *, *, #16, .F. ) ;
#188 = AXIS2_PLACEMENT_3D ( 'NONE', #67, #254, #273 ) ;
#189 = ORIENTED_EDGE ( 'NONE', *, *, #52, .F. ) ;
#190 = LENGTH_MEASURE_WITH_UNIT ( LENGTH_MEASURE( 0.02539999999999999897 ), #157 );
#191 = DIRECTION ( 'NONE',  ( -1.000000000000000000, 0.0000000000000000000, 0.0000000000000000000 ) ) ;
#192 = DIRECTION ( 'NONE',  ( -0.1736481776669311639, 2.126576849575783008E-17, 0.9848077530122080203 ) ) ;
#193 = CIRCLE ( 'NONE', #49, 0.01769878349999999892 ) ;
#194 = FACE_OUTER_BOUND ( 'NONE', #114, .T. ) ;
#195 = SPHERICAL_SURFACE ( 'NONE', #175, 0.01769878349999999892 ) ;
#196 = EDGE_CURVE ( 'NONE', #291, #139, #96, .T. ) ;
#197 = DIRECTION ( 'NONE',  ( -1.000000000000000000, 0.0000000000000000000, 0.0000000000000000000 ) ) ;
#198 = AXIS2_PLACEMENT_3D ( 'NONE', #312, #292, #35 ) ;
#199 = CARTESIAN_POINT ( 'NONE',  ( -0.01769878349999999892, 0.0000000000000000000, 0.01769878350000000239 ) ) ;
#200 = DIRECTION ( 'NONE',  ( -1.224646799147353207E-16, -0.0000000000000000000, -1.000000000000000000 ) ) ;
#201 = PRESENTATION_STYLE_ASSIGNMENT (( #99 ) ) ;
#202 = VERTEX_POINT ( 'NONE', #46 ) ;
#203 = CIRCLE ( 'NONE', #32, 0.01769878349999999892 ) ;
#204 = CARTESIAN_POINT ( 'NONE',  ( -0.06374000000000018540, 0.0000000000000000000, 1.968503999999999809 ) ) ;
#205 = ORIENTED_EDGE ( 'NONE', *, *, #314, .F. ) ;
#206 = FILL_AREA_STYLE_COLOUR ( '', #122 ) ;
#207 = ORIENTED_EDGE ( 'NONE', *, *, #94, .F. ) ;
#208 = ORIENTED_EDGE ( 'NONE', *, *, #314, .T. ) ;
#209 = FACE_OUTER_BOUND ( 'NONE', #36, .T. ) ;
#210 = EDGE_LOOP ( 'NONE', ( #231, #162, #19, #286 ) ) ;
#211 = AXIS2_PLACEMENT_3D ( 'NONE', #145, #93, #197 ) ;
#212 = ADVANCED_FACE ( 'NONE', ( #120 ), #325, .T. ) ;
#213 = ORIENTED_EDGE ( 'NONE', *, *, #289, .F. ) ;
#214 = SURFACE_STYLE_USAGE ( .BOTH. , #245 ) ;
#215 = EDGE_LOOP ( 'NONE', ( #39, #126, #104, #207 ) ) ;
#216 = DIRECTION ( 'NONE',  ( 0.0000000000000000000, 0.0000000000000000000, -1.000000000000000000 ) ) ;
#217 = ADVANCED_FACE ( 'NONE', ( #194 ), #172, .T. ) ;
#218 = MECHANICAL_DESIGN_GEOMETRIC_PRESENTATION_REPRESENTATION (  '', ( #316 ), #228 ) ;
#219 =( GEOMETRIC_REPRESENTATION_CONTEXT ( 3 ) GLOBAL_UNCERTAINTY_ASSIGNED_CONTEXT ( ( #56 ) ) GLOBAL_UNIT_ASSIGNED_CONTEXT ( ( #105, #258, #174 ) ) REPRESENTATION_CONTEXT ( 'NONE', 'WORKASPACE' ) );
#220 = EDGE_LOOP ( 'NONE', ( #213, #10, #208, #242 ) ) ;
#221 = ORIENTED_EDGE ( 'NONE', *, *, #159, .F. ) ;
#222 = FACE_OUTER_BOUND ( 'NONE', #220, .T. ) ;
#223 = CIRCLE ( 'NONE', #275, 0.07874000000000000443 ) ;
#224 = DIRECTION ( 'NONE',  ( 1.000000000000000000, 0.0000000000000000000, 0.0000000000000000000 ) ) ;
#225 = DIRECTION ( 'NONE',  ( 0.0000000000000000000, 0.0000000000000000000, -1.000000000000000000 ) ) ;
#226 = DIRECTION ( 'NONE',  ( 0.0000000000000000000, 1.000000000000000000, 0.0000000000000000000 ) ) ;
#227 = CLOSED_SHELL ( 'NONE', ( #248, #282, #296, #135, #212, #173, #252, #75, #37, #320, #217 ) ) ;
#228 =( GEOMETRIC_REPRESENTATION_CONTEXT ( 3 ) GLOBAL_UNCERTAINTY_ASSIGNED_CONTEXT ( ( #98 ) ) GLOBAL_UNIT_ASSIGNED_CONTEXT ( ( #155, #9, #74 ) ) REPRESENTATION_CONTEXT ( 'NONE', 'WORKASPACE' ) );
#229 = LINE ( 'NONE', #24, #132 ) ;
#230 = CARTESIAN_POINT ( 'NONE',  ( 1.301787301025644899E-17, 0.0000000000000000000, 0.1062990000000000046 ) ) ;
#231 = ORIENTED_EDGE ( 'NONE', *, *, #240, .F. ) ;
#232 = PRODUCT_DEFINITION ( 'UNKNOWN', '', #133, #310 ) ;
#233 = AXIS2_PLACEMENT_3D ( 'NONE', #301, #247, #90 ) ;
#234 = DIRECTION ( 'NONE',  ( -1.224646799147353207E-16, -0.0000000000000000000, -1.000000000000000000 ) ) ;
#235 = CYLINDRICAL_SURFACE ( 'NONE', #263, 0.01769878349999999892 ) ;
#236 = CYLINDRICAL_SURFACE ( 'NONE', #138, 0.01769878349999999892 ) ;
#237 = DIRECTION ( 'NONE',  ( -1.224646799147353207E-16, -0.0000000000000000000, -1.000000000000000000 ) ) ;
#238 = VECTOR ( 'NONE', #42, 39.37007874015748143 ) ;
#239 = ORIENTED_EDGE ( 'NONE', *, *, #25, .F. ) ;
#240 = EDGE_CURVE ( 'NONE', #107, #106, #324, .T. ) ;
#241 = ORIENTED_EDGE ( 'NONE', *, *, #259, .T. ) ;
#242 = ORIENTED_EDGE ( 'NONE', *, *, #128, .F. ) ;
#243 = VECTOR ( 'NONE', #123, 39.37007874015748143 ) ;
#244 = DIMENSIONAL_EXPONENTS ( 1.000000000000000000, 0.0000000000000000000, 0.0000000000000000000, 0.0000000000000000000, 0.0000000000000000000, 0.0000000000000000000, 0.0000000000000000000 ) ;
#245 = SURFACE_SIDE_STYLE ('',( #130 ) ) ;
#246 = VERTEX_POINT ( 'NONE', #276 ) ;
#247 = DIRECTION ( 'NONE',  ( 1.224646799147353207E-16, 0.0000000000000000000, 1.000000000000000000 ) ) ;
#248 = ADVANCED_FACE ( 'NONE', ( #253 ), #195, .T. ) ;
#249 = CARTESIAN_POINT ( 'NONE',  ( 0.0000000000000000000, 0.0000000000000000000, 1.968503999999999809 ) ) ;
#250 = CONICAL_SURFACE ( 'NONE', #298, 0.06374000000000018540, 0.7853981633974522758 ) ;
#251 = DIRECTION ( 'NONE',  ( -1.000000000000000000, 0.0000000000000000000, 0.0000000000000000000 ) ) ;
#252 = ADVANCED_FACE ( 'NONE', ( #272 ), #92, .T. ) ;
#253 = FACE_OUTER_BOUND ( 'NONE', #304, .T. ) ;
#254 = DIRECTION ( 'NONE',  ( 0.0000000000000000000, 0.0000000000000000000, 1.000000000000000000 ) ) ;
#255 = CARTESIAN_POINT ( 'NONE',  ( 0.0000000000000000000, 0.0000000000000000000, 0.0000000000000000000 ) ) ;
#256 =( LENGTH_UNIT ( ) NAMED_UNIT ( * ) SI_UNIT ( $, .METRE. ) );
#257 = CIRCLE ( 'NONE', #20, 0.01769878349999999892 ) ;
#258 =( NAMED_UNIT ( * ) PLANE_ANGLE_UNIT ( ) SI_UNIT ( $, .RADIAN. ) );
#259 = EDGE_CURVE ( 'NONE', #291, #106, #182, .T. ) ;
#260 = SHAPE_DEFINITION_REPRESENTATION ( #68, #57 ) ;
#261 = DIRECTION ( 'NONE',  ( 1.000000000000000000, 0.0000000000000000000, 0.0000000000000000000 ) ) ;
#262 = DIRECTION ( 'NONE',  ( 1.000000000000000000, 0.0000000000000000000, 0.0000000000000000000 ) ) ;
#263 = AXIS2_PLACEMENT_3D ( 'NONE', #3, #76, #72 ) ;
#264 = ORIENTED_EDGE ( 'NONE', *, *, #16, .T. ) ;
#265 = CARTESIAN_POINT ( 'NONE',  ( 0.0000000000000000000, 0.0000000000000000000, 1.968503999999999809 ) ) ;
#266 =( NAMED_UNIT ( * ) PLANE_ANGLE_UNIT ( ) SI_UNIT ( $, .RADIAN. ) );
#267 = ORIENTED_EDGE ( 'NONE', *, *, #259, .F. ) ;
#268 = UNCERTAINTY_MEASURE_WITH_UNIT (LENGTH_MEASURE( 1.000000000000000082E-05 ), #269, 'distance_accuracy_value', 'NONE');
#269 =( CONVERSION_BASED_UNIT ( 'INCH', #190 ) LENGTH_UNIT ( ) NAMED_UNIT ( #165 ) );
#270 = DIRECTION ( 'NONE',  ( 1.000000000000000000, 0.0000000000000000000, 0.0000000000000000000 ) ) ;
#271 = AXIS2_PLACEMENT_3D ( 'NONE', #319, #290, #87 ) ;
#272 = FACE_OUTER_BOUND ( 'NONE', #281, .T. ) ;
#273 = DIRECTION ( 'NONE',  ( 1.000000000000000000, 0.0000000000000000000, 0.0000000000000000000 ) ) ;
#274 = FACE_OUTER_BOUND ( 'NONE', #153, .T. ) ;
#275 = AXIS2_PLACEMENT_3D ( 'NONE', #101, #149, #178 ) ;
#276 = CARTESIAN_POINT ( 'NONE',  ( -0.01769878349999998851, 5.905172376346978631E-18, 0.1062990000000000046 ) ) ;
#277 = LINE ( 'NONE', #44, #108 ) ;
#278 = SURFACE_SIDE_STYLE ('',( #305 ) ) ;
#279 = EDGE_CURVE ( 'NONE', #158, #115, #223, .T. ) ;
#280 = LINE ( 'NONE', #150, #80 ) ;
#281 = EDGE_LOOP ( 'NONE', ( #77, #284 ) ) ;
#282 = ADVANCED_FACE ( 'NONE', ( #302 ), #235, .T. ) ;
#283 = COLOUR_RGB ( '',0.7921568627450980005, 0.8196078431372548767, 0.9333333333333333481 ) ;
#284 = ORIENTED_EDGE ( 'NONE', *, *, #22, .T. ) ;
#285 =( NAMED_UNIT ( * ) SI_UNIT ( $, .STERADIAN. ) SOLID_ANGLE_UNIT ( ) );
#286 = ORIENTED_EDGE ( 'NONE', *, *, #169, .T. ) ;
#287 = CIRCLE ( 'NONE', #233, 0.01769878349999999892 ) ;
#288 = ORIENTED_EDGE ( 'NONE', *, *, #151, .T. ) ;
#289 = EDGE_CURVE ( 'NONE', #158, #202, #308, .T. ) ;
#290 = DIRECTION ( 'NONE',  ( 1.224646799147353207E-16, 0.0000000000000000000, 1.000000000000000000 ) ) ;
#291 = VERTEX_POINT ( 'NONE', #103 ) ;
#292 = DIRECTION ( 'NONE',  ( 0.0000000000000000000, 0.0000000000000000000, 1.000000000000000000 ) ) ;
#293 = CONICAL_SURFACE ( 'NONE', #271, 0.01769878349999999892, 0.1745329251994338637 ) ;
#294 = DIRECTION ( 'NONE',  ( 0.0000000000000000000, 0.0000000000000000000, -1.000000000000000000 ) ) ;
#295 = DIRECTION ( 'NONE',  ( 0.0000000000000000000, 0.0000000000000000000, 1.000000000000000000 ) ) ;
#296 = ADVANCED_FACE ( 'NONE', ( #209 ), #170, .T. ) ;
#297 = DIRECTION ( 'NONE',  ( -1.000000000000000000, 1.224646799147353207E-16, 0.0000000000000000000 ) ) ;
#298 = AXIS2_PLACEMENT_3D ( 'NONE', #166, #225, #251 ) ;
#299 = PRESENTATION_LAYER_ASSIGNMENT (  '', '', ( #143 ) ) ;
#300 = DIRECTION ( 'NONE',  ( 0.1736481776669313581, 0.0000000000000000000, 0.9848077530122077983 ) ) ;
#301 = CARTESIAN_POINT ( 'NONE',  ( 2.167475856207698752E-18, 0.0000000000000000000, 0.01769878349999999892 ) ) ;
#302 = FACE_OUTER_BOUND ( 'NONE', #215, .T. ) ;
#303 = VECTOR ( 'NONE', #53, 39.37007874015748854 ) ;
#304 = EDGE_LOOP ( 'NONE', ( #267, #309, #239 ) ) ;
#305 = SURFACE_STYLE_FILL_AREA ( #129 ) ;
#306 = ORIENTED_EDGE ( 'NONE', *, *, #307, .T. ) ;
#307 = EDGE_CURVE ( 'NONE', #11, #115, #180, .T. ) ;
#308 = LINE ( 'NONE', #51, #243 ) ;
#309 = ORIENTED_EDGE ( 'NONE', *, *, #196, .T. ) ;
#310 = PRODUCT_DEFINITION_CONTEXT ( 'detailed design', #109, 'design' ) ;
#311 = AXIS2_PLACEMENT_3D ( 'NONE', #167, #322, #294 ) ;
#312 = CARTESIAN_POINT ( 'NONE',  ( 0.0000000000000000000, 0.0000000000000000000, 1.968503999999999809 ) ) ;
#313 = MANIFOLD_SOLID_BREP ( 'Fillet1', #227 ) ;
#314 = EDGE_CURVE ( 'NONE', #115, #179, #280, .T. ) ;
#315 = DIRECTION ( 'NONE',  ( -1.000000000000000000, 0.0000000000000000000, 1.205877367249678918E-16 ) ) ;
#316 = STYLED_ITEM ( 'NONE', ( #201 ), #313 ) ;
#317 = DIRECTION ( 'NONE',  ( -1.000000000000000000, 0.0000000000000000000, 0.0000000000000000000 ) ) ;
#318 = DIRECTION ( 'NONE',  ( 0.0000000000000000000, 0.0000000000000000000, 1.000000000000000000 ) ) ;
#319 = CARTESIAN_POINT ( 'NONE',  ( 1.301787301025644899E-17, 0.0000000000000000000, 0.1062990000000000046 ) ) ;
#320 = ADVANCED_FACE ( 'NONE', ( #50 ), #236, .T. ) ;
#321 = ORIENTED_EDGE ( 'NONE', *, *, #81, .T. ) ;
#322 = DIRECTION ( 'NONE',  ( 0.0000000000000000000, -1.000000000000000000, 0.0000000000000000000 ) ) ;
#323 = AXIS2_PLACEMENT_3D ( 'NONE', #27, #26, #297 ) ;
#324 = LINE ( 'NONE', #146, #55 ) ;
#325 = CYLINDRICAL_SURFACE ( 'NONE', #65, 0.07874000000000000443 ) ;
ENDSEC;
END-ISO-10303-21;
