ISO-10303-21;
HEADER;
FILE_DESCRIPTION (( 'STEP AP214' ),
    '1' );
FILE_NAME ('Micro_SFP-250-46.STEP',
    '2021-09-02T06:23:34',
    ( '' ),
    ( '' ),
    'SwSTEP 2.0',
    'SolidWorks 2020',
    '' );
FILE_SCHEMA (( 'AUTOMOTIVE_DESIGN' ));
ENDSEC;

DATA;
#1 =( NAMED_UNIT ( * ) SI_UNIT ( $, .STERADIAN. ) SOLID_ANGLE_UNIT ( ) );
#2 = ORIENTED_EDGE ( 'NONE', *, *, #186, .T. ) ;
#3 = EDGE_CURVE ( 'NONE', #154, #43, #133, .T. ) ;
#4 = CARTESIAN_POINT ( 'NONE',  ( -0.1100000000000001948, 0.0000000000000000000, 2.500000000000000000 ) ) ;
#5 = CARTESIAN_POINT ( 'NONE',  ( 0.1248750000000000970, 0.0000000000000000000, 0.7500000000000001110 ) ) ;
#6 = DIRECTION ( 'NONE',  ( -1.224646799147353207E-16, -0.0000000000000000000, -1.000000000000000000 ) ) ;
#7 = CARTESIAN_POINT ( 'NONE',  ( -0.1248749999999999166, 1.529277690435257475E-17, 0.7500000000000001110 ) ) ;
#8 = DIRECTION ( 'NONE',  ( -1.000000000000000000, 0.0000000000000000000, 1.224646799147353454E-16 ) ) ;
#9 = VECTOR ( 'NONE', #142, 39.37007874015748143 ) ;
#10 = MECHANICAL_DESIGN_GEOMETRIC_PRESENTATION_REPRESENTATION (  '', ( #152 ), #229 ) ;
#11 = DIRECTION ( 'NONE',  ( -0.0000000000000000000, -0.0000000000000000000, -1.000000000000000000 ) ) ;
#12 =( NAMED_UNIT ( * ) SI_UNIT ( $, .STERADIAN. ) SOLID_ANGLE_UNIT ( ) );
#13 =( CONVERSION_BASED_UNIT ( 'INCH', #100 ) LENGTH_UNIT ( ) NAMED_UNIT ( #66 ) );
#14 = ORIENTED_EDGE ( 'NONE', *, *, #171, .F. ) ;
#15 = CARTESIAN_POINT ( 'NONE',  ( 0.0000000000000000000, 0.0000000000000000000, 0.0000000000000000000 ) ) ;
#16 = PRESENTATION_LAYER_ASSIGNMENT (  '', '', ( #152 ) ) ;
#17 = ORIENTED_EDGE ( 'NONE', *, *, #214, .T. ) ;
#18 = ORIENTED_EDGE ( 'NONE', *, *, #126, .T. ) ;
#19 = FILL_AREA_STYLE ('',( #292 ) ) ;
#20 = EDGE_LOOP ( 'NONE', ( #225, #250, #18, #17 ) ) ;
#21 = EDGE_CURVE ( 'NONE', #295, #227, #259, .T. ) ;
#22 = EDGE_LOOP ( 'NONE', ( #270, #297, #205, #272 ) ) ;
#23 = EDGE_CURVE ( 'NONE', #159, #183, #184, .T. ) ;
#24 = DIRECTION ( 'NONE',  ( 1.000000000000000000, 0.0000000000000000000, 0.0000000000000000000 ) ) ;
#25 = CARTESIAN_POINT ( 'NONE',  ( 1.872825028598994811E-33, 0.0000000000000000000, 1.529277690435257475E-17 ) ) ;
#26 = DIRECTION ( 'NONE',  ( -0.1736481776669311083, 2.126576849575782084E-17, 0.9848077530122080203 ) ) ;
#27 = ADVANCED_BREP_SHAPE_REPRESENTATION ( 'Micro_SFP-250-46', ( #258, #195 ), #115 ) ;
#28 = CARTESIAN_POINT ( 'NONE',  ( 0.0000000000000000000, 0.0000000000000000000, 2.500000000000000000 ) ) ;
#29 = DIRECTION ( 'NONE',  ( -1.224646799147353207E-16, -0.0000000000000000000, -1.000000000000000000 ) ) ;
#30 = ADVANCED_FACE ( 'NONE', ( #208 ), #232, .T. ) ;
#31 = DIRECTION ( 'NONE',  ( -0.0000000000000000000, -0.0000000000000000000, -1.000000000000000000 ) ) ;
#32 = EDGE_CURVE ( 'NONE', #159, #84, #275, .T. ) ;
#33 =( GEOMETRIC_REPRESENTATION_CONTEXT ( 3 ) GLOBAL_UNCERTAINTY_ASSIGNED_CONTEXT ( ( #283 ) ) GLOBAL_UNIT_ASSIGNED_CONTEXT ( ( #13, #172, #12 ) ) REPRESENTATION_CONTEXT ( 'NONE', 'WORKASPACE' ) );
#34 = DIRECTION ( 'NONE',  ( 0.7071067811865499042, 8.659560562354961208E-17, -0.7071067811865451302 ) ) ;
#35 = DIRECTION ( 'NONE',  ( -1.224646799147353207E-16, -0.0000000000000000000, -1.000000000000000000 ) ) ;
#36 = AXIS2_PLACEMENT_3D ( 'NONE', #278, #193, #254 ) ;
#37 = DIRECTION ( 'NONE',  ( -1.224646799147353207E-16, -0.0000000000000000000, -1.000000000000000000 ) ) ;
#38 = APPLICATION_CONTEXT ( 'automotive_design' ) ;
#39 = VERTEX_POINT ( 'NONE', #189 ) ;
#40 = SURFACE_SIDE_STYLE ('',( #204 ) ) ;
#41 = AXIS2_PLACEMENT_3D ( 'NONE', #74, #169, #165 ) ;
#42 = PRESENTATION_LAYER_ASSIGNMENT (  '', '', ( #221 ) ) ;
#43 = VERTEX_POINT ( 'NONE', #145 ) ;
#44 =( CONVERSION_BASED_UNIT ( 'INCH', #158 ) LENGTH_UNIT ( ) NAMED_UNIT ( #91 ) );
#45 = PRODUCT ( 'Micro_SFP-250-46', 'Micro_SFP-250-46', '', ( #294 ) ) ;
#46 = ORIENTED_EDGE ( 'NONE', *, *, #3, .F. ) ;
#47 = AXIS2_PLACEMENT_3D ( 'NONE', #28, #280, #70 ) ;
#48 = ORIENTED_EDGE ( 'NONE', *, *, #263, .T. ) ;
#49 = DIRECTION ( 'NONE',  ( -1.000000000000000000, 0.0000000000000000000, 0.0000000000000000000 ) ) ;
#50 = CARTESIAN_POINT ( 'NONE',  ( 0.1248749999999999999, 1.529277690435257475E-17, 0.0000000000000000000 ) ) ;
#51 = FACE_OUTER_BOUND ( 'NONE', #191, .T. ) ;
#52 = DIRECTION ( 'NONE',  ( -1.224646799147353207E-16, -0.0000000000000000000, -1.000000000000000000 ) ) ;
#53 = EDGE_CURVE ( 'NONE', #295, #181, #80, .T. ) ;
#54 = CARTESIAN_POINT ( 'NONE',  ( -0.1250000000000000000, 0.0000000000000000000, 2.485000000000000320 ) ) ;
#55 =( LENGTH_UNIT ( ) NAMED_UNIT ( * ) SI_UNIT ( $, .METRE. ) );
#56 = CYLINDRICAL_SURFACE ( 'NONE', #98, 0.1250000000000000000 ) ;
#57 = DIRECTION ( 'NONE',  ( -1.000000000000000000, 0.0000000000000000000, 0.0000000000000000000 ) ) ;
#58 = CARTESIAN_POINT ( 'NONE',  ( -0.1248749999999999999, 0.0000000000000000000, 1.529277690435257475E-17 ) ) ;
#59 = AXIS2_PLACEMENT_3D ( 'NONE', #97, #6, #49 ) ;
#60 = AXIS2_PLACEMENT_3D ( 'NONE', #262, #175, #239 ) ;
#61 = LENGTH_MEASURE_WITH_UNIT ( LENGTH_MEASURE( 0.02539999999999999897 ), #153 );
#62 = APPLICATION_PROTOCOL_DEFINITION ( 'draft international standard', 'automotive_design', 1998, #38 ) ;
#63 = ORIENTED_EDGE ( 'NONE', *, *, #107, .T. ) ;
#64 = ORIENTED_EDGE ( 'NONE', *, *, #182, .T. ) ;
#65 = ORIENTED_EDGE ( 'NONE', *, *, #244, .F. ) ;
#66 = DIMENSIONAL_EXPONENTS ( 1.000000000000000000, 0.0000000000000000000, 0.0000000000000000000, 0.0000000000000000000, 0.0000000000000000000, 0.0000000000000000000, 0.0000000000000000000 ) ;
#67 = DIRECTION ( 'NONE',  ( 0.0000000000000000000, 0.0000000000000000000, -1.000000000000000000 ) ) ;
#68 = DIRECTION ( 'NONE',  ( 1.224646799147353207E-16, 0.0000000000000000000, 1.000000000000000000 ) ) ;
#69 = CARTESIAN_POINT ( 'NONE',  ( 0.1250000000000000000, 1.530808498934191509E-17, 2.500000000000000000 ) ) ;
#70 = DIRECTION ( 'NONE',  ( -1.000000000000000000, 0.0000000000000000000, 0.0000000000000000000 ) ) ;
#71 = EDGE_CURVE ( 'NONE', #227, #266, #134, .T. ) ;
#72 = CIRCLE ( 'NONE', #173, 0.1250000000000000000 ) ;
#73 = EDGE_CURVE ( 'NONE', #183, #159, #163, .T. ) ;
#74 = CARTESIAN_POINT ( 'NONE',  ( 1.872825028598994811E-33, 0.0000000000000000000, 1.529277690435257475E-17 ) ) ;
#75 = SURFACE_STYLE_USAGE ( .BOTH. , #132 ) ;
#76 = CARTESIAN_POINT ( 'NONE',  ( 0.1250000000000000000, 1.530808498934191509E-17, 2.485000000000000320 ) ) ;
#77 = ADVANCED_FACE ( 'NONE', ( #51 ), #129, .T. ) ;
#78 = CARTESIAN_POINT ( 'NONE',  ( 0.1248749999999999999, 1.529277690435257475E-17, -1.529277690435257475E-17 ) ) ;
#79 = DIRECTION ( 'NONE',  ( 0.0000000000000000000, 0.0000000000000000000, -1.000000000000000000 ) ) ;
#80 = CIRCLE ( 'NONE', #202, 0.1100000000000001948 ) ;
#81 = EDGE_LOOP ( 'NONE', ( #226, #48 ) ) ;
#82 = ORIENTED_EDGE ( 'NONE', *, *, #107, .F. ) ;
#83 = SHAPE_DEFINITION_REPRESENTATION ( #296, #27 ) ;
#84 = VERTEX_POINT ( 'NONE', #122 ) ;
#85 =( LENGTH_UNIT ( ) NAMED_UNIT ( * ) SI_UNIT ( $, .METRE. ) );
#86 = AXIS2_PLACEMENT_3D ( 'NONE', #243, #136, #108 ) ;
#87 = EDGE_LOOP ( 'NONE', ( #116, #273, #179, #135 ) ) ;
#88 =( NAMED_UNIT ( * ) PLANE_ANGLE_UNIT ( ) SI_UNIT ( $, .RADIAN. ) );
#89 = EDGE_LOOP ( 'NONE', ( #268, #64, #82, #291 ) ) ;
#90 = CARTESIAN_POINT ( 'NONE',  ( 0.0000000000000000000, 0.0000000000000000000, 2.500000000000000000 ) ) ;
#91 = DIMENSIONAL_EXPONENTS ( 1.000000000000000000, 0.0000000000000000000, 0.0000000000000000000, 0.0000000000000000000, 0.0000000000000000000, 0.0000000000000000000, 0.0000000000000000000 ) ;
#92 = PRODUCT_DEFINITION_CONTEXT ( 'detailed design', #38, 'design' ) ;
#93 = FACE_OUTER_BOUND ( 'NONE', #87, .T. ) ;
#94 = MECHANICAL_DESIGN_GEOMETRIC_PRESENTATION_REPRESENTATION (  '', ( #221 ), #33 ) ;
#95 = DIRECTION ( 'NONE',  ( -1.000000000000000000, 0.0000000000000000000, 0.0000000000000000000 ) ) ;
#96 = DIRECTION ( 'NONE',  ( 0.0000000000000000000, 0.0000000000000000000, -1.000000000000000000 ) ) ;
#97 = CARTESIAN_POINT ( 'NONE',  ( 9.184850993605150903E-17, 0.0000000000000000000, 0.7500000000000001110 ) ) ;
#98 = AXIS2_PLACEMENT_3D ( 'NONE', #237, #31, #57 ) ;
#99 = SURFACE_STYLE_FILL_AREA ( #105 ) ;
#100 = LENGTH_MEASURE_WITH_UNIT ( LENGTH_MEASURE( 0.02539999999999999897 ), #55 );
#101 = UNCERTAINTY_MEASURE_WITH_UNIT (LENGTH_MEASURE( 1.000000000000000082E-05 ), #44, 'distance_accuracy_value', 'NONE');
#102 = CARTESIAN_POINT ( 'NONE',  ( 0.0000000000000000000, 0.0000000000000000000, 2.500000000000000000 ) ) ;
#103 = VECTOR ( 'NONE', #34, 39.37007874015748143 ) ;
#104 = CARTESIAN_POINT ( 'NONE',  ( 0.1100000000000001948, 1.438959988998141146E-17, 2.500000000000000000 ) ) ;
#105 = FILL_AREA_STYLE ('',( #285 ) ) ;
#106 = ADVANCED_FACE ( 'NONE', ( #117 ), #148, .T. ) ;
#107 = EDGE_CURVE ( 'NONE', #43, #154, #220, .T. ) ;
#108 = DIRECTION ( 'NONE',  ( -1.000000000000000000, 0.0000000000000000000, 0.0000000000000000000 ) ) ;
#109 = DIRECTION ( 'NONE',  ( 0.0000000000000000000, 0.0000000000000000000, 1.000000000000000000 ) ) ;
#110 = ORIENTED_EDGE ( 'NONE', *, *, #182, .F. ) ;
#111 = EDGE_LOOP ( 'NONE', ( #63, #137 ) ) ;
#112 =( NAMED_UNIT ( * ) PLANE_ANGLE_UNIT ( ) SI_UNIT ( $, .RADIAN. ) );
#113 = ORIENTED_EDGE ( 'NONE', *, *, #21, .T. ) ;
#114 = VECTOR ( 'NONE', #26, 39.37007874015747433 ) ;
#115 =( GEOMETRIC_REPRESENTATION_CONTEXT ( 3 ) GLOBAL_UNCERTAINTY_ASSIGNED_CONTEXT ( ( #140 ) ) GLOBAL_UNIT_ASSIGNED_CONTEXT ( ( #246, #88, #1 ) ) REPRESENTATION_CONTEXT ( 'NONE', 'WORKASPACE' ) );
#116 = ORIENTED_EDGE ( 'NONE', *, *, #23, .F. ) ;
#117 = FACE_OUTER_BOUND ( 'NONE', #20, .T. ) ;
#118 = DIRECTION ( 'NONE',  ( 1.000000000000000000, 0.0000000000000000000, -0.0000000000000000000 ) ) ;
#119 = CARTESIAN_POINT ( 'NONE',  ( 0.0000000000000000000, 0.0000000000000000000, 2.500000000000000000 ) ) ;
#120 = VECTOR ( 'NONE', #11, 39.37007874015748143 ) ;
#121 = DIRECTION ( 'NONE',  ( -1.224646799147353207E-16, -0.0000000000000000000, -1.000000000000000000 ) ) ;
#122 = CARTESIAN_POINT ( 'NONE',  ( -0.1249999999999999167, 0.0000000000000000000, 0.7507089102274522308 ) ) ;
#123 = CARTESIAN_POINT ( 'NONE',  ( 0.0000000000000000000, 0.0000000000000000000, 0.0000000000000000000 ) ) ;
#124 = AXIS2_PLACEMENT_3D ( 'NONE', #234, #121, #141 ) ;
#125 = FACE_OUTER_BOUND ( 'NONE', #89, .T. ) ;
#126 = EDGE_CURVE ( 'NONE', #183, #39, #139, .T. ) ;
#127 = LINE ( 'NONE', #217, #120 ) ;
#128 = LINE ( 'NONE', #58, #130 ) ;
#129 = CONICAL_SURFACE ( 'NONE', #276, 0.1100000000000001948, 0.7853981633974517207 ) ;
#130 = VECTOR ( 'NONE', #146, 39.37007874015748143 ) ;
#131 = ADVANCED_FACE ( 'NONE', ( #192 ), #168, .F. ) ;
#132 = SURFACE_SIDE_STYLE ('',( #99 ) ) ;
#133 = CIRCLE ( 'NONE', #167, 0.1248749999999999999 ) ;
#134 = CIRCLE ( 'NONE', #194, 0.1250000000000000000 ) ;
#135 = ORIENTED_EDGE ( 'NONE', *, *, #126, .F. ) ;
#136 = DIRECTION ( 'NONE',  ( -0.0000000000000000000, -0.0000000000000000000, -1.000000000000000000 ) ) ;
#137 = ORIENTED_EDGE ( 'NONE', *, *, #3, .T. ) ;
#138 = ORIENTED_EDGE ( 'NONE', *, *, #156, .T. ) ;
#139 = LINE ( 'NONE', #5, #190 ) ;
#140 = UNCERTAINTY_MEASURE_WITH_UNIT (LENGTH_MEASURE( 1.000000000000000082E-05 ), #246, 'distance_accuracy_value', 'NONE');
#141 = DIRECTION ( 'NONE',  ( -1.000000000000000000, 0.0000000000000000000, 0.0000000000000000000 ) ) ;
#142 = DIRECTION ( 'NONE',  ( -0.7071067811865499042, 0.0000000000000000000, -0.7071067811865451302 ) ) ;
#143 = FACE_OUTER_BOUND ( 'NONE', #162, .T. ) ;
#144 = ADVANCED_FACE ( 'NONE', ( #93 ), #224, .T. ) ;
#145 = CARTESIAN_POINT ( 'NONE',  ( -0.1248749999999999999, 0.0000000000000000000, 3.058555380870514950E-17 ) ) ;
#146 = DIRECTION ( 'NONE',  ( -1.224646799147353207E-16, -0.0000000000000000000, -1.000000000000000000 ) ) ;
#147 = CYLINDRICAL_SURFACE ( 'NONE', #60, 0.1248749999999999999 ) ;
#148 = CONICAL_SURFACE ( 'NONE', #298, 0.1248749999999999999, 0.1745329251994338082 ) ;
#149 = CYLINDRICAL_SURFACE ( 'NONE', #174, 0.1248749999999999999 ) ;
#150 = LINE ( 'NONE', #78, #287 ) ;
#151 = DIRECTION ( 'NONE',  ( 1.000000000000000000, 0.0000000000000000000, 0.0000000000000000000 ) ) ;
#152 = STYLED_ITEM ( 'NONE', ( #264 ), #27 ) ;
#153 =( LENGTH_UNIT ( ) NAMED_UNIT ( * ) SI_UNIT ( $, .METRE. ) );
#154 = VERTEX_POINT ( 'NONE', #50 ) ;
#155 = ORIENTED_EDGE ( 'NONE', *, *, #53, .F. ) ;
#156 = EDGE_CURVE ( 'NONE', #266, #39, #279, .T. ) ;
#157 = AXIS2_PLACEMENT_3D ( 'NONE', #260, #79, #151 ) ;
#158 = LENGTH_MEASURE_WITH_UNIT ( LENGTH_MEASURE( 0.02539999999999999897 ), #85 );
#159 = VERTEX_POINT ( 'NONE', #255 ) ;
#160 = EDGE_LOOP ( 'NONE', ( #110, #223, #222, #46 ) ) ;
#161 = ADVANCED_FACE ( 'NONE', ( #143 ), #206, .T. ) ;
#162 = EDGE_LOOP ( 'NONE', ( #185, #2, #293, #245 ) ) ;
#163 = CIRCLE ( 'NONE', #59, 0.1248749999999999999 ) ;
#164 = DIRECTION ( 'NONE',  ( 0.1736481776669313026, 0.0000000000000000000, 0.9848077530122077983 ) ) ;
#165 = DIRECTION ( 'NONE',  ( -1.000000000000000000, 0.0000000000000000000, 1.224646799147353454E-16 ) ) ;
#166 = CARTESIAN_POINT ( 'NONE',  ( 9.184850993605150903E-17, 0.0000000000000000000, 0.7500000000000001110 ) ) ;
#167 = AXIS2_PLACEMENT_3D ( 'NONE', #25, #29, #8 ) ;
#168 = PLANE ( 'NONE',  #228 ) ;
#169 = DIRECTION ( 'NONE',  ( -1.224646799147353207E-16, -0.0000000000000000000, -1.000000000000000000 ) ) ;
#170 = PRODUCT_RELATED_PRODUCT_CATEGORY ( 'part', '', ( #45 ) ) ;
#171 = EDGE_CURVE ( 'NONE', #84, #39, #72, .T. ) ;
#172 =( NAMED_UNIT ( * ) PLANE_ANGLE_UNIT ( ) SI_UNIT ( $, .RADIAN. ) );
#173 = AXIS2_PLACEMENT_3D ( 'NONE', #257, #52, #240 ) ;
#174 = AXIS2_PLACEMENT_3D ( 'NONE', #123, #35, #219 ) ;
#175 = DIRECTION ( 'NONE',  ( -1.224646799147353207E-16, -0.0000000000000000000, -1.000000000000000000 ) ) ;
#176 = ADVANCED_FACE ( 'NONE', ( #284 ), #56, .T. ) ;
#177 = DIRECTION ( 'NONE',  ( -1.224646799147353207E-16, -0.0000000000000000000, -1.000000000000000000 ) ) ;
#178 = FACE_OUTER_BOUND ( 'NONE', #160, .T. ) ;
#179 = ORIENTED_EDGE ( 'NONE', *, *, #171, .T. ) ;
#180 = CYLINDRICAL_SURFACE ( 'NONE', #86, 0.1250000000000000000 ) ;
#181 = VERTEX_POINT ( 'NONE', #104 ) ;
#182 = EDGE_CURVE ( 'NONE', #183, #154, #150, .T. ) ;
#183 = VERTEX_POINT ( 'NONE', #261 ) ;
#184 = CIRCLE ( 'NONE', #124, 0.1248749999999999999 ) ;
#185 = ORIENTED_EDGE ( 'NONE', *, *, #263, .F. ) ;
#186 = EDGE_CURVE ( 'NONE', #181, #266, #197, .T. ) ;
#187 = ADVANCED_FACE ( 'NONE', ( #125 ), #147, .T. ) ;
#188 = ORIENTED_EDGE ( 'NONE', *, *, #71, .T. ) ;
#189 = CARTESIAN_POINT ( 'NONE',  ( 0.1250000000000000833, 1.530808498934192433E-17, 0.7507089102274522308 ) ) ;
#190 = VECTOR ( 'NONE', #164, 39.37007874015748143 ) ;
#191 = EDGE_LOOP ( 'NONE', ( #249, #155, #113, #247 ) ) ;
#192 = FACE_OUTER_BOUND ( 'NONE', #111, .T. ) ;
#193 = DIRECTION ( 'NONE',  ( 1.224646799147353207E-16, 0.0000000000000000000, 1.000000000000000000 ) ) ;
#194 = AXIS2_PLACEMENT_3D ( 'NONE', #211, #67, #215 ) ;
#195 = AXIS2_PLACEMENT_3D ( 'NONE', #15, #109, #248 ) ;
#196 = DIRECTION ( 'NONE',  ( 1.000000000000000000, 0.0000000000000000000, 0.0000000000000000000 ) ) ;
#197 = LINE ( 'NONE', #201, #103 ) ;
#198 = DIRECTION ( 'NONE',  ( 0.0000000000000000000, 0.0000000000000000000, 1.000000000000000000 ) ) ;
#199 = CIRCLE ( 'NONE', #157, 0.1250000000000000000 ) ;
#200 = FACE_OUTER_BOUND ( 'NONE', #207, .T. ) ;
#201 = CARTESIAN_POINT ( 'NONE',  ( 0.1100000000000001948, 1.347111479062090784E-17, 2.500000000000000000 ) ) ;
#202 = AXIS2_PLACEMENT_3D ( 'NONE', #119, #282, #24 ) ;
#203 = APPLICATION_PROTOCOL_DEFINITION ( 'draft international standard', 'automotive_design', 1998, #286 ) ;
#204 = SURFACE_STYLE_FILL_AREA ( #19 ) ;
#205 = ORIENTED_EDGE ( 'NONE', *, *, #244, .T. ) ;
#206 = CONICAL_SURFACE ( 'NONE', #47, 0.1100000000000001948, 0.7853981633974517207 ) ;
#207 = EDGE_LOOP ( 'NONE', ( #188, #138, #14, #65 ) ) ;
#208 = FACE_OUTER_BOUND ( 'NONE', #81, .T. ) ;
#209 = CARTESIAN_POINT ( 'NONE',  ( 0.0000000000000000000, 0.0000000000000000000, 2.500000000000000000 ) ) ;
#210 = VECTOR ( 'NONE', #212, 39.37007874015748143 ) ;
#211 = CARTESIAN_POINT ( 'NONE',  ( 0.0000000000000000000, 0.0000000000000000000, 2.485000000000000320 ) ) ;
#212 = DIRECTION ( 'NONE',  ( -0.0000000000000000000, -0.0000000000000000000, -1.000000000000000000 ) ) ;
#213 = CLOSED_SHELL ( 'NONE', ( #187, #144, #161, #274, #176, #30, #77, #106, #231, #131 ) ) ;
#214 = EDGE_CURVE ( 'NONE', #39, #84, #271, .T. ) ;
#215 = DIRECTION ( 'NONE',  ( 1.000000000000000000, 0.0000000000000000000, 0.0000000000000000000 ) ) ;
#216 = AXIS2_PLACEMENT_3D ( 'NONE', #90, #236, #118 ) ;
#217 = CARTESIAN_POINT ( 'NONE',  ( -0.1250000000000000000, 0.0000000000000000000, 2.500000000000000000 ) ) ;
#218 = DIRECTION ( 'NONE',  ( 1.000000000000000000, 0.0000000000000000000, 0.0000000000000000000 ) ) ;
#219 = DIRECTION ( 'NONE',  ( -1.000000000000000000, 0.0000000000000000000, 1.224646799147353454E-16 ) ) ;
#220 = CIRCLE ( 'NONE', #41, 0.1248749999999999999 ) ;
#221 = STYLED_ITEM ( 'NONE', ( #238 ), #258 ) ;
#222 = ORIENTED_EDGE ( 'NONE', *, *, #235, .T. ) ;
#223 = ORIENTED_EDGE ( 'NONE', *, *, #73, .T. ) ;
#224 = CONICAL_SURFACE ( 'NONE', #36, 0.1248749999999999999, 0.1745329251994338082 ) ;
#225 = ORIENTED_EDGE ( 'NONE', *, *, #32, .F. ) ;
#226 = ORIENTED_EDGE ( 'NONE', *, *, #53, .T. ) ;
#227 = VERTEX_POINT ( 'NONE', #54 ) ;
#228 = AXIS2_PLACEMENT_3D ( 'NONE', #230, #233, #251 ) ;
#229 =( GEOMETRIC_REPRESENTATION_CONTEXT ( 3 ) GLOBAL_UNCERTAINTY_ASSIGNED_CONTEXT ( ( #101 ) ) GLOBAL_UNIT_ASSIGNED_CONTEXT ( ( #44, #112, #265 ) ) REPRESENTATION_CONTEXT ( 'NONE', 'WORKASPACE' ) );
#230 = CARTESIAN_POINT ( 'NONE',  ( 0.0000000000000000000, 0.0000000000000000000, 0.0000000000000000000 ) ) ;
#231 = ADVANCED_FACE ( 'NONE', ( #178 ), #149, .T. ) ;
#232 = PLANE ( 'NONE',  #216 ) ;
#233 = DIRECTION ( 'NONE',  ( 0.0000000000000000000, 0.0000000000000000000, 1.000000000000000000 ) ) ;
#234 = CARTESIAN_POINT ( 'NONE',  ( 9.184850993605150903E-17, 0.0000000000000000000, 0.7500000000000001110 ) ) ;
#235 = EDGE_CURVE ( 'NONE', #159, #43, #128, .T. ) ;
#236 = DIRECTION ( 'NONE',  ( 0.0000000000000000000, 0.0000000000000000000, 1.000000000000000000 ) ) ;
#237 = CARTESIAN_POINT ( 'NONE',  ( 0.0000000000000000000, 0.0000000000000000000, 2.500000000000000000 ) ) ;
#238 = PRESENTATION_STYLE_ASSIGNMENT (( #75 ) ) ;
#239 = DIRECTION ( 'NONE',  ( -1.000000000000000000, 0.0000000000000000000, 1.224646799147353454E-16 ) ) ;
#240 = DIRECTION ( 'NONE',  ( 1.000000000000000000, 0.0000000000000000000, 0.0000000000000000000 ) ) ;
#241 = AXIS2_PLACEMENT_3D ( 'NONE', #102, #198, #288 ) ;
#242 = PRODUCT_DEFINITION ( 'UNKNOWN', '', #290, #92 ) ;
#243 = CARTESIAN_POINT ( 'NONE',  ( 0.0000000000000000000, 0.0000000000000000000, 2.500000000000000000 ) ) ;
#244 = EDGE_CURVE ( 'NONE', #227, #84, #127, .T. ) ;
#245 = ORIENTED_EDGE ( 'NONE', *, *, #21, .F. ) ;
#246 =( CONVERSION_BASED_UNIT ( 'INCH', #61 ) LENGTH_UNIT ( ) NAMED_UNIT ( #253 ) );
#247 = ORIENTED_EDGE ( 'NONE', *, *, #252, .F. ) ;
#248 = DIRECTION ( 'NONE',  ( 1.000000000000000000, 0.0000000000000000000, 0.0000000000000000000 ) ) ;
#249 = ORIENTED_EDGE ( 'NONE', *, *, #186, .F. ) ;
#250 = ORIENTED_EDGE ( 'NONE', *, *, #73, .F. ) ;
#251 = DIRECTION ( 'NONE',  ( 1.000000000000000000, 0.0000000000000000000, -0.0000000000000000000 ) ) ;
#252 = EDGE_CURVE ( 'NONE', #266, #227, #199, .T. ) ;
#253 = DIMENSIONAL_EXPONENTS ( 1.000000000000000000, 0.0000000000000000000, 0.0000000000000000000, 0.0000000000000000000, 0.0000000000000000000, 0.0000000000000000000, 0.0000000000000000000 ) ;
#254 = DIRECTION ( 'NONE',  ( 1.000000000000000000, 0.0000000000000000000, 0.0000000000000000000 ) ) ;
#255 = CARTESIAN_POINT ( 'NONE',  ( -0.1248749999999999166, 1.530043094684724646E-17, 0.7500000000000001110 ) ) ;
#256 = AXIS2_PLACEMENT_3D ( 'NONE', #289, #177, #218 ) ;
#257 = CARTESIAN_POINT ( 'NONE',  ( 9.193532640014472135E-17, 0.0000000000000000000, 0.7507089102274522308 ) ) ;
#258 = MANIFOLD_SOLID_BREP ( 'Cut-Revolve1', #213 ) ;
#259 = LINE ( 'NONE', #4, #9 ) ;
#260 = CARTESIAN_POINT ( 'NONE',  ( 0.0000000000000000000, 0.0000000000000000000, 2.485000000000000320 ) ) ;
#261 = CARTESIAN_POINT ( 'NONE',  ( 0.1248750000000000970, 0.0000000000000000000, 0.7500000000000001110 ) ) ;
#262 = CARTESIAN_POINT ( 'NONE',  ( 0.0000000000000000000, 0.0000000000000000000, 0.0000000000000000000 ) ) ;
#263 = EDGE_CURVE ( 'NONE', #181, #295, #277, .T. ) ;
#264 = PRESENTATION_STYLE_ASSIGNMENT (( #267 ) ) ;
#265 =( NAMED_UNIT ( * ) SI_UNIT ( $, .STERADIAN. ) SOLID_ANGLE_UNIT ( ) );
#266 = VERTEX_POINT ( 'NONE', #76 ) ;
#267 = SURFACE_STYLE_USAGE ( .BOTH. , #40 ) ;
#268 = ORIENTED_EDGE ( 'NONE', *, *, #23, .T. ) ;
#269 = CARTESIAN_POINT ( 'NONE',  ( -0.1100000000000001948, 0.0000000000000000000, 2.500000000000000000 ) ) ;
#270 = ORIENTED_EDGE ( 'NONE', *, *, #156, .F. ) ;
#271 = CIRCLE ( 'NONE', #256, 0.1250000000000000000 ) ;
#272 = ORIENTED_EDGE ( 'NONE', *, *, #214, .F. ) ;
#273 = ORIENTED_EDGE ( 'NONE', *, *, #32, .T. ) ;
#274 = ADVANCED_FACE ( 'NONE', ( #200 ), #180, .T. ) ;
#275 = LINE ( 'NONE', #7, #114 ) ;
#276 = AXIS2_PLACEMENT_3D ( 'NONE', #209, #96, #95 ) ;
#277 = CIRCLE ( 'NONE', #241, 0.1100000000000001948 ) ;
#278 = CARTESIAN_POINT ( 'NONE',  ( 9.184850993605150903E-17, 0.0000000000000000000, 0.7500000000000001110 ) ) ;
#279 = LINE ( 'NONE', #69, #210 ) ;
#280 = DIRECTION ( 'NONE',  ( 0.0000000000000000000, 0.0000000000000000000, -1.000000000000000000 ) ) ;
#281 = COLOUR_RGB ( '',0.7921568627450980005, 0.8196078431372548767, 0.9333333333333333481 ) ;
#282 = DIRECTION ( 'NONE',  ( 0.0000000000000000000, 0.0000000000000000000, 1.000000000000000000 ) ) ;
#283 = UNCERTAINTY_MEASURE_WITH_UNIT (LENGTH_MEASURE( 1.000000000000000082E-05 ), #13, 'distance_accuracy_value', 'NONE');
#284 = FACE_OUTER_BOUND ( 'NONE', #22, .T. ) ;
#285 = FILL_AREA_STYLE_COLOUR ( '', #299 ) ;
#286 = APPLICATION_CONTEXT ( 'automotive_design' ) ;
#287 = VECTOR ( 'NONE', #37, 39.37007874015748143 ) ;
#288 = DIRECTION ( 'NONE',  ( 1.000000000000000000, 0.0000000000000000000, 0.0000000000000000000 ) ) ;
#289 = CARTESIAN_POINT ( 'NONE',  ( 9.193532640014472135E-17, 0.0000000000000000000, 0.7507089102274522308 ) ) ;
#290 = PRODUCT_DEFINITION_FORMATION_WITH_SPECIFIED_SOURCE ( 'ANY', '', #45, .NOT_KNOWN. ) ;
#291 = ORIENTED_EDGE ( 'NONE', *, *, #235, .F. ) ;
#292 = FILL_AREA_STYLE_COLOUR ( '', #281 ) ;
#293 = ORIENTED_EDGE ( 'NONE', *, *, #71, .F. ) ;
#294 = PRODUCT_CONTEXT ( 'NONE', #286, 'mechanical' ) ;
#295 = VERTEX_POINT ( 'NONE', #269 ) ;
#296 = PRODUCT_DEFINITION_SHAPE ( 'NONE', 'NONE',  #242 ) ;
#297 = ORIENTED_EDGE ( 'NONE', *, *, #252, .T. ) ;
#298 = AXIS2_PLACEMENT_3D ( 'NONE', #166, #68, #196 ) ;
#299 = COLOUR_RGB ( '',0.7921568627450980005, 0.8196078431372548767, 0.9333333333333333481 ) ;
ENDSEC;
END-ISO-10303-21;
