ISO-10303-21;
HEADER;
FILE_DESCRIPTION (( 'STEP AP214' ),
    '1' );
FILE_NAME ('81554.STEP',
    '2023-06-23T01:45:41',
    ( '' ),
    ( '' ),
    'SwSTEP 2.0',
    'SolidWorks 2023',
    '' );
FILE_SCHEMA (( 'AUTOMOTIVE_DESIGN' ));
ENDSEC;

DATA;
#1 = CIRCLE ( 'NONE', #109, 0.09375000000000001388 ) ;
#2 = COLOUR_RGB ( '',1.000000000000000000, 0.000000000000000000, 0.000000000000000000 ) ;
#3 = CIRCLE ( 'NONE', #122, 0.09375000000000001388 ) ;
#4 = ADVANCED_FACE ( 'NONE', ( #280 ), #68, .T. ) ;
#5 =( NAMED_UNIT ( * ) PLANE_ANGLE_UNIT ( ) SI_UNIT ( $, .RADIAN. ) );
#6 = UNCERTAINTY_MEASURE_WITH_UNIT (LENGTH_MEASURE( 1.000000000000000082E-05 ), #50, 'distance_accuracy_value', 'NONE');
#7 = DIRECTION ( 'NONE',  ( -1.000000000000000000, 0.000000000000000000, 0.000000000000000000 ) ) ;
#8 = MECHANICAL_DESIGN_GEOMETRIC_PRESENTATION_REPRESENTATION (  '', ( #198 ), #225 ) ;
#9 =( CONVERSION_BASED_UNIT ( 'INCH', #28 ) LENGTH_UNIT ( ) NAMED_UNIT ( #126 ) );
#10 = FACE_OUTER_BOUND ( 'NONE', #237, .T. ) ;
#11 = CARTESIAN_POINT ( 'NONE',  ( 0.000000000000000000, 0.000000000000000000, 0.000000000000000000 ) ) ;
#12 = VECTOR ( 'NONE', #245, 39.37007874015748143 ) ;
#13 = SURFACE_SIDE_STYLE ('',( #62 ) ) ;
#14 = VERTEX_POINT ( 'NONE', #288 ) ;
#15 = ORIENTED_EDGE ( 'NONE', *, *, #171, .T. ) ;
#16 = DIRECTION ( 'NONE',  ( -0.000000000000000000, -1.000000000000000000, -0.000000000000000000 ) ) ;
#17 =( GEOMETRIC_REPRESENTATION_CONTEXT ( 3 ) GLOBAL_UNCERTAINTY_ASSIGNED_CONTEXT ( ( #6 ) ) GLOBAL_UNIT_ASSIGNED_CONTEXT ( ( #50, #71, #289 ) ) REPRESENTATION_CONTEXT ( 'NONE', 'WORKASPACE' ) );
#18 = SURFACE_STYLE_FILL_AREA ( #184 ) ;
#19 = ORIENTED_EDGE ( 'NONE', *, *, #282, .T. ) ;
#20 = CARTESIAN_POINT ( 'NONE',  ( 0.000000000000000000, 0.000000000000000000, -0.09375000000000001388 ) ) ;
#21 = CLOSED_SHELL ( 'NONE', ( #167, #46, #232, #301 ) ) ;
#22 = VECTOR ( 'NONE', #147, 39.37007874015748143 ) ;
#23 = SURFACE_STYLE_USAGE ( .BOTH. , #309 ) ;
#24 = EDGE_CURVE ( 'NONE', #299, #96, #1, .T. ) ;
#25 = ADVANCED_FACE ( 'NONE', ( #53 ), #51, .T. ) ;
#26 = DIRECTION ( 'NONE',  ( -0.000000000000000000, -1.000000000000000000, -0.000000000000000000 ) ) ;
#27 = UNCERTAINTY_MEASURE_WITH_UNIT (LENGTH_MEASURE( 1.000000000000000082E-05 ), #211, 'distance_accuracy_value', 'NONE');
#28 = LENGTH_MEASURE_WITH_UNIT ( LENGTH_MEASURE( 0.02539999999999999897 ), #35 );
#29 = PRESENTATION_STYLE_ASSIGNMENT (( #190 ) ) ;
#30 = DIMENSIONAL_EXPONENTS ( 1.000000000000000000, 0.000000000000000000, 0.000000000000000000, 0.000000000000000000, 0.000000000000000000, 0.000000000000000000, 0.000000000000000000 ) ;
#31 = DIRECTION ( 'NONE',  ( 2.041077998578922094E-16, 1.000000000000000000, -0.000000000000000000 ) ) ;
#32 =( NAMED_UNIT ( * ) PLANE_ANGLE_UNIT ( ) SI_UNIT ( $, .RADIAN. ) );
#33 = CARTESIAN_POINT ( 'NONE',  ( 0.000000000000000000, 1.000000000000000000, 0.000000000000000000 ) ) ;
#34 = DIRECTION ( 'NONE',  ( -1.000000000000000000, 2.041077998578922341E-16, 0.000000000000000000 ) ) ;
#35 =( LENGTH_UNIT ( ) NAMED_UNIT ( * ) SI_UNIT ( $, .METRE. ) );
#36 = VECTOR ( 'NONE', #102, 39.37007874015748143 ) ;
#37 = SURFACE_STYLE_USAGE ( .BOTH. , #13 ) ;
#38 =( NAMED_UNIT ( * ) PLANE_ANGLE_UNIT ( ) SI_UNIT ( $, .RADIAN. ) );
#39 = ORIENTED_EDGE ( 'NONE', *, *, #100, .T. ) ;
#40 = LENGTH_MEASURE_WITH_UNIT ( LENGTH_MEASURE( 0.02539999999999999897 ), #140 );
#41 = ORIENTED_EDGE ( 'NONE', *, *, #251, .F. ) ;
#42 = CARTESIAN_POINT ( 'NONE',  ( 0.000000000000000000, 0.000000000000000000, 0.000000000000000000 ) ) ;
#43 = AXIS2_PLACEMENT_3D ( 'NONE', #133, #226, #252 ) ;
#44 = AXIS2_PLACEMENT_3D ( 'NONE', #249, #26, #47 ) ;
#45 = SURFACE_STYLE_USAGE ( .BOTH. , #89 ) ;
#46 = ADVANCED_FACE ( 'NONE', ( #143 ), #136, .F. ) ;
#47 = DIRECTION ( 'NONE',  ( 0.000000000000000000, 0.000000000000000000, -1.000000000000000000 ) ) ;
#48 = ORIENTED_EDGE ( 'NONE', *, *, #307, .F. ) ;
#49 = CARTESIAN_POINT ( 'NONE',  ( 3.061616997868383141E-16, 2.500000000000000000, 0.000000000000000000 ) ) ;
#50 =( CONVERSION_BASED_UNIT ( 'INCH', #218 ) LENGTH_UNIT ( ) NAMED_UNIT ( #30 ) );
#51 = PLANE ( 'NONE',  #43 ) ;
#52 = ADVANCED_FACE ( 'NONE', ( #83 ), #115, .T. ) ;
#53 = FACE_OUTER_BOUND ( 'NONE', #285, .T. ) ;
#54 = COLOUR_RGB ( '',1.000000000000000000, 0.000000000000000000, 0.000000000000000000 ) ;
#55 = AXIS2_PLACEMENT_3D ( 'NONE', #33, #227, #175 ) ;
#56 =( LENGTH_UNIT ( ) NAMED_UNIT ( * ) SI_UNIT ( $, .METRE. ) );
#57 = FILL_AREA_STYLE ('',( #267 ) ) ;
#58 = VECTOR ( 'NONE', #79, 39.37007874015748143 ) ;
#59 = MANIFOLD_SOLID_BREP ( 'Revolve - Cutting Edge', #243 ) ;
#60 = EDGE_CURVE ( 'NONE', #185, #14, #306, .T. ) ;
#61 = APPLICATION_PROTOCOL_DEFINITION ( 'draft international standard', 'automotive_design', 1998, #274 ) ;
#62 = SURFACE_STYLE_FILL_AREA ( #205 ) ;
#63 = CARTESIAN_POINT ( 'NONE',  ( 0.000000000000000000, 1.000000000000000000, -0.09375000000000001388 ) ) ;
#64 = PRESENTATION_LAYER_ASSIGNMENT (  '', '', ( #177 ) ) ;
#65 = ORIENTED_EDGE ( 'NONE', *, *, #60, .F. ) ;
#66 = ORIENTED_EDGE ( 'NONE', *, *, #24, .T. ) ;
#67 = CARTESIAN_POINT ( 'NONE',  ( 1.952812217007627778E-33, 1.000000000000000000, 0.000000000000000000 ) ) ;
#68 = CYLINDRICAL_SURFACE ( 'NONE', #275, 0.09375000000000001388 ) ;
#69 = UNCERTAINTY_MEASURE_WITH_UNIT (LENGTH_MEASURE( 1.000000000000000082E-05 ), #73, 'distance_accuracy_value', 'NONE');
#70 =( GEOMETRIC_REPRESENTATION_CONTEXT ( 3 ) GLOBAL_UNCERTAINTY_ASSIGNED_CONTEXT ( ( #186 ) ) GLOBAL_UNIT_ASSIGNED_CONTEXT ( ( #88, #231, #163 ) ) REPRESENTATION_CONTEXT ( 'NONE', 'WORKASPACE' ) );
#71 =( NAMED_UNIT ( * ) PLANE_ANGLE_UNIT ( ) SI_UNIT ( $, .RADIAN. ) );
#72 = ORIENTED_EDGE ( 'NONE', *, *, #124, .F. ) ;
#73 =( CONVERSION_BASED_UNIT ( 'INCH', #284 ) LENGTH_UNIT ( ) NAMED_UNIT ( #202 ) );
#74 = CARTESIAN_POINT ( 'NONE',  ( 0.000000000000000000, 0.000000000000000000, 0.000000000000000000 ) ) ;
#75 = MECHANICAL_DESIGN_GEOMETRIC_PRESENTATION_REPRESENTATION (  '', ( #129 ), #180 ) ;
#76 = AXIS2_PLACEMENT_3D ( 'NONE', #11, #204, #296 ) ;
#77 = FILL_AREA_STYLE ('',( #242 ) ) ;
#78 = SURFACE_STYLE_FILL_AREA ( #195 ) ;
#79 = DIRECTION ( 'NONE',  ( -0.000000000000000000, -1.000000000000000000, -0.000000000000000000 ) ) ;
#80 = SURFACE_SIDE_STYLE ('',( #78 ) ) ;
#81 = COLOUR_RGB ( '',0.7921568627450980005, 0.8196078431372548767, 0.9333333333333333481 ) ;
#82 =( NAMED_UNIT ( * ) SI_UNIT ( $, .STERADIAN. ) SOLID_ANGLE_UNIT ( ) );
#83 = FACE_OUTER_BOUND ( 'NONE', #234, .T. ) ;
#84 = APPLICATION_PROTOCOL_DEFINITION ( 'draft international standard', 'automotive_design', 1998, #106 ) ;
#85 = DIRECTION ( 'NONE',  ( 1.000000000000000000, -2.041077998578922341E-16, 0.000000000000000000 ) ) ;
#86 = COLOUR_RGB ( '',1.000000000000000000, 0.000000000000000000, 0.000000000000000000 ) ;
#87 = ORIENTED_EDGE ( 'NONE', *, *, #194, .F. ) ;
#88 =( CONVERSION_BASED_UNIT ( 'INCH', #40 ) LENGTH_UNIT ( ) NAMED_UNIT ( #160 ) );
#89 = SURFACE_SIDE_STYLE ('',( #101 ) ) ;
#90 = DIRECTION ( 'NONE',  ( -1.000000000000000000, 0.000000000000000000, 0.000000000000000000 ) ) ;
#91 = ORIENTED_EDGE ( 'NONE', *, *, #282, .F. ) ;
#92 = DIRECTION ( 'NONE',  ( -1.000000000000000000, 0.000000000000000000, 0.000000000000000000 ) ) ;
#93 = EDGE_CURVE ( 'NONE', #96, #299, #152, .T. ) ;
#94 =( NAMED_UNIT ( * ) SI_UNIT ( $, .STERADIAN. ) SOLID_ANGLE_UNIT ( ) );
#95 = DIMENSIONAL_EXPONENTS ( 1.000000000000000000, 0.000000000000000000, 0.000000000000000000, 0.000000000000000000, 0.000000000000000000, 0.000000000000000000, 0.000000000000000000 ) ;
#96 = VERTEX_POINT ( 'NONE', #256 ) ;
#97 = AXIS2_PLACEMENT_3D ( 'NONE', #67, #255, #34 ) ;
#98 = DIRECTION ( 'NONE',  ( 2.041077998578922094E-16, 1.000000000000000000, -0.000000000000000000 ) ) ;
#99 = PRODUCT_DEFINITION_FORMATION_WITH_SPECIFIED_SOURCE ( 'ANY', '', #240, .NOT_KNOWN. ) ;
#100 = EDGE_CURVE ( 'NONE', #14, #185, #173, .T. ) ;
#101 = SURFACE_STYLE_FILL_AREA ( #128 ) ;
#102 = DIRECTION ( 'NONE',  ( -0.000000000000000000, -1.000000000000000000, -0.000000000000000000 ) ) ;
#103 = PRODUCT_DEFINITION_SHAPE ( 'NONE', 'NONE',  #113 ) ;
#104 = AXIS2_PLACEMENT_3D ( 'NONE', #273, #269, #85 ) ;
#105 = EDGE_CURVE ( 'NONE', #141, #283, #142, .T. ) ;
#106 = APPLICATION_CONTEXT ( 'automotive_design' ) ;
#107 = CARTESIAN_POINT ( 'NONE',  ( 3.061616997868383141E-16, 2.500000000000000000, 0.000000000000000000 ) ) ;
#108 =( NAMED_UNIT ( * ) SI_UNIT ( $, .STERADIAN. ) SOLID_ANGLE_UNIT ( ) );
#109 = AXIS2_PLACEMENT_3D ( 'NONE', #169, #264, #261 ) ;
#110 = MECHANICAL_DESIGN_GEOMETRIC_PRESENTATION_REPRESENTATION (  '', ( #233 ), #70 ) ;
#111 = SURFACE_STYLE_USAGE ( .BOTH. , #80 ) ;
#112 = CARTESIAN_POINT ( 'NONE',  ( 0.000000000000000000, 0.000000000000000000, 0.000000000000000000 ) ) ;
#113 = PRODUCT_DEFINITION ( 'UNKNOWN', '', #99, #214 ) ;
#114 = AXIS2_PLACEMENT_3D ( 'NONE', #107, #236, #7 ) ;
#115 = CYLINDRICAL_SURFACE ( 'NONE', #266, 0.09375000000000001388 ) ;
#116 = DIRECTION ( 'NONE',  ( 0.000000000000000000, -1.000000000000000000, -0.000000000000000000 ) ) ;
#117 = LENGTH_MEASURE_WITH_UNIT ( LENGTH_MEASURE( 0.02539999999999999897 ), #137 );
#118 = DIMENSIONAL_EXPONENTS ( 1.000000000000000000, 0.000000000000000000, 0.000000000000000000, 0.000000000000000000, 0.000000000000000000, 0.000000000000000000, 0.000000000000000000 ) ;
#119 = ORIENTED_EDGE ( 'NONE', *, *, #24, .F. ) ;
#120 = PRESENTATION_STYLE_ASSIGNMENT (( #230 ) ) ;
#121 = ORIENTED_EDGE ( 'NONE', *, *, #194, .T. ) ;
#122 = AXIS2_PLACEMENT_3D ( 'NONE', #154, #200, #199 ) ;
#123 = LENGTH_MEASURE_WITH_UNIT ( LENGTH_MEASURE( 0.02539999999999999897 ), #125 );
#124 = EDGE_CURVE ( 'NONE', #183, #14, #166, .T. ) ;
#125 =( LENGTH_UNIT ( ) NAMED_UNIT ( * ) SI_UNIT ( $, .METRE. ) );
#126 = DIMENSIONAL_EXPONENTS ( 1.000000000000000000, 0.000000000000000000, 0.000000000000000000, 0.000000000000000000, 0.000000000000000000, 0.000000000000000000, 0.000000000000000000 ) ;
#127 = SURFACE_STYLE_FILL_AREA ( #57 ) ;
#128 = FILL_AREA_STYLE ('',( #279 ) ) ;
#129 = STYLED_ITEM ( 'NONE', ( #229 ), #52 ) ;
#130 =( LENGTH_UNIT ( ) NAMED_UNIT ( * ) SI_UNIT ( $, .METRE. ) );
#131 = EDGE_CURVE ( 'NONE', #283, #141, #158, .T. ) ;
#132 = CARTESIAN_POINT ( 'NONE',  ( 3.061616997868383141E-16, 2.500000000000000000, 0.000000000000000000 ) ) ;
#133 = CARTESIAN_POINT ( 'NONE',  ( 0.000000000000000000, 1.000000000000000000, 0.000000000000000000 ) ) ;
#134 = AXIS2_PLACEMENT_3D ( 'NONE', #112, #116, #247 ) ;
#135 = CYLINDRICAL_SURFACE ( 'NONE', #287, 0.09374999999999984734 ) ;
#136 = PLANE ( 'NONE',  #97 ) ;
#137 =( LENGTH_UNIT ( ) NAMED_UNIT ( * ) SI_UNIT ( $, .METRE. ) );
#138 = DIMENSIONAL_EXPONENTS ( 1.000000000000000000, 0.000000000000000000, 0.000000000000000000, 0.000000000000000000, 0.000000000000000000, 0.000000000000000000, 0.000000000000000000 ) ;
#139 = ORIENTED_EDGE ( 'NONE', *, *, #93, .T. ) ;
#140 =( LENGTH_UNIT ( ) NAMED_UNIT ( * ) SI_UNIT ( $, .METRE. ) );
#141 = VERTEX_POINT ( 'NONE', #260 ) ;
#142 = CIRCLE ( 'NONE', #203, 0.09374999999999969469 ) ;
#143 = FACE_OUTER_BOUND ( 'NONE', #189, .T. ) ;
#144 = ORIENTED_EDGE ( 'NONE', *, *, #307, .T. ) ;
#145 = UNCERTAINTY_MEASURE_WITH_UNIT (LENGTH_MEASURE( 1.000000000000000082E-05 ), #153, 'distance_accuracy_value', 'NONE');
#146 = DIRECTION ( 'NONE',  ( -1.000000000000000000, 0.000000000000000000, 0.000000000000000000 ) ) ;
#147 = DIRECTION ( 'NONE',  ( 2.041077998578922341E-16, 1.000000000000000000, -0.000000000000000000 ) ) ;
#148 = PRESENTATION_LAYER_ASSIGNMENT (  '', '', ( #198 ) ) ;
#149 = MECHANICAL_DESIGN_GEOMETRIC_PRESENTATION_REPRESENTATION (  '', ( #265 ), #197 ) ;
#150 = LINE ( 'NONE', #305, #22 ) ;
#151 = PLANE ( 'NONE',  #134 ) ;
#152 = CIRCLE ( 'NONE', #253, 0.09375000000000001388 ) ;
#153 =( CONVERSION_BASED_UNIT ( 'INCH', #224 ) LENGTH_UNIT ( ) NAMED_UNIT ( #138 ) );
#154 = CARTESIAN_POINT ( 'NONE',  ( 0.000000000000000000, 1.000000000000000000, 0.000000000000000000 ) ) ;
#155 = CARTESIAN_POINT ( 'NONE',  ( 0.000000000000000000, 0.000000000000000000, 0.000000000000000000 ) ) ;
#156 = SHAPE_DEFINITION_REPRESENTATION ( #103, #268 ) ;
#157 = DIRECTION ( 'NONE',  ( 2.041077998578922094E-16, 1.000000000000000000, -0.000000000000000000 ) ) ;
#158 = CIRCLE ( 'NONE', #114, 0.09374999999999969469 ) ;
#159 =( NAMED_UNIT ( * ) PLANE_ANGLE_UNIT ( ) SI_UNIT ( $, .RADIAN. ) );
#160 = DIMENSIONAL_EXPONENTS ( 1.000000000000000000, 0.000000000000000000, 0.000000000000000000, 0.000000000000000000, 0.000000000000000000, 0.000000000000000000, 0.000000000000000000 ) ;
#161 = ORIENTED_EDGE ( 'NONE', *, *, #93, .F. ) ;
#162 = EDGE_LOOP ( 'NONE', ( #144, #165, #65, #91 ) ) ;
#163 =( NAMED_UNIT ( * ) SI_UNIT ( $, .STERADIAN. ) SOLID_ANGLE_UNIT ( ) );
#164 = ORIENTED_EDGE ( 'NONE', *, *, #251, .T. ) ;
#165 = ORIENTED_EDGE ( 'NONE', *, *, #124, .T. ) ;
#166 = LINE ( 'NONE', #259, #36 ) ;
#167 = ADVANCED_FACE ( 'NONE', ( #303 ), #286, .T. ) ;
#168 = MANIFOLD_SOLID_BREP ( 'Revolve - Tool Body (Straight Shanked)', #21 ) ;
#169 = CARTESIAN_POINT ( 'NONE',  ( -6.065921084684207584E-32, 1.000000000000000000, 0.000000000000000000 ) ) ;
#170 = COLOUR_RGB ( '',1.000000000000000000, 0.000000000000000000, 0.000000000000000000 ) ;
#171 = EDGE_CURVE ( 'NONE', #299, #141, #150, .T. ) ;
#172 = UNCERTAINTY_MEASURE_WITH_UNIT (LENGTH_MEASURE( 1.000000000000000082E-05 ), #9, 'distance_accuracy_value', 'NONE');
#173 = CIRCLE ( 'NONE', #44, 0.09375000000000001388 ) ;
#174 = FACE_OUTER_BOUND ( 'NONE', #208, .T. ) ;
#175 = DIRECTION ( 'NONE',  ( 0.000000000000000000, 0.000000000000000000, -1.000000000000000000 ) ) ;
#176 = CARTESIAN_POINT ( 'NONE',  ( -0.09375000000000001388, 1.000000000000000000, 0.000000000000000000 ) ) ;
#177 = STYLED_ITEM ( 'NONE', ( #179 ), #25 ) ;
#178 = PRESENTATION_LAYER_ASSIGNMENT (  '', '', ( #265 ) ) ;
#179 = PRESENTATION_STYLE_ASSIGNMENT (( #111 ) ) ;
#180 =( GEOMETRIC_REPRESENTATION_CONTEXT ( 3 ) GLOBAL_UNCERTAINTY_ASSIGNED_CONTEXT ( ( #238 ) ) GLOBAL_UNIT_ASSIGNED_CONTEXT ( ( #270, #159, #212 ) ) REPRESENTATION_CONTEXT ( 'NONE', 'WORKASPACE' ) );
#181 =( NAMED_UNIT ( * ) SI_UNIT ( $, .STERADIAN. ) SOLID_ANGLE_UNIT ( ) );
#182 = ORIENTED_EDGE ( 'NONE', *, *, #171, .F. ) ;
#183 = VERTEX_POINT ( 'NONE', #239 ) ;
#184 = FILL_AREA_STYLE ('',( #272 ) ) ;
#185 = VERTEX_POINT ( 'NONE', #20 ) ;
#186 = UNCERTAINTY_MEASURE_WITH_UNIT (LENGTH_MEASURE( 1.000000000000000082E-05 ), #88, 'distance_accuracy_value', 'NONE');
#187 = SURFACE_STYLE_FILL_AREA ( #77 ) ;
#188 = COLOUR_RGB ( '',0.7921568627450980005, 0.8196078431372548767, 0.9333333333333333481 ) ;
#189 = EDGE_LOOP ( 'NONE', ( #119, #161 ) ) ;
#190 = SURFACE_STYLE_USAGE ( .BOTH. , #246 ) ;
#191 = PRESENTATION_STYLE_ASSIGNMENT (( #45 ) ) ;
#192 = CARTESIAN_POINT ( 'NONE',  ( 0.09375000000000016653, 2.500000000000000000, 1.148106374200641860E-17 ) ) ;
#193 = DIRECTION ( 'NONE',  ( 2.041077998578922094E-16, 1.000000000000000000, -0.000000000000000000 ) ) ;
#194 = EDGE_CURVE ( 'NONE', #96, #283, #196, .T. ) ;
#195 = FILL_AREA_STYLE ('',( #223 ) ) ;
#196 = LINE ( 'NONE', #192, #12 ) ;
#197 =( GEOMETRIC_REPRESENTATION_CONTEXT ( 3 ) GLOBAL_UNCERTAINTY_ASSIGNED_CONTEXT ( ( #27 ) ) GLOBAL_UNIT_ASSIGNED_CONTEXT ( ( #211, #5, #94 ) ) REPRESENTATION_CONTEXT ( 'NONE', 'WORKASPACE' ) );
#198 = STYLED_ITEM ( 'NONE', ( #29 ), #221 ) ;
#199 = DIRECTION ( 'NONE',  ( 0.000000000000000000, 0.000000000000000000, -1.000000000000000000 ) ) ;
#200 = DIRECTION ( 'NONE',  ( -0.000000000000000000, -1.000000000000000000, -0.000000000000000000 ) ) ;
#201 = CARTESIAN_POINT ( 'NONE',  ( 0.000000000000000000, 0.000000000000000000, -0.09375000000000001388 ) ) ;
#202 = DIMENSIONAL_EXPONENTS ( 1.000000000000000000, 0.000000000000000000, 0.000000000000000000, 0.000000000000000000, 0.000000000000000000, 0.000000000000000000, 0.000000000000000000 ) ;
#203 = AXIS2_PLACEMENT_3D ( 'NONE', #132, #193, #146 ) ;
#204 = DIRECTION ( 'NONE',  ( 0.000000000000000000, 0.000000000000000000, 1.000000000000000000 ) ) ;
#205 = FILL_AREA_STYLE ('',( #207 ) ) ;
#206 = CARTESIAN_POINT ( 'NONE',  ( 0.09375000000000001388, 2.500000000000000000, 1.148106374200642938E-17 ) ) ;
#207 = FILL_AREA_STYLE_COLOUR ( '', #170 ) ;
#208 = EDGE_LOOP ( 'NONE', ( #258, #39 ) ) ;
#209 = ORIENTED_EDGE ( 'NONE', *, *, #131, .T. ) ;
#210 = DIRECTION ( 'NONE',  ( 0.000000000000000000, 0.000000000000000000, -1.000000000000000000 ) ) ;
#211 =( CONVERSION_BASED_UNIT ( 'INCH', #123 ) LENGTH_UNIT ( ) NAMED_UNIT ( #95 ) );
#212 =( NAMED_UNIT ( * ) SI_UNIT ( $, .STERADIAN. ) SOLID_ANGLE_UNIT ( ) );
#213 = ORIENTED_EDGE ( 'NONE', *, *, #131, .F. ) ;
#214 = PRODUCT_DEFINITION_CONTEXT ( 'detailed design', #274, 'design' ) ;
#215 = PRESENTATION_STYLE_ASSIGNMENT (( #23 ) ) ;
#216 = AXIS2_PLACEMENT_3D ( 'NONE', #49, #98, #92 ) ;
#217 = ORIENTED_EDGE ( 'NONE', *, *, #105, .F. ) ;
#218 = LENGTH_MEASURE_WITH_UNIT ( LENGTH_MEASURE( 0.02539999999999999897 ), #56 );
#219 = DIRECTION ( 'NONE',  ( 0.000000000000000000, 0.000000000000000000, -1.000000000000000000 ) ) ;
#220 = MECHANICAL_DESIGN_GEOMETRIC_PRESENTATION_REPRESENTATION (  '', ( #177 ), #244 ) ;
#221 = ADVANCED_FACE ( 'NONE', ( #174 ), #151, .T. ) ;
#222 =( NAMED_UNIT ( * ) PLANE_ANGLE_UNIT ( ) SI_UNIT ( $, .RADIAN. ) );
#223 = FILL_AREA_STYLE_COLOUR ( '', #86 ) ;
#224 = LENGTH_MEASURE_WITH_UNIT ( LENGTH_MEASURE( 0.02539999999999999897 ), #250 );
#225 =( GEOMETRIC_REPRESENTATION_CONTEXT ( 3 ) GLOBAL_UNCERTAINTY_ASSIGNED_CONTEXT ( ( #69 ) ) GLOBAL_UNIT_ASSIGNED_CONTEXT ( ( #73, #38, #181 ) ) REPRESENTATION_CONTEXT ( 'NONE', 'WORKASPACE' ) );
#226 = DIRECTION ( 'NONE',  ( 0.000000000000000000, 1.000000000000000000, 0.000000000000000000 ) ) ;
#227 = DIRECTION ( 'NONE',  ( -0.000000000000000000, -1.000000000000000000, -0.000000000000000000 ) ) ;
#228 = CARTESIAN_POINT ( 'NONE',  ( 3.061616997868383141E-16, 2.500000000000000000, 0.000000000000000000 ) ) ;
#229 = PRESENTATION_STYLE_ASSIGNMENT (( #37 ) ) ;
#230 = SURFACE_STYLE_USAGE ( .BOTH. , #281 ) ;
#231 =( NAMED_UNIT ( * ) PLANE_ANGLE_UNIT ( ) SI_UNIT ( $, .RADIAN. ) );
#232 = ADVANCED_FACE ( 'NONE', ( #10 ), #135, .T. ) ;
#233 = STYLED_ITEM ( 'NONE', ( #120 ), #59 ) ;
#234 = EDGE_LOOP ( 'NONE', ( #72, #164, #19, #304 ) ) ;
#235 = ORIENTED_EDGE ( 'NONE', *, *, #105, .T. ) ;
#236 = DIRECTION ( 'NONE',  ( 2.041077998578922094E-16, 1.000000000000000000, -0.000000000000000000 ) ) ;
#237 = EDGE_LOOP ( 'NONE', ( #87, #139, #15, #213 ) ) ;
#238 = UNCERTAINTY_MEASURE_WITH_UNIT (LENGTH_MEASURE( 1.000000000000000082E-05 ), #270, 'distance_accuracy_value', 'NONE');
#239 = CARTESIAN_POINT ( 'NONE',  ( 1.148106374200643863E-17, 1.000000000000000000, 0.09375000000000001388 ) ) ;
#240 = PRODUCT ( '81554', '81554', '', ( #271 ) ) ;
#241 = PRESENTATION_LAYER_ASSIGNMENT (  '', '', ( #277 ) ) ;
#242 = FILL_AREA_STYLE_COLOUR ( '', #188 ) ;
#243 = CLOSED_SHELL ( 'NONE', ( #4, #25, #52, #221 ) ) ;
#244 =( GEOMETRIC_REPRESENTATION_CONTEXT ( 3 ) GLOBAL_UNCERTAINTY_ASSIGNED_CONTEXT ( ( #172 ) ) GLOBAL_UNIT_ASSIGNED_CONTEXT ( ( #9, #222, #108 ) ) REPRESENTATION_CONTEXT ( 'NONE', 'WORKASPACE' ) );
#245 = DIRECTION ( 'NONE',  ( 2.041077998578922341E-16, 1.000000000000000000, -0.000000000000000000 ) ) ;
#246 = SURFACE_SIDE_STYLE ('',( #127 ) ) ;
#247 = DIRECTION ( 'NONE',  ( 0.000000000000000000, 0.000000000000000000, -1.000000000000000000 ) ) ;
#248 = LINE ( 'NONE', #201, #58 ) ;
#249 = CARTESIAN_POINT ( 'NONE',  ( 0.000000000000000000, 0.000000000000000000, 0.000000000000000000 ) ) ;
#250 =( LENGTH_UNIT ( ) NAMED_UNIT ( * ) SI_UNIT ( $, .METRE. ) );
#251 = EDGE_CURVE ( 'NONE', #183, #308, #3, .T. ) ;
#252 = DIRECTION ( 'NONE',  ( 0.000000000000000000, -0.000000000000000000, 1.000000000000000000 ) ) ;
#253 = AXIS2_PLACEMENT_3D ( 'NONE', #302, #157, #90 ) ;
#254 = EDGE_LOOP ( 'NONE', ( #235, #209 ) ) ;
#255 = DIRECTION ( 'NONE',  ( 2.041077998578922341E-16, 1.000000000000000000, -0.000000000000000000 ) ) ;
#256 = CARTESIAN_POINT ( 'NONE',  ( 0.09375000000000001388, 1.000000000000000000, 1.148106374200642938E-17 ) ) ;
#257 = PRESENTATION_LAYER_ASSIGNMENT (  '', '', ( #233 ) ) ;
#258 = ORIENTED_EDGE ( 'NONE', *, *, #60, .T. ) ;
#259 = CARTESIAN_POINT ( 'NONE',  ( 1.148106374200643863E-17, 0.000000000000000000, 0.09375000000000001388 ) ) ;
#260 = CARTESIAN_POINT ( 'NONE',  ( -0.09374999999999938938, 2.500000000000000000, 0.000000000000000000 ) ) ;
#261 = DIRECTION ( 'NONE',  ( -1.000000000000000000, 0.000000000000000000, 0.000000000000000000 ) ) ;
#262 = AXIS2_PLACEMENT_3D ( 'NONE', #155, #16, #210 ) ;
#263 = DIRECTION ( 'NONE',  ( -0.000000000000000000, -1.000000000000000000, -0.000000000000000000 ) ) ;
#264 = DIRECTION ( 'NONE',  ( 2.041077998578922094E-16, 1.000000000000000000, -0.000000000000000000 ) ) ;
#265 = STYLED_ITEM ( 'NONE', ( #191 ), #4 ) ;
#266 = AXIS2_PLACEMENT_3D ( 'NONE', #42, #297, #276 ) ;
#267 = FILL_AREA_STYLE_COLOUR ( '', #54 ) ;
#268 = ADVANCED_BREP_SHAPE_REPRESENTATION ( '81554', ( #59, #168, #76 ), #295 ) ;
#269 = DIRECTION ( 'NONE',  ( -2.041077998578922341E-16, -1.000000000000000000, 0.000000000000000000 ) ) ;
#270 =( CONVERSION_BASED_UNIT ( 'INCH', #117 ) LENGTH_UNIT ( ) NAMED_UNIT ( #118 ) );
#271 = PRODUCT_CONTEXT ( 'NONE', #106, 'mechanical' ) ;
#272 = FILL_AREA_STYLE_COLOUR ( '', #81 ) ;
#273 = CARTESIAN_POINT ( 'NONE',  ( 0.09375000000000001388, 2.500000000000000000, 0.000000000000000000 ) ) ;
#274 = APPLICATION_CONTEXT ( 'automotive_design' ) ;
#275 = AXIS2_PLACEMENT_3D ( 'NONE', #74, #263, #219 ) ;
#276 = DIRECTION ( 'NONE',  ( 0.000000000000000000, 0.000000000000000000, -1.000000000000000000 ) ) ;
#277 = STYLED_ITEM ( 'NONE', ( #215 ), #168 ) ;
#278 = CIRCLE ( 'NONE', #55, 0.09375000000000001388 ) ;
#279 = FILL_AREA_STYLE_COLOUR ( '', #2 ) ;
#280 = FACE_OUTER_BOUND ( 'NONE', #162, .T. ) ;
#281 = SURFACE_SIDE_STYLE ('',( #18 ) ) ;
#282 = EDGE_CURVE ( 'NONE', #308, #185, #248, .T. ) ;
#283 = VERTEX_POINT ( 'NONE', #206 ) ;
#284 = LENGTH_MEASURE_WITH_UNIT ( LENGTH_MEASURE( 0.02539999999999999897 ), #130 );
#285 = EDGE_LOOP ( 'NONE', ( #48, #41 ) ) ;
#286 = CYLINDRICAL_SURFACE ( 'NONE', #216, 0.09374999999999984734 ) ;
#287 = AXIS2_PLACEMENT_3D ( 'NONE', #228, #31, #291 ) ;
#288 = CARTESIAN_POINT ( 'NONE',  ( 1.148106374200643863E-17, 0.000000000000000000, 0.09375000000000001388 ) ) ;
#289 =( NAMED_UNIT ( * ) SI_UNIT ( $, .STERADIAN. ) SOLID_ANGLE_UNIT ( ) );
#290 = PRESENTATION_LAYER_ASSIGNMENT (  '', '', ( #129 ) ) ;
#291 = DIRECTION ( 'NONE',  ( -1.000000000000000000, 0.000000000000000000, 0.000000000000000000 ) ) ;
#292 = PLANE ( 'NONE',  #104 ) ;
#293 = PRODUCT_RELATED_PRODUCT_CATEGORY ( 'part', '', ( #240 ) ) ;
#294 = MECHANICAL_DESIGN_GEOMETRIC_PRESENTATION_REPRESENTATION (  '', ( #277 ), #17 ) ;
#295 =( GEOMETRIC_REPRESENTATION_CONTEXT ( 3 ) GLOBAL_UNCERTAINTY_ASSIGNED_CONTEXT ( ( #145 ) ) GLOBAL_UNIT_ASSIGNED_CONTEXT ( ( #153, #32, #82 ) ) REPRESENTATION_CONTEXT ( 'NONE', 'WORKASPACE' ) );
#296 = DIRECTION ( 'NONE',  ( 1.000000000000000000, 0.000000000000000000, 0.000000000000000000 ) ) ;
#297 = DIRECTION ( 'NONE',  ( -0.000000000000000000, -1.000000000000000000, -0.000000000000000000 ) ) ;
#298 = FACE_OUTER_BOUND ( 'NONE', #254, .T. ) ;
#299 = VERTEX_POINT ( 'NONE', #176 ) ;
#300 = EDGE_LOOP ( 'NONE', ( #66, #121, #217, #182 ) ) ;
#301 = ADVANCED_FACE ( 'NONE', ( #298 ), #292, .F. ) ;
#302 = CARTESIAN_POINT ( 'NONE',  ( -6.065921084684207584E-32, 1.000000000000000000, 0.000000000000000000 ) ) ;
#303 = FACE_OUTER_BOUND ( 'NONE', #300, .T. ) ;
#304 = ORIENTED_EDGE ( 'NONE', *, *, #100, .F. ) ;
#305 = CARTESIAN_POINT ( 'NONE',  ( -0.09374999999999954203, 2.500000000000000000, 0.000000000000000000 ) ) ;
#306 = CIRCLE ( 'NONE', #262, 0.09375000000000001388 ) ;
#307 = EDGE_CURVE ( 'NONE', #308, #183, #278, .T. ) ;
#308 = VERTEX_POINT ( 'NONE', #63 ) ;
#309 = SURFACE_SIDE_STYLE ('',( #187 ) ) ;
ENDSEC;
END-ISO-10303-21;
