ISO-10303-21;
HEADER;
FILE_DESCRIPTION (( 'STEP AP214' ),
    '1' );
FILE_NAME ('82949.STEP',
    '2023-06-23T07:27:09',
    ( '' ),
    ( '' ),
    'SwSTEP 2.0',
    'SolidWorks 2023',
    '' );
FILE_SCHEMA (( 'AUTOMOTIVE_DESIGN' ));
ENDSEC;

DATA;
#1 = FACE_OUTER_BOUND ( 'NONE', #260, .T. ) ;
#2 = ORIENTED_EDGE ( 'NONE', *, *, #249, .T. ) ;
#3 = CIRCLE ( 'NONE', #117, 0.06250000000000001388 ) ;
#4 =( GEOMETRIC_REPRESENTATION_CONTEXT ( 3 ) GLOBAL_UNCERTAINTY_ASSIGNED_CONTEXT ( ( #66 ) ) GLOBAL_UNIT_ASSIGNED_CONTEXT ( ( #142, #124, #198 ) ) REPRESENTATION_CONTEXT ( 'NONE', 'WORKASPACE' ) );
#5 = DIRECTION ( 'NONE',  ( -0.000000000000000000, -1.000000000000000000, -0.000000000000000000 ) ) ;
#6 = AXIS2_PLACEMENT_3D ( 'NONE', #238, #303, #257 ) ;
#7 = DIRECTION ( 'NONE',  ( 2.449293598294706414E-16, 1.000000000000000000, -0.000000000000000000 ) ) ;
#8 =( GEOMETRIC_REPRESENTATION_CONTEXT ( 3 ) GLOBAL_UNCERTAINTY_ASSIGNED_CONTEXT ( ( #118 ) ) GLOBAL_UNIT_ASSIGNED_CONTEXT ( ( #67, #49, #185 ) ) REPRESENTATION_CONTEXT ( 'NONE', 'WORKASPACE' ) );
#9 = DIMENSIONAL_EXPONENTS ( 1.000000000000000000, 0.000000000000000000, 0.000000000000000000, 0.000000000000000000, 0.000000000000000000, 0.000000000000000000, 0.000000000000000000 ) ;
#10 = EDGE_CURVE ( 'NONE', #28, #73, #168, .T. ) ;
#11 = CARTESIAN_POINT ( 'NONE',  ( 0.000000000000000000, 0.000000000000000000, 0.000000000000000000 ) ) ;
#12 = ORIENTED_EDGE ( 'NONE', *, *, #45, .F. ) ;
#13 = DIRECTION ( 'NONE',  ( -0.000000000000000000, -1.000000000000000000, -0.000000000000000000 ) ) ;
#14 = AXIS2_PLACEMENT_3D ( 'NONE', #75, #167, #215 ) ;
#15 = MECHANICAL_DESIGN_GEOMETRIC_PRESENTATION_REPRESENTATION (  '', ( #163 ), #120 ) ;
#16 = SURFACE_STYLE_FILL_AREA ( #162 ) ;
#17 = MANIFOLD_SOLID_BREP ( 'Revolve - Cutting Edge', #114 ) ;
#18 = CARTESIAN_POINT ( 'NONE',  ( 0.000000000000000000, 0.000000000000000000, 0.000000000000000000 ) ) ;
#19 = PRESENTATION_LAYER_ASSIGNMENT (  '', '', ( #228 ) ) ;
#20 = DIRECTION ( 'NONE',  ( 2.449293598294706414E-16, 1.000000000000000000, -0.000000000000000000 ) ) ;
#21 = EDGE_LOOP ( 'NONE', ( #258, #169, #239, #308 ) ) ;
#22 = DIRECTION ( 'NONE',  ( -1.000000000000000000, 0.000000000000000000, 0.000000000000000000 ) ) ;
#23 = EDGE_CURVE ( 'NONE', #103, #150, #105, .T. ) ;
#24 = LENGTH_MEASURE_WITH_UNIT ( LENGTH_MEASURE( 0.02539999999999999897 ), #233 );
#25 = ORIENTED_EDGE ( 'NONE', *, *, #186, .F. ) ;
#26 = SURFACE_STYLE_USAGE ( .BOTH. , #174 ) ;
#27 =( NAMED_UNIT ( * ) PLANE_ANGLE_UNIT ( ) SI_UNIT ( $, .RADIAN. ) );
#28 = VERTEX_POINT ( 'NONE', #122 ) ;
#29 = FACE_OUTER_BOUND ( 'NONE', #99, .T. ) ;
#30 = PRESENTATION_STYLE_ASSIGNMENT (( #54 ) ) ;
#31 = COLOUR_RGB ( '',0.7921568627450980005, 0.8196078431372548767, 0.9333333333333333481 ) ;
#32 =( GEOMETRIC_REPRESENTATION_CONTEXT ( 3 ) GLOBAL_UNCERTAINTY_ASSIGNED_CONTEXT ( ( #91 ) ) GLOBAL_UNIT_ASSIGNED_CONTEXT ( ( #149, #240, #287 ) ) REPRESENTATION_CONTEXT ( 'NONE', 'WORKASPACE' ) );
#33 = DIMENSIONAL_EXPONENTS ( 1.000000000000000000, 0.000000000000000000, 0.000000000000000000, 0.000000000000000000, 0.000000000000000000, 0.000000000000000000, 0.000000000000000000 ) ;
#34 =( NAMED_UNIT ( * ) SI_UNIT ( $, .STERADIAN. ) SOLID_ANGLE_UNIT ( ) );
#35 = AXIS2_PLACEMENT_3D ( 'NONE', #42, #89, #62 ) ;
#36 = DIRECTION ( 'NONE',  ( 2.449293598294706414E-16, 1.000000000000000000, -0.000000000000000000 ) ) ;
#37 =( NAMED_UNIT ( * ) SI_UNIT ( $, .STERADIAN. ) SOLID_ANGLE_UNIT ( ) );
#38 = PRESENTATION_LAYER_ASSIGNMENT (  '', '', ( #70 ) ) ;
#39 = UNCERTAINTY_MEASURE_WITH_UNIT (LENGTH_MEASURE( 1.000000000000000082E-05 ), #205, 'distance_accuracy_value', 'NONE');
#40 = SURFACE_STYLE_USAGE ( .BOTH. , #137 ) ;
#41 = ADVANCED_FACE ( 'NONE', ( #264 ), #164, .F. ) ;
#42 = CARTESIAN_POINT ( 'NONE',  ( 0.000000000000000000, 0.7500000000000001110, 0.000000000000000000 ) ) ;
#43 = PRODUCT_DEFINITION_FORMATION_WITH_SPECIFIED_SOURCE ( 'ANY', '', #87, .NOT_KNOWN. ) ;
#44 = PRESENTATION_STYLE_ASSIGNMENT (( #161 ) ) ;
#45 = EDGE_CURVE ( 'NONE', #77, #190, #88, .T. ) ;
#46 = MECHANICAL_DESIGN_GEOMETRIC_PRESENTATION_REPRESENTATION (  '', ( #110 ), #4 ) ;
#47 = CYLINDRICAL_SURFACE ( 'NONE', #246, 0.06249999999999980571 ) ;
#48 = PRESENTATION_STYLE_ASSIGNMENT (( #26 ) ) ;
#49 =( NAMED_UNIT ( * ) PLANE_ANGLE_UNIT ( ) SI_UNIT ( $, .RADIAN. ) );
#50 = CARTESIAN_POINT ( 'NONE',  ( 0.06250000000000001388, 0.7499999999999998890, 7.654042494670946760E-18 ) ) ;
#51 = COLOUR_RGB ( '',1.000000000000000000, 0.000000000000000000, 0.000000000000000000 ) ;
#52 = ORIENTED_EDGE ( 'NONE', *, *, #10, .F. ) ;
#53 = CIRCLE ( 'NONE', #35, 0.06250000000000001388 ) ;
#54 = SURFACE_STYLE_USAGE ( .BOTH. , #144 ) ;
#55 = DIRECTION ( 'NONE',  ( -1.000000000000000000, 0.000000000000000000, 0.000000000000000000 ) ) ;
#56 =( LENGTH_UNIT ( ) NAMED_UNIT ( * ) SI_UNIT ( $, .METRE. ) );
#57 = ORIENTED_EDGE ( 'NONE', *, *, #83, .T. ) ;
#58 = ORIENTED_EDGE ( 'NONE', *, *, #204, .T. ) ;
#59 = AXIS2_PLACEMENT_3D ( 'NONE', #199, #283, #217 ) ;
#60 = FILL_AREA_STYLE ('',( #166 ) ) ;
#61 =( CONVERSION_BASED_UNIT ( 'INCH', #90 ) LENGTH_UNIT ( ) NAMED_UNIT ( #289 ) );
#62 = DIRECTION ( 'NONE',  ( 0.000000000000000000, 0.000000000000000000, -1.000000000000000000 ) ) ;
#63 = DIRECTION ( 'NONE',  ( 1.000000000000000000, 0.000000000000000000, 0.000000000000000000 ) ) ;
#64 = CARTESIAN_POINT ( 'NONE',  ( 0.000000000000000000, 0.7500000000000001110, 0.000000000000000000 ) ) ;
#65 = DIRECTION ( 'NONE',  ( -0.000000000000000000, -1.000000000000000000, -0.000000000000000000 ) ) ;
#66 = UNCERTAINTY_MEASURE_WITH_UNIT (LENGTH_MEASURE( 1.000000000000000082E-05 ), #142, 'distance_accuracy_value', 'NONE');
#67 =( CONVERSION_BASED_UNIT ( 'INCH', #68 ) LENGTH_UNIT ( ) NAMED_UNIT ( #9 ) );
#68 = LENGTH_MEASURE_WITH_UNIT ( LENGTH_MEASURE( 0.02539999999999999897 ), #300 );
#69 = PRODUCT_DEFINITION_SHAPE ( 'NONE', 'NONE',  #191 ) ;
#70 = STYLED_ITEM ( 'NONE', ( #48 ), #17 ) ;
#71 =( NAMED_UNIT ( * ) PLANE_ANGLE_UNIT ( ) SI_UNIT ( $, .RADIAN. ) );
#72 = PLANE ( 'NONE',  #234 ) ;
#73 = VERTEX_POINT ( 'NONE', #253 ) ;
#74 = CARTESIAN_POINT ( 'NONE',  ( 0.000000000000000000, 0.7500000000000001110, -0.06250000000000001388 ) ) ;
#75 = CARTESIAN_POINT ( 'NONE',  ( 0.06250000000000001388, 2.500000000000000000, 0.000000000000000000 ) ) ;
#76 = VECTOR ( 'NONE', #211, 39.37007874015748143 ) ;
#77 = VERTEX_POINT ( 'NONE', #50 ) ;
#78 = AXIS2_PLACEMENT_3D ( 'NONE', #307, #102, #55 ) ;
#79 = PLANE ( 'NONE',  #188 ) ;
#80 = ADVANCED_FACE ( 'NONE', ( #1 ), #146, .T. ) ;
#81 = EDGE_LOOP ( 'NONE', ( #282, #2, #52, #25 ) ) ;
#82 = DIRECTION ( 'NONE',  ( 0.000000000000000000, -0.000000000000000000, 1.000000000000000000 ) ) ;
#83 = EDGE_CURVE ( 'NONE', #73, #28, #220, .T. ) ;
#84 = CARTESIAN_POINT ( 'NONE',  ( 0.000000000000000000, 0.000000000000000000, 0.000000000000000000 ) ) ;
#85 = LENGTH_MEASURE_WITH_UNIT ( LENGTH_MEASURE( 0.02539999999999999897 ), #202 );
#86 = DIRECTION ( 'NONE',  ( -1.000000000000000000, 0.000000000000000000, 0.000000000000000000 ) ) ;
#87 = PRODUCT ( '82949', '82949', '', ( #132 ) ) ;
#88 = CIRCLE ( 'NONE', #78, 0.06250000000000001388 ) ;
#89 = DIRECTION ( 'NONE',  ( -0.000000000000000000, -1.000000000000000000, -0.000000000000000000 ) ) ;
#90 = LENGTH_MEASURE_WITH_UNIT ( LENGTH_MEASURE( 0.02539999999999999897 ), #226 );
#91 = UNCERTAINTY_MEASURE_WITH_UNIT (LENGTH_MEASURE( 1.000000000000000082E-05 ), #149, 'distance_accuracy_value', 'NONE');
#92 = CYLINDRICAL_SURFACE ( 'NONE', #294, 0.06250000000000001388 ) ;
#93 = VECTOR ( 'NONE', #302, 39.37007874015748143 ) ;
#94 = CIRCLE ( 'NONE', #130, 0.06250000000000001388 ) ;
#95 = FACE_OUTER_BOUND ( 'NONE', #193, .T. ) ;
#96 = EDGE_CURVE ( 'NONE', #216, #150, #3, .T. ) ;
#97 = CIRCLE ( 'NONE', #59, 0.06250000000000001388 ) ;
#98 = EDGE_CURVE ( 'NONE', #190, #77, #183, .T. ) ;
#99 = EDGE_LOOP ( 'NONE', ( #113, #284 ) ) ;
#100 = CARTESIAN_POINT ( 'NONE',  ( 4.286263797015736595E-16, 2.500000000000000000, 0.000000000000000000 ) ) ;
#101 = APPLICATION_CONTEXT ( 'automotive_design' ) ;
#102 = DIRECTION ( 'NONE',  ( 2.449293598294706414E-16, 1.000000000000000000, -0.000000000000000000 ) ) ;
#103 = VERTEX_POINT ( 'NONE', #135 ) ;
#104 = EDGE_CURVE ( 'NONE', #103, #277, #53, .T. ) ;
#105 = LINE ( 'NONE', #143, #243 ) ;
#106 = FILL_AREA_STYLE ('',( #235 ) ) ;
#107 = AXIS2_PLACEMENT_3D ( 'NONE', #18, #119, #276 ) ;
#108 = ORIENTED_EDGE ( 'NONE', *, *, #271, .F. ) ;
#109 = CARTESIAN_POINT ( 'NONE',  ( 0.000000000000000000, 0.7500000000000001110, 0.000000000000000000 ) ) ;
#110 = STYLED_ITEM ( 'NONE', ( #44 ), #269 ) ;
#111 = CARTESIAN_POINT ( 'NONE',  ( 4.286263797015736595E-16, 2.500000000000000000, 0.000000000000000000 ) ) ;
#112 = DIRECTION ( 'NONE',  ( 2.449293598294706414E-16, 1.000000000000000000, -0.000000000000000000 ) ) ;
#113 = ORIENTED_EDGE ( 'NONE', *, *, #204, .F. ) ;
#114 = CLOSED_SHELL ( 'NONE', ( #80, #295, #269, #241 ) ) ;
#115 = AXIS2_PLACEMENT_3D ( 'NONE', #84, #224, #63 ) ;
#116 = SURFACE_STYLE_USAGE ( .BOTH. , #231 ) ;
#117 = AXIS2_PLACEMENT_3D ( 'NONE', #265, #291, #136 ) ;
#118 = UNCERTAINTY_MEASURE_WITH_UNIT (LENGTH_MEASURE( 1.000000000000000082E-05 ), #67, 'distance_accuracy_value', 'NONE');
#119 = DIRECTION ( 'NONE',  ( 0.000000000000000000, -1.000000000000000000, -0.000000000000000000 ) ) ;
#120 =( GEOMETRIC_REPRESENTATION_CONTEXT ( 3 ) GLOBAL_UNCERTAINTY_ASSIGNED_CONTEXT ( ( #171 ) ) GLOBAL_UNIT_ASSIGNED_CONTEXT ( ( #61, #71, #121 ) ) REPRESENTATION_CONTEXT ( 'NONE', 'WORKASPACE' ) );
#121 =( NAMED_UNIT ( * ) SI_UNIT ( $, .STERADIAN. ) SOLID_ANGLE_UNIT ( ) );
#122 = CARTESIAN_POINT ( 'NONE',  ( -0.06249999999999916039, 2.500000000000000000, 0.000000000000000000 ) ) ;
#123 =( LENGTH_UNIT ( ) NAMED_UNIT ( * ) SI_UNIT ( $, .METRE. ) );
#124 =( NAMED_UNIT ( * ) PLANE_ANGLE_UNIT ( ) SI_UNIT ( $, .RADIAN. ) );
#125 = DIRECTION ( 'NONE',  ( -0.000000000000000000, -1.000000000000000000, -0.000000000000000000 ) ) ;
#126 = CARTESIAN_POINT ( 'NONE',  ( 0.000000000000000000, 0.000000000000000000, 0.000000000000000000 ) ) ;
#127 = ORIENTED_EDGE ( 'NONE', *, *, #23, .F. ) ;
#128 =( LENGTH_UNIT ( ) NAMED_UNIT ( * ) SI_UNIT ( $, .METRE. ) );
#129 = AXIS2_PLACEMENT_3D ( 'NONE', #111, #245, #181 ) ;
#130 = AXIS2_PLACEMENT_3D ( 'NONE', #64, #65, #182 ) ;
#131 = DIMENSIONAL_EXPONENTS ( 1.000000000000000000, 0.000000000000000000, 0.000000000000000000, 0.000000000000000000, 0.000000000000000000, 0.000000000000000000, 0.000000000000000000 ) ;
#132 = PRODUCT_CONTEXT ( 'NONE', #281, 'mechanical' ) ;
#133 = FACE_OUTER_BOUND ( 'NONE', #81, .T. ) ;
#134 = CARTESIAN_POINT ( 'NONE',  ( -0.06250000000000001388, 0.7499999999999998890, 0.000000000000000000 ) ) ;
#135 = CARTESIAN_POINT ( 'NONE',  ( 7.654042494670959086E-18, 0.7500000000000001110, 0.06250000000000001388 ) ) ;
#136 = DIRECTION ( 'NONE',  ( 0.000000000000000000, 0.000000000000000000, -1.000000000000000000 ) ) ;
#137 = SURFACE_SIDE_STYLE ('',( #247 ) ) ;
#138 = SURFACE_SIDE_STYLE ('',( #16 ) ) ;
#139 = CLOSED_SHELL ( 'NONE', ( #148, #290, #263, #41 ) ) ;
#140 = SURFACE_STYLE_FILL_AREA ( #106 ) ;
#141 = ORIENTED_EDGE ( 'NONE', *, *, #271, .T. ) ;
#142 =( CONVERSION_BASED_UNIT ( 'INCH', #251 ) LENGTH_UNIT ( ) NAMED_UNIT ( #33 ) );
#143 = CARTESIAN_POINT ( 'NONE',  ( 7.654042494670959086E-18, 0.000000000000000000, 0.06250000000000001388 ) ) ;
#144 = SURFACE_SIDE_STYLE ('',( #262 ) ) ;
#145 = MECHANICAL_DESIGN_GEOMETRIC_PRESENTATION_REPRESENTATION (  '', ( #255 ), #8 ) ;
#146 = CYLINDRICAL_SURFACE ( 'NONE', #179, 0.06250000000000001388 ) ;
#147 =( NAMED_UNIT ( * ) SI_UNIT ( $, .STERADIAN. ) SOLID_ANGLE_UNIT ( ) );
#148 = ADVANCED_FACE ( 'NONE', ( #133 ), #223, .T. ) ;
#149 =( CONVERSION_BASED_UNIT ( 'INCH', #170 ) LENGTH_UNIT ( ) NAMED_UNIT ( #172 ) );
#150 = VERTEX_POINT ( 'NONE', #270 ) ;
#151 = AXIS2_PLACEMENT_3D ( 'NONE', #266, #292, #86 ) ;
#152 =( GEOMETRIC_REPRESENTATION_CONTEXT ( 3 ) GLOBAL_UNCERTAINTY_ASSIGNED_CONTEXT ( ( #208 ) ) GLOBAL_UNIT_ASSIGNED_CONTEXT ( ( #219, #27, #34 ) ) REPRESENTATION_CONTEXT ( 'NONE', 'WORKASPACE' ) );
#153 = PRESENTATION_LAYER_ASSIGNMENT (  '', '', ( #163 ) ) ;
#154 = PRESENTATION_STYLE_ASSIGNMENT (( #116 ) ) ;
#155 = APPLICATION_PROTOCOL_DEFINITION ( 'draft international standard', 'automotive_design', 1998, #101 ) ;
#156 = COLOUR_RGB ( '',1.000000000000000000, 0.000000000000000000, 0.000000000000000000 ) ;
#157 = FILL_AREA_STYLE ('',( #159 ) ) ;
#158 = PRESENTATION_STYLE_ASSIGNMENT (( #40 ) ) ;
#159 = FILL_AREA_STYLE_COLOUR ( '', #296 ) ;
#160 = STYLED_ITEM ( 'NONE', ( #30 ), #295 ) ;
#161 = SURFACE_STYLE_USAGE ( .BOTH. , #138 ) ;
#162 = FILL_AREA_STYLE ('',( #272 ) ) ;
#163 = STYLED_ITEM ( 'NONE', ( #158 ), #221 ) ;
#164 = PLANE ( 'NONE',  #14 ) ;
#165 = ORIENTED_EDGE ( 'NONE', *, *, #256, .F. ) ;
#166 = FILL_AREA_STYLE_COLOUR ( '', #51 ) ;
#167 = DIRECTION ( 'NONE',  ( -2.449293598294706414E-16, -1.000000000000000000, 0.000000000000000000 ) ) ;
#168 = CIRCLE ( 'NONE', #6, 0.06249999999999959061 ) ;
#169 = ORIENTED_EDGE ( 'NONE', *, *, #45, .T. ) ;
#170 = LENGTH_MEASURE_WITH_UNIT ( LENGTH_MEASURE( 0.02539999999999999897 ), #56 );
#171 = UNCERTAINTY_MEASURE_WITH_UNIT (LENGTH_MEASURE( 1.000000000000000082E-05 ), #61, 'distance_accuracy_value', 'NONE');
#172 = DIMENSIONAL_EXPONENTS ( 1.000000000000000000, 0.000000000000000000, 0.000000000000000000, 0.000000000000000000, 0.000000000000000000, 0.000000000000000000, 0.000000000000000000 ) ;
#173 = LENGTH_MEASURE_WITH_UNIT ( LENGTH_MEASURE( 0.02539999999999999897 ), #128 );
#174 = SURFACE_SIDE_STYLE ('',( #252 ) ) ;
#175 =( NAMED_UNIT ( * ) PLANE_ANGLE_UNIT ( ) SI_UNIT ( $, .RADIAN. ) );
#176 = EDGE_LOOP ( 'NONE', ( #218, #12 ) ) ;
#177 = CARTESIAN_POINT ( 'NONE',  ( 0.000000000000000000, 0.000000000000000000, -0.06250000000000001388 ) ) ;
#178 = AXIS2_PLACEMENT_3D ( 'NONE', #225, #36, #297 ) ;
#179 = AXIS2_PLACEMENT_3D ( 'NONE', #11, #13, #206 ) ;
#180 = CARTESIAN_POINT ( 'NONE',  ( -0.06249999999999937550, 2.500000000000000000, 0.000000000000000000 ) ) ;
#181 = DIRECTION ( 'NONE',  ( -1.000000000000000000, 0.000000000000000000, 0.000000000000000000 ) ) ;
#182 = DIRECTION ( 'NONE',  ( 0.000000000000000000, 0.000000000000000000, -1.000000000000000000 ) ) ;
#183 = CIRCLE ( 'NONE', #178, 0.06250000000000001388 ) ;
#184 = FILL_AREA_STYLE ('',( #232 ) ) ;
#185 =( NAMED_UNIT ( * ) SI_UNIT ( $, .STERADIAN. ) SOLID_ANGLE_UNIT ( ) );
#186 = EDGE_CURVE ( 'NONE', #190, #28, #248, .T. ) ;
#187 = PRESENTATION_STYLE_ASSIGNMENT (( #227 ) ) ;
#188 = AXIS2_PLACEMENT_3D ( 'NONE', #109, #194, #82 ) ;
#189 = FILL_AREA_STYLE_COLOUR ( '', #31 ) ;
#190 = VERTEX_POINT ( 'NONE', #134 ) ;
#191 = PRODUCT_DEFINITION ( 'UNKNOWN', '', #43, #273 ) ;
#192 = EDGE_LOOP ( 'NONE', ( #197, #57 ) ) ;
#193 = EDGE_LOOP ( 'NONE', ( #236, #141 ) ) ;
#194 = DIRECTION ( 'NONE',  ( 0.000000000000000000, 1.000000000000000000, 0.000000000000000000 ) ) ;
#195 =( NAMED_UNIT ( * ) PLANE_ANGLE_UNIT ( ) SI_UNIT ( $, .RADIAN. ) );
#196 = DIRECTION ( 'NONE',  ( -1.000000000000000000, 2.449293598294706414E-16, 0.000000000000000000 ) ) ;
#197 = ORIENTED_EDGE ( 'NONE', *, *, #10, .T. ) ;
#198 =( NAMED_UNIT ( * ) SI_UNIT ( $, .STERADIAN. ) SOLID_ANGLE_UNIT ( ) );
#199 = CARTESIAN_POINT ( 'NONE',  ( 0.000000000000000000, 0.000000000000000000, 0.000000000000000000 ) ) ;
#200 = PRESENTATION_LAYER_ASSIGNMENT (  '', '', ( #160 ) ) ;
#201 = DIMENSIONAL_EXPONENTS ( 1.000000000000000000, 0.000000000000000000, 0.000000000000000000, 0.000000000000000000, 0.000000000000000000, 0.000000000000000000, 0.000000000000000000 ) ;
#202 =( LENGTH_UNIT ( ) NAMED_UNIT ( * ) SI_UNIT ( $, .METRE. ) );
#203 = ORIENTED_EDGE ( 'NONE', *, *, #256, .T. ) ;
#204 = EDGE_CURVE ( 'NONE', #277, #103, #94, .T. ) ;
#205 =( CONVERSION_BASED_UNIT ( 'INCH', #85 ) LENGTH_UNIT ( ) NAMED_UNIT ( #201 ) );
#206 = DIRECTION ( 'NONE',  ( 0.000000000000000000, 0.000000000000000000, -1.000000000000000000 ) ) ;
#207 = MECHANICAL_DESIGN_GEOMETRIC_PRESENTATION_REPRESENTATION (  '', ( #70 ), #210 ) ;
#208 = UNCERTAINTY_MEASURE_WITH_UNIT (LENGTH_MEASURE( 1.000000000000000082E-05 ), #219, 'distance_accuracy_value', 'NONE');
#209 = SURFACE_SIDE_STYLE ('',( #213 ) ) ;
#210 =( GEOMETRIC_REPRESENTATION_CONTEXT ( 3 ) GLOBAL_UNCERTAINTY_ASSIGNED_CONTEXT ( ( #298 ) ) GLOBAL_UNIT_ASSIGNED_CONTEXT ( ( #280, #195, #147 ) ) REPRESENTATION_CONTEXT ( 'NONE', 'WORKASPACE' ) );
#211 = DIRECTION ( 'NONE',  ( -0.000000000000000000, -1.000000000000000000, -0.000000000000000000 ) ) ;
#212 = FILL_AREA_STYLE ('',( #189 ) ) ;
#213 = SURFACE_STYLE_FILL_AREA ( #184 ) ;
#214 = ADVANCED_BREP_SHAPE_REPRESENTATION ( '82949', ( #17, #221, #115 ), #32 ) ;
#215 = DIRECTION ( 'NONE',  ( 1.000000000000000000, -2.449293598294706414E-16, 0.000000000000000000 ) ) ;
#216 = VERTEX_POINT ( 'NONE', #177 ) ;
#217 = DIRECTION ( 'NONE',  ( 0.000000000000000000, 0.000000000000000000, -1.000000000000000000 ) ) ;
#218 = ORIENTED_EDGE ( 'NONE', *, *, #98, .F. ) ;
#219 =( CONVERSION_BASED_UNIT ( 'INCH', #173 ) LENGTH_UNIT ( ) NAMED_UNIT ( #131 ) );
#220 = CIRCLE ( 'NONE', #151, 0.06249999999999959061 ) ;
#221 = MANIFOLD_SOLID_BREP ( 'Revolve - Tool Body (Straight Shanked)', #139 ) ;
#222 = EDGE_LOOP ( 'NONE', ( #127, #305, #203, #108 ) ) ;
#223 = CYLINDRICAL_SURFACE ( 'NONE', #129, 0.06249999999999980571 ) ;
#224 = DIRECTION ( 'NONE',  ( 0.000000000000000000, 0.000000000000000000, 1.000000000000000000 ) ) ;
#225 = CARTESIAN_POINT ( 'NONE',  ( 0.000000000000000000, 0.7499999999999998890, 0.000000000000000000 ) ) ;
#226 =( LENGTH_UNIT ( ) NAMED_UNIT ( * ) SI_UNIT ( $, .METRE. ) );
#227 = SURFACE_STYLE_USAGE ( .BOTH. , #209 ) ;
#228 = STYLED_ITEM ( 'NONE', ( #154 ), #80 ) ;
#229 =( GEOMETRIC_REPRESENTATION_CONTEXT ( 3 ) GLOBAL_UNCERTAINTY_ASSIGNED_CONTEXT ( ( #39 ) ) GLOBAL_UNIT_ASSIGNED_CONTEXT ( ( #205, #175, #37 ) ) REPRESENTATION_CONTEXT ( 'NONE', 'WORKASPACE' ) );
#230 = CARTESIAN_POINT ( 'NONE',  ( 0.000000000000000000, 0.000000000000000000, -0.06250000000000001388 ) ) ;
#231 = SURFACE_SIDE_STYLE ('',( #140 ) ) ;
#232 = FILL_AREA_STYLE_COLOUR ( '', #267 ) ;
#233 =( LENGTH_UNIT ( ) NAMED_UNIT ( * ) SI_UNIT ( $, .METRE. ) );
#234 = AXIS2_PLACEMENT_3D ( 'NONE', #259, #7, #196 ) ;
#235 = FILL_AREA_STYLE_COLOUR ( '', #156 ) ;
#236 = ORIENTED_EDGE ( 'NONE', *, *, #96, .T. ) ;
#237 = FACE_OUTER_BOUND ( 'NONE', #176, .T. ) ;
#238 = CARTESIAN_POINT ( 'NONE',  ( 4.286263797015736595E-16, 2.500000000000000000, 0.000000000000000000 ) ) ;
#239 = ORIENTED_EDGE ( 'NONE', *, *, #186, .T. ) ;
#240 =( NAMED_UNIT ( * ) PLANE_ANGLE_UNIT ( ) SI_UNIT ( $, .RADIAN. ) );
#241 = ADVANCED_FACE ( 'NONE', ( #95 ), #268, .T. ) ;
#242 = COLOUR_RGB ( '',1.000000000000000000, 0.000000000000000000, 0.000000000000000000 ) ;
#243 = VECTOR ( 'NONE', #125, 39.37007874015748143 ) ;
#244 = SHAPE_DEFINITION_REPRESENTATION ( #69, #214 ) ;
#245 = DIRECTION ( 'NONE',  ( 2.449293598294706414E-16, 1.000000000000000000, -0.000000000000000000 ) ) ;
#246 = AXIS2_PLACEMENT_3D ( 'NONE', #100, #20, #22 ) ;
#247 = SURFACE_STYLE_FILL_AREA ( #157 ) ;
#248 = LINE ( 'NONE', #180, #275 ) ;
#249 = EDGE_CURVE ( 'NONE', #77, #73, #306, .T. ) ;
#250 = CARTESIAN_POINT ( 'NONE',  ( 0.06250000000000023592, 2.500000000000000000, 7.654042494670934434E-18 ) ) ;
#251 = LENGTH_MEASURE_WITH_UNIT ( LENGTH_MEASURE( 0.02539999999999999897 ), #123 );
#252 = SURFACE_STYLE_FILL_AREA ( #212 ) ;
#253 = CARTESIAN_POINT ( 'NONE',  ( 0.06250000000000001388, 2.500000000000000000, 7.654042494670946760E-18 ) ) ;
#254 = ORIENTED_EDGE ( 'NONE', *, *, #23, .T. ) ;
#255 = STYLED_ITEM ( 'NONE', ( #187 ), #241 ) ;
#256 = EDGE_CURVE ( 'NONE', #277, #216, #274, .T. ) ;
#257 = DIRECTION ( 'NONE',  ( -1.000000000000000000, 0.000000000000000000, 0.000000000000000000 ) ) ;
#258 = ORIENTED_EDGE ( 'NONE', *, *, #249, .F. ) ;
#259 = CARTESIAN_POINT ( 'NONE',  ( 1.874699728327322352E-33, 0.7500000000000001110, 0.000000000000000000 ) ) ;
#260 = EDGE_LOOP ( 'NONE', ( #58, #254, #286, #165 ) ) ;
#261 = DIMENSIONAL_EXPONENTS ( 1.000000000000000000, 0.000000000000000000, 0.000000000000000000, 0.000000000000000000, 0.000000000000000000, 0.000000000000000000, 0.000000000000000000 ) ;
#262 = SURFACE_STYLE_FILL_AREA ( #60 ) ;
#263 = ADVANCED_FACE ( 'NONE', ( #301 ), #47, .T. ) ;
#264 = FACE_OUTER_BOUND ( 'NONE', #192, .T. ) ;
#265 = CARTESIAN_POINT ( 'NONE',  ( 0.000000000000000000, 0.000000000000000000, 0.000000000000000000 ) ) ;
#266 = CARTESIAN_POINT ( 'NONE',  ( 4.286263797015736595E-16, 2.500000000000000000, 0.000000000000000000 ) ) ;
#267 = COLOUR_RGB ( '',1.000000000000000000, 0.000000000000000000, 0.000000000000000000 ) ;
#268 = PLANE ( 'NONE',  #107 ) ;
#269 = ADVANCED_FACE ( 'NONE', ( #299 ), #92, .T. ) ;
#270 = CARTESIAN_POINT ( 'NONE',  ( 7.654042494670959086E-18, 0.000000000000000000, 0.06250000000000001388 ) ) ;
#271 = EDGE_CURVE ( 'NONE', #150, #216, #97, .T. ) ;
#272 = FILL_AREA_STYLE_COLOUR ( '', #242 ) ;
#273 = PRODUCT_DEFINITION_CONTEXT ( 'detailed design', #101, 'design' ) ;
#274 = LINE ( 'NONE', #230, #76 ) ;
#275 = VECTOR ( 'NONE', #112, 39.37007874015748143 ) ;
#276 = DIRECTION ( 'NONE',  ( 0.000000000000000000, 0.000000000000000000, -1.000000000000000000 ) ) ;
#277 = VERTEX_POINT ( 'NONE', #74 ) ;
#278 = PRODUCT_RELATED_PRODUCT_CATEGORY ( 'part', '', ( #87 ) ) ;
#279 = APPLICATION_PROTOCOL_DEFINITION ( 'draft international standard', 'automotive_design', 1998, #281 ) ;
#280 =( CONVERSION_BASED_UNIT ( 'INCH', #24 ) LENGTH_UNIT ( ) NAMED_UNIT ( #261 ) );
#281 = APPLICATION_CONTEXT ( 'automotive_design' ) ;
#282 = ORIENTED_EDGE ( 'NONE', *, *, #98, .T. ) ;
#283 = DIRECTION ( 'NONE',  ( -0.000000000000000000, -1.000000000000000000, -0.000000000000000000 ) ) ;
#284 = ORIENTED_EDGE ( 'NONE', *, *, #104, .F. ) ;
#285 = PRESENTATION_LAYER_ASSIGNMENT (  '', '', ( #110 ) ) ;
#286 = ORIENTED_EDGE ( 'NONE', *, *, #96, .F. ) ;
#287 =( NAMED_UNIT ( * ) SI_UNIT ( $, .STERADIAN. ) SOLID_ANGLE_UNIT ( ) );
#288 = PRESENTATION_LAYER_ASSIGNMENT (  '', '', ( #255 ) ) ;
#289 = DIMENSIONAL_EXPONENTS ( 1.000000000000000000, 0.000000000000000000, 0.000000000000000000, 0.000000000000000000, 0.000000000000000000, 0.000000000000000000, 0.000000000000000000 ) ;
#290 = ADVANCED_FACE ( 'NONE', ( #237 ), #72, .F. ) ;
#291 = DIRECTION ( 'NONE',  ( -0.000000000000000000, -1.000000000000000000, -0.000000000000000000 ) ) ;
#292 = DIRECTION ( 'NONE',  ( 2.449293598294706414E-16, 1.000000000000000000, -0.000000000000000000 ) ) ;
#293 = MECHANICAL_DESIGN_GEOMETRIC_PRESENTATION_REPRESENTATION (  '', ( #228 ), #229 ) ;
#294 = AXIS2_PLACEMENT_3D ( 'NONE', #126, #5, #309 ) ;
#295 = ADVANCED_FACE ( 'NONE', ( #29 ), #79, .T. ) ;
#296 = COLOUR_RGB ( '',0.7921568627450980005, 0.8196078431372548767, 0.9333333333333333481 ) ;
#297 = DIRECTION ( 'NONE',  ( -1.000000000000000000, 0.000000000000000000, 0.000000000000000000 ) ) ;
#298 = UNCERTAINTY_MEASURE_WITH_UNIT (LENGTH_MEASURE( 1.000000000000000082E-05 ), #280, 'distance_accuracy_value', 'NONE');
#299 = FACE_OUTER_BOUND ( 'NONE', #222, .T. ) ;
#300 =( LENGTH_UNIT ( ) NAMED_UNIT ( * ) SI_UNIT ( $, .METRE. ) );
#301 = FACE_OUTER_BOUND ( 'NONE', #21, .T. ) ;
#302 = DIRECTION ( 'NONE',  ( 2.449293598294706414E-16, 1.000000000000000000, -0.000000000000000000 ) ) ;
#303 = DIRECTION ( 'NONE',  ( 2.449293598294706414E-16, 1.000000000000000000, -0.000000000000000000 ) ) ;
#304 = MECHANICAL_DESIGN_GEOMETRIC_PRESENTATION_REPRESENTATION (  '', ( #160 ), #152 ) ;
#305 = ORIENTED_EDGE ( 'NONE', *, *, #104, .T. ) ;
#306 = LINE ( 'NONE', #250, #93 ) ;
#307 = CARTESIAN_POINT ( 'NONE',  ( 0.000000000000000000, 0.7499999999999998890, 0.000000000000000000 ) ) ;
#308 = ORIENTED_EDGE ( 'NONE', *, *, #83, .F. ) ;
#309 = DIRECTION ( 'NONE',  ( 0.000000000000000000, 0.000000000000000000, -1.000000000000000000 ) ) ;
ENDSEC;
END-ISO-10303-21;
