ISO-10303-21;
HEADER;
FILE_DESCRIPTION (( 'STEP AP214' ),
    '1' );
FILE_NAME ('83194.STEP',
    '2023-06-23T08:16:10',
    ( '' ),
    ( '' ),
    'SwSTEP 2.0',
    'SolidWorks 2023',
    '' );
FILE_SCHEMA (( 'AUTOMOTIVE_DESIGN' ));
ENDSEC;

DATA;
#1 = DIMENSIONAL_EXPONENTS ( 1.000000000000000000, 0.000000000000000000, 0.000000000000000000, 0.000000000000000000, 0.000000000000000000, 0.000000000000000000, 0.000000000000000000 ) ;
#2 = COLOUR_RGB ( '',0.7921568627450980005, 0.8196078431372548767, 0.9333333333333333481 ) ;
#3 = CARTESIAN_POINT ( 'NONE',  ( -0.09375000000000001388, 1.000000000000000000, 0.000000000000000000 ) ) ;
#4 = VERTEX_POINT ( 'NONE', #37 ) ;
#5 = DIRECTION ( 'NONE',  ( -0.000000000000000000, -1.000000000000000000, -0.000000000000000000 ) ) ;
#6 = VERTEX_POINT ( 'NONE', #83 ) ;
#7 = MECHANICAL_DESIGN_GEOMETRIC_PRESENTATION_REPRESENTATION (  '', ( #156 ), #90 ) ;
#8 = VERTEX_POINT ( 'NONE', #281 ) ;
#9 =( CONVERSION_BASED_UNIT ( 'INCH', #217 ) LENGTH_UNIT ( ) NAMED_UNIT ( #170 ) );
#10 = CARTESIAN_POINT ( 'NONE',  ( 0.000000000000000000, 0.000000000000000000, -0.09375000000000001388 ) ) ;
#11 = ORIENTED_EDGE ( 'NONE', *, *, #142, .F. ) ;
#12 = DIRECTION ( 'NONE',  ( 0.000000000000000000, 0.000000000000000000, -1.000000000000000000 ) ) ;
#13 = COLOUR_RGB ( '',1.000000000000000000, 0.000000000000000000, 0.000000000000000000 ) ;
#14 = UNCERTAINTY_MEASURE_WITH_UNIT (LENGTH_MEASURE( 1.000000000000000082E-05 ), #199, 'distance_accuracy_value', 'NONE');
#15 = VERTEX_POINT ( 'NONE', #109 ) ;
#16 = CIRCLE ( 'NONE', #183, 0.09375000000000006939 ) ;
#17 = DIRECTION ( 'NONE',  ( 0.000000000000000000, 0.000000000000000000, -1.000000000000000000 ) ) ;
#18 = CYLINDRICAL_SURFACE ( 'NONE', #293, 0.09375000000000001388 ) ;
#19 =( NAMED_UNIT ( * ) SI_UNIT ( $, .STERADIAN. ) SOLID_ANGLE_UNIT ( ) );
#20 = FILL_AREA_STYLE ('',( #285 ) ) ;
#21 = COLOUR_RGB ( '',1.000000000000000000, 0.000000000000000000, 0.000000000000000000 ) ;
#22 = ADVANCED_FACE ( 'NONE', ( #208 ), #59, .F. ) ;
#23 =( NAMED_UNIT ( * ) SI_UNIT ( $, .STERADIAN. ) SOLID_ANGLE_UNIT ( ) );
#24 = ORIENTED_EDGE ( 'NONE', *, *, #252, .T. ) ;
#25 = ORIENTED_EDGE ( 'NONE', *, *, #149, .F. ) ;
#26 =( NAMED_UNIT ( * ) PLANE_ANGLE_UNIT ( ) SI_UNIT ( $, .RADIAN. ) );
#27 = CLOSED_SHELL ( 'NONE', ( #286, #22, #45, #36 ) ) ;
#28 = CARTESIAN_POINT ( 'NONE',  ( 0.000000000000000000, 0.000000000000000000, 0.000000000000000000 ) ) ;
#29 = FACE_OUTER_BOUND ( 'NONE', #69, .T. ) ;
#30 = ORIENTED_EDGE ( 'NONE', *, *, #142, .T. ) ;
#31 = AXIS2_PLACEMENT_3D ( 'NONE', #38, #267, #57 ) ;
#32 = CYLINDRICAL_SURFACE ( 'NONE', #284, 0.09375000000000004163 ) ;
#33 = SURFACE_SIDE_STYLE ('',( #185 ) ) ;
#34 = UNCERTAINTY_MEASURE_WITH_UNIT (LENGTH_MEASURE( 1.000000000000000082E-05 ), #224, 'distance_accuracy_value', 'NONE');
#35 =( CONVERSION_BASED_UNIT ( 'INCH', #193 ) LENGTH_UNIT ( ) NAMED_UNIT ( #256 ) );
#36 = ADVANCED_FACE ( 'NONE', ( #273 ), #157, .F. ) ;
#37 = CARTESIAN_POINT ( 'NONE',  ( 0.000000000000000000, 1.000000000000000000, -0.09375000000000001388 ) ) ;
#38 = CARTESIAN_POINT ( 'NONE',  ( -6.123233995736766036E-17, 2.500000000000000000, 0.000000000000000000 ) ) ;
#39 = SURFACE_SIDE_STYLE ('',( #283 ) ) ;
#40 =( NAMED_UNIT ( * ) SI_UNIT ( $, .STERADIAN. ) SOLID_ANGLE_UNIT ( ) );
#41 = CARTESIAN_POINT ( 'NONE',  ( 0.000000000000000000, 1.000000000000000000, 0.000000000000000000 ) ) ;
#42 = DIRECTION ( 'NONE',  ( 0.000000000000000000, 0.000000000000000000, -1.000000000000000000 ) ) ;
#43 = DIRECTION ( 'NONE',  ( 1.000000000000000000, 4.082155997157843818E-17, 0.000000000000000000 ) ) ;
#44 = VECTOR ( 'NONE', #72, 39.37007874015748143 ) ;
#45 = ADVANCED_FACE ( 'NONE', ( #205 ), #296, .T. ) ;
#46 = SURFACE_STYLE_USAGE ( .BOTH. , #148 ) ;
#47 =( NAMED_UNIT ( * ) PLANE_ANGLE_UNIT ( ) SI_UNIT ( $, .RADIAN. ) );
#48 = AXIS2_PLACEMENT_3D ( 'NONE', #254, #108, #187 ) ;
#49 = STYLED_ITEM ( 'NONE', ( #247 ), #294 ) ;
#50 = DIRECTION ( 'NONE',  ( 1.000000000000000000, 0.000000000000000000, 0.000000000000000000 ) ) ;
#51 = LINE ( 'NONE', #10, #44 ) ;
#52 =( GEOMETRIC_REPRESENTATION_CONTEXT ( 3 ) GLOBAL_UNCERTAINTY_ASSIGNED_CONTEXT ( ( #129 ) ) GLOBAL_UNIT_ASSIGNED_CONTEXT ( ( #35, #280, #66 ) ) REPRESENTATION_CONTEXT ( 'NONE', 'WORKASPACE' ) );
#53 =( GEOMETRIC_REPRESENTATION_CONTEXT ( 3 ) GLOBAL_UNCERTAINTY_ASSIGNED_CONTEXT ( ( #184 ) ) GLOBAL_UNIT_ASSIGNED_CONTEXT ( ( #9, #47, #71 ) ) REPRESENTATION_CONTEXT ( 'NONE', 'WORKASPACE' ) );
#54 = UNCERTAINTY_MEASURE_WITH_UNIT (LENGTH_MEASURE( 1.000000000000000082E-05 ), #291, 'distance_accuracy_value', 'NONE');
#55 = FILL_AREA_STYLE_COLOUR ( '', #21 ) ;
#56 = EDGE_CURVE ( 'NONE', #132, #4, #306, .T. ) ;
#57 = DIRECTION ( 'NONE',  ( -1.000000000000000000, 0.000000000000000000, 0.000000000000000000 ) ) ;
#58 = CARTESIAN_POINT ( 'NONE',  ( 0.000000000000000000, 1.000000000000000000, 0.000000000000000000 ) ) ;
#59 = PLANE ( 'NONE',  #237 ) ;
#60 = SURFACE_SIDE_STYLE ('',( #282 ) ) ;
#61 = SURFACE_STYLE_USAGE ( .BOTH. , #39 ) ;
#62 = AXIS2_PLACEMENT_3D ( 'NONE', #97, #219, #12 ) ;
#63 = PRESENTATION_STYLE_ASSIGNMENT (( #106 ) ) ;
#64 = DIRECTION ( 'NONE',  ( -4.082155997157843818E-17, 1.000000000000000000, -0.000000000000000000 ) ) ;
#65 = ORIENTED_EDGE ( 'NONE', *, *, #149, .T. ) ;
#66 =( NAMED_UNIT ( * ) SI_UNIT ( $, .STERADIAN. ) SOLID_ANGLE_UNIT ( ) );
#67 = DIRECTION ( 'NONE',  ( -4.082155997157843818E-17, 1.000000000000000000, -0.000000000000000000 ) ) ;
#68 = LENGTH_MEASURE_WITH_UNIT ( LENGTH_MEASURE( 0.02539999999999999897 ), #264 );
#69 = EDGE_LOOP ( 'NONE', ( #127, #115, #216, #304 ) ) ;
#70 = ORIENTED_EDGE ( 'NONE', *, *, #78, .F. ) ;
#71 =( NAMED_UNIT ( * ) SI_UNIT ( $, .STERADIAN. ) SOLID_ANGLE_UNIT ( ) );
#72 = DIRECTION ( 'NONE',  ( -0.000000000000000000, -1.000000000000000000, -0.000000000000000000 ) ) ;
#73 = MECHANICAL_DESIGN_GEOMETRIC_PRESENTATION_REPRESENTATION (  '', ( #177 ), #113 ) ;
#74 = PRODUCT_RELATED_PRODUCT_CATEGORY ( 'part', '', ( #82 ) ) ;
#75 = DIRECTION ( 'NONE',  ( -1.000000000000000000, 0.000000000000000000, 0.000000000000000000 ) ) ;
#76 = MANIFOLD_SOLID_BREP ( 'Revolve - Tool Body (Straight Shanked)', #27 ) ;
#77 =( NAMED_UNIT ( * ) PLANE_ANGLE_UNIT ( ) SI_UNIT ( $, .RADIAN. ) );
#78 = EDGE_CURVE ( 'NONE', #4, #132, #95, .T. ) ;
#79 = PRODUCT_DEFINITION_CONTEXT ( 'detailed design', #194, 'design' ) ;
#80 = DIRECTION ( 'NONE',  ( -0.000000000000000000, -1.000000000000000000, -0.000000000000000000 ) ) ;
#81 = PLANE ( 'NONE',  #158 ) ;
#82 = PRODUCT ( '83194', '83194', '', ( #130 ) ) ;
#83 = CARTESIAN_POINT ( 'NONE',  ( 1.148106374200643863E-17, 0.000000000000000000, 0.09375000000000001388 ) ) ;
#84 = LINE ( 'NONE', #140, #145 ) ;
#85 = DIRECTION ( 'NONE',  ( 0.000000000000000000, 0.000000000000000000, -1.000000000000000000 ) ) ;
#86 = AXIS2_PLACEMENT_3D ( 'NONE', #248, #151, #43 ) ;
#87 = CARTESIAN_POINT ( 'NONE',  ( 1.148106374200643863E-17, 0.000000000000000000, 0.09375000000000001388 ) ) ;
#88 = VECTOR ( 'NONE', #5, 39.37007874015748143 ) ;
#89 = MANIFOLD_SOLID_BREP ( 'Revolve - Cutting Edge', #162 ) ;
#90 =( GEOMETRIC_REPRESENTATION_CONTEXT ( 3 ) GLOBAL_UNCERTAINTY_ASSIGNED_CONTEXT ( ( #299 ) ) GLOBAL_UNIT_ASSIGNED_CONTEXT ( ( #250, #26, #270 ) ) REPRESENTATION_CONTEXT ( 'NONE', 'WORKASPACE' ) );
#91 = SURFACE_STYLE_FILL_AREA ( #120 ) ;
#92 = ORIENTED_EDGE ( 'NONE', *, *, #125, .F. ) ;
#93 = CARTESIAN_POINT ( 'NONE',  ( 0.000000000000000000, 0.000000000000000000, 0.000000000000000000 ) ) ;
#94 = ORIENTED_EDGE ( 'NONE', *, *, #292, .T. ) ;
#95 = CIRCLE ( 'NONE', #274, 0.09375000000000001388 ) ;
#96 = ORIENTED_EDGE ( 'NONE', *, *, #56, .T. ) ;
#97 = CARTESIAN_POINT ( 'NONE',  ( 0.000000000000000000, 0.000000000000000000, 0.000000000000000000 ) ) ;
#98 = SHAPE_DEFINITION_REPRESENTATION ( #121, #207 ) ;
#99 = ORIENTED_EDGE ( 'NONE', *, *, #172, .T. ) ;
#100 = EDGE_CURVE ( 'NONE', #8, #15, #84, .T. ) ;
#101 = DIRECTION ( 'NONE',  ( -4.082155997157843818E-17, 1.000000000000000000, -0.000000000000000000 ) ) ;
#102 = PRESENTATION_LAYER_ASSIGNMENT (  '', '', ( #268 ) ) ;
#103 = STYLED_ITEM ( 'NONE', ( #166 ), #226 ) ;
#104 = CARTESIAN_POINT ( 'NONE',  ( 0.000000000000000000, 0.000000000000000000, 0.000000000000000000 ) ) ;
#105 = ORIENTED_EDGE ( 'NONE', *, *, #172, .F. ) ;
#106 = SURFACE_STYLE_USAGE ( .BOTH. , #159 ) ;
#107 = PLANE ( 'NONE',  #289 ) ;
#108 = DIRECTION ( 'NONE',  ( -4.082155997157843818E-17, 1.000000000000000000, -0.000000000000000000 ) ) ;
#109 = CARTESIAN_POINT ( 'NONE',  ( 0.09375000000000001388, 2.500000000000000000, 1.148106374200644325E-17 ) ) ;
#110 = DIRECTION ( 'NONE',  ( -4.082155997157843818E-17, 1.000000000000000000, -0.000000000000000000 ) ) ;
#111 = LINE ( 'NONE', #87, #88 ) ;
#112 = ORIENTED_EDGE ( 'NONE', *, *, #276, .T. ) ;
#113 =( GEOMETRIC_REPRESENTATION_CONTEXT ( 3 ) GLOBAL_UNCERTAINTY_ASSIGNED_CONTEXT ( ( #271 ) ) GLOBAL_UNIT_ASSIGNED_CONTEXT ( ( #215, #221, #235 ) ) REPRESENTATION_CONTEXT ( 'NONE', 'WORKASPACE' ) );
#114 = AXIS2_PLACEMENT_3D ( 'NONE', #104, #278, #295 ) ;
#115 = ORIENTED_EDGE ( 'NONE', *, *, #238, .T. ) ;
#116 = FILL_AREA_STYLE ('',( #231 ) ) ;
#117 = CARTESIAN_POINT ( 'NONE',  ( 0.000000000000000000, 0.000000000000000000, -0.09375000000000001388 ) ) ;
#118 = LENGTH_MEASURE_WITH_UNIT ( LENGTH_MEASURE( 0.02539999999999999897 ), #169 );
#119 = EDGE_LOOP ( 'NONE', ( #198, #24, #65, #137 ) ) ;
#120 = FILL_AREA_STYLE ('',( #287 ) ) ;
#121 = PRODUCT_DEFINITION_SHAPE ( 'NONE', 'NONE',  #195 ) ;
#122 = AXIS2_PLACEMENT_3D ( 'NONE', #239, #67, #75 ) ;
#123 = CIRCLE ( 'NONE', #114, 0.09375000000000001388 ) ;
#124 =( LENGTH_UNIT ( ) NAMED_UNIT ( * ) SI_UNIT ( $, .METRE. ) );
#125 = EDGE_CURVE ( 'NONE', #6, #290, #245, .T. ) ;
#126 = CARTESIAN_POINT ( 'NONE',  ( -6.123233995736766036E-17, 2.500000000000000000, 0.000000000000000000 ) ) ;
#127 = ORIENTED_EDGE ( 'NONE', *, *, #78, .T. ) ;
#128 = ORIENTED_EDGE ( 'NONE', *, *, #125, .T. ) ;
#129 = UNCERTAINTY_MEASURE_WITH_UNIT (LENGTH_MEASURE( 1.000000000000000082E-05 ), #35, 'distance_accuracy_value', 'NONE');
#130 = PRODUCT_CONTEXT ( 'NONE', #308, 'mechanical' ) ;
#131 =( LENGTH_UNIT ( ) NAMED_UNIT ( * ) SI_UNIT ( $, .METRE. ) );
#132 = VERTEX_POINT ( 'NONE', #233 ) ;
#133 = FILL_AREA_STYLE ('',( #243 ) ) ;
#134 = PRESENTATION_LAYER_ASSIGNMENT (  '', '', ( #156 ) ) ;
#135 = PRODUCT_DEFINITION_FORMATION_WITH_SPECIFIED_SOURCE ( 'ANY', '', #82, .NOT_KNOWN. ) ;
#136 = CARTESIAN_POINT ( 'NONE',  ( -0.09375000000000013878, 2.500000000000000000, 0.000000000000000000 ) ) ;
#137 = ORIENTED_EDGE ( 'NONE', *, *, #241, .F. ) ;
#138 = SURFACE_STYLE_FILL_AREA ( #20 ) ;
#139 = PRESENTATION_STYLE_ASSIGNMENT (( #61 ) ) ;
#140 = CARTESIAN_POINT ( 'NONE',  ( 0.09374999999999997224, 2.500000000000000000, 1.148106374200644171E-17 ) ) ;
#141 = ORIENTED_EDGE ( 'NONE', *, *, #252, .F. ) ;
#142 = EDGE_CURVE ( 'NONE', #240, #8, #190, .T. ) ;
#143 = FACE_OUTER_BOUND ( 'NONE', #175, .T. ) ;
#144 = PRESENTATION_STYLE_ASSIGNMENT (( #46 ) ) ;
#145 = VECTOR ( 'NONE', #64, 39.37007874015748143 ) ;
#146 = MECHANICAL_DESIGN_GEOMETRIC_PRESENTATION_REPRESENTATION (  '', ( #103 ), #211 ) ;
#147 = DIRECTION ( 'NONE',  ( 0.000000000000000000, 0.000000000000000000, 1.000000000000000000 ) ) ;
#148 = SURFACE_SIDE_STYLE ('',( #91 ) ) ;
#149 = EDGE_CURVE ( 'NONE', #240, #150, #249, .T. ) ;
#150 = VERTEX_POINT ( 'NONE', #136 ) ;
#151 = DIRECTION ( 'NONE',  ( 4.082155997157843818E-17, -1.000000000000000000, 0.000000000000000000 ) ) ;
#152 =( LENGTH_UNIT ( ) NAMED_UNIT ( * ) SI_UNIT ( $, .METRE. ) );
#153 = ORIENTED_EDGE ( 'NONE', *, *, #241, .T. ) ;
#154 = COLOUR_RGB ( '',1.000000000000000000, 0.000000000000000000, 0.000000000000000000 ) ;
#155 = FACE_OUTER_BOUND ( 'NONE', #200, .T. ) ;
#156 = STYLED_ITEM ( 'NONE', ( #139 ), #218 ) ;
#157 = PLANE ( 'NONE',  #86 ) ;
#158 = AXIS2_PLACEMENT_3D ( 'NONE', #192, #173, #213 ) ;
#159 = SURFACE_SIDE_STYLE ('',( #138 ) ) ;
#160 = LENGTH_MEASURE_WITH_UNIT ( LENGTH_MEASURE( 0.02539999999999999897 ), #201 );
#161 = DIRECTION ( 'NONE',  ( -4.082155997157843818E-17, 1.000000000000000000, 0.000000000000000000 ) ) ;
#162 = CLOSED_SHELL ( 'NONE', ( #301, #226, #218, #294 ) ) ;
#163 = SURFACE_STYLE_USAGE ( .BOTH. , #60 ) ;
#164 = PRESENTATION_LAYER_ASSIGNMENT (  '', '', ( #49 ) ) ;
#165 = DIMENSIONAL_EXPONENTS ( 1.000000000000000000, 0.000000000000000000, 0.000000000000000000, 0.000000000000000000, 0.000000000000000000, 0.000000000000000000, 0.000000000000000000 ) ;
#166 = PRESENTATION_STYLE_ASSIGNMENT (( #305 ) ) ;
#167 = DIRECTION ( 'NONE',  ( 0.000000000000000000, 1.000000000000000000, 0.000000000000000000 ) ) ;
#168 = CARTESIAN_POINT ( 'NONE',  ( 0.000000000000000000, 0.000000000000000000, 0.000000000000000000 ) ) ;
#169 =( LENGTH_UNIT ( ) NAMED_UNIT ( * ) SI_UNIT ( $, .METRE. ) );
#170 = DIMENSIONAL_EXPONENTS ( 1.000000000000000000, 0.000000000000000000, 0.000000000000000000, 0.000000000000000000, 0.000000000000000000, 0.000000000000000000, 0.000000000000000000 ) ;
#171 = ORIENTED_EDGE ( 'NONE', *, *, #56, .F. ) ;
#172 = EDGE_CURVE ( 'NONE', #150, #15, #260, .T. ) ;
#173 = DIRECTION ( 'NONE',  ( 0.000000000000000000, -1.000000000000000000, -0.000000000000000000 ) ) ;
#174 = FACE_OUTER_BOUND ( 'NONE', #181, .T. ) ;
#175 = EDGE_LOOP ( 'NONE', ( #206, #96, #112, #92 ) ) ;
#176 = MECHANICAL_DESIGN_GEOMETRIC_PRESENTATION_REPRESENTATION (  '', ( #268 ), #52 ) ;
#177 = STYLED_ITEM ( 'NONE', ( #251 ), #89 ) ;
#178 = DIRECTION ( 'NONE',  ( -1.000000000000000000, 0.000000000000000000, 0.000000000000000000 ) ) ;
#179 = SURFACE_STYLE_USAGE ( .BOTH. , #33 ) ;
#180 = DIRECTION ( 'NONE',  ( -4.082155997157843818E-17, 1.000000000000000000, -0.000000000000000000 ) ) ;
#181 = EDGE_LOOP ( 'NONE', ( #30, #244, #105, #25 ) ) ;
#182 = AXIS2_PLACEMENT_3D ( 'NONE', #168, #255, #42 ) ;
#183 = AXIS2_PLACEMENT_3D ( 'NONE', #265, #214, #234 ) ;
#184 = UNCERTAINTY_MEASURE_WITH_UNIT (LENGTH_MEASURE( 1.000000000000000082E-05 ), #9, 'distance_accuracy_value', 'NONE');
#185 = SURFACE_STYLE_FILL_AREA ( #277 ) ;
#186 = EDGE_LOOP ( 'NONE', ( #11, #141 ) ) ;
#187 = DIRECTION ( 'NONE',  ( -1.000000000000000000, 0.000000000000000000, 0.000000000000000000 ) ) ;
#188 = FILL_AREA_STYLE ('',( #302 ) ) ;
#189 = DIMENSIONAL_EXPONENTS ( 1.000000000000000000, 0.000000000000000000, 0.000000000000000000, 0.000000000000000000, 0.000000000000000000, 0.000000000000000000, 0.000000000000000000 ) ;
#190 = CIRCLE ( 'NONE', #122, 0.09375000000000001388 ) ;
#191 = AXIS2_PLACEMENT_3D ( 'NONE', #259, #110, #178 ) ;
#192 = CARTESIAN_POINT ( 'NONE',  ( 0.000000000000000000, 0.000000000000000000, 0.000000000000000000 ) ) ;
#193 = LENGTH_MEASURE_WITH_UNIT ( LENGTH_MEASURE( 0.02539999999999999897 ), #210 );
#194 = APPLICATION_CONTEXT ( 'automotive_design' ) ;
#195 = PRODUCT_DEFINITION ( 'UNKNOWN', '', #135, #79 ) ;
#196 = LENGTH_MEASURE_WITH_UNIT ( LENGTH_MEASURE( 0.02539999999999999897 ), #124 );
#197 = COLOUR_RGB ( '',0.7921568627450980005, 0.8196078431372548767, 0.9333333333333333481 ) ;
#198 = ORIENTED_EDGE ( 'NONE', *, *, #100, .F. ) ;
#199 =( CONVERSION_BASED_UNIT ( 'INCH', #118 ) LENGTH_UNIT ( ) NAMED_UNIT ( #1 ) );
#200 = EDGE_LOOP ( 'NONE', ( #70, #171 ) ) ;
#201 =( LENGTH_UNIT ( ) NAMED_UNIT ( * ) SI_UNIT ( $, .METRE. ) );
#202 =( GEOMETRIC_REPRESENTATION_CONTEXT ( 3 ) GLOBAL_UNCERTAINTY_ASSIGNED_CONTEXT ( ( #34 ) ) GLOBAL_UNIT_ASSIGNED_CONTEXT ( ( #224, #253, #40 ) ) REPRESENTATION_CONTEXT ( 'NONE', 'WORKASPACE' ) );
#203 = DIRECTION ( 'NONE',  ( -1.000000000000000000, -4.082155997157843818E-17, 0.000000000000000000 ) ) ;
#204 = PRESENTATION_LAYER_ASSIGNMENT (  '', '', ( #103 ) ) ;
#205 = FACE_OUTER_BOUND ( 'NONE', #119, .T. ) ;
#206 = ORIENTED_EDGE ( 'NONE', *, *, #238, .F. ) ;
#207 = ADVANCED_BREP_SHAPE_REPRESENTATION ( '83194', ( #89, #76, #307 ), #261 ) ;
#208 = FACE_OUTER_BOUND ( 'NONE', #186, .T. ) ;
#209 = PRESENTATION_LAYER_ASSIGNMENT (  '', '', ( #177 ) ) ;
#210 =( LENGTH_UNIT ( ) NAMED_UNIT ( * ) SI_UNIT ( $, .METRE. ) );
#211 =( GEOMETRIC_REPRESENTATION_CONTEXT ( 3 ) GLOBAL_UNCERTAINTY_ASSIGNED_CONTEXT ( ( #14 ) ) GLOBAL_UNIT_ASSIGNED_CONTEXT ( ( #199, #228, #19 ) ) REPRESENTATION_CONTEXT ( 'NONE', 'WORKASPACE' ) );
#212 = PRESENTATION_LAYER_ASSIGNMENT (  '', '', ( #257 ) ) ;
#213 = DIRECTION ( 'NONE',  ( 0.000000000000000000, 0.000000000000000000, -1.000000000000000000 ) ) ;
#214 = DIRECTION ( 'NONE',  ( -4.082155997157843818E-17, 1.000000000000000000, -0.000000000000000000 ) ) ;
#215 =( CONVERSION_BASED_UNIT ( 'INCH', #68 ) LENGTH_UNIT ( ) NAMED_UNIT ( #189 ) );
#216 = ORIENTED_EDGE ( 'NONE', *, *, #292, .F. ) ;
#217 = LENGTH_MEASURE_WITH_UNIT ( LENGTH_MEASURE( 0.02539999999999999897 ), #152 );
#218 = ADVANCED_FACE ( 'NONE', ( #143 ), #18, .T. ) ;
#219 = DIRECTION ( 'NONE',  ( -0.000000000000000000, -1.000000000000000000, -0.000000000000000000 ) ) ;
#220 = DIRECTION ( 'NONE',  ( 0.000000000000000000, 0.000000000000000000, -1.000000000000000000 ) ) ;
#221 =( NAMED_UNIT ( * ) PLANE_ANGLE_UNIT ( ) SI_UNIT ( $, .RADIAN. ) );
#222 = SURFACE_STYLE_FILL_AREA ( #133 ) ;
#223 = VECTOR ( 'NONE', #180, 39.37007874015748143 ) ;
#224 =( CONVERSION_BASED_UNIT ( 'INCH', #272 ) LENGTH_UNIT ( ) NAMED_UNIT ( #309 ) );
#225 = CARTESIAN_POINT ( 'NONE',  ( 7.811248868030508374E-35, 1.000000000000000000, 0.000000000000000000 ) ) ;
#226 = ADVANCED_FACE ( 'NONE', ( #155 ), #107, .T. ) ;
#227 = DIRECTION ( 'NONE',  ( -0.000000000000000000, -1.000000000000000000, -0.000000000000000000 ) ) ;
#228 =( NAMED_UNIT ( * ) PLANE_ANGLE_UNIT ( ) SI_UNIT ( $, .RADIAN. ) );
#229 = EDGE_LOOP ( 'NONE', ( #99, #153 ) ) ;
#230 = DIRECTION ( 'NONE',  ( 0.000000000000000000, -0.000000000000000000, 1.000000000000000000 ) ) ;
#231 = FILL_AREA_STYLE_COLOUR ( '', #288 ) ;
#232 = SURFACE_SIDE_STYLE ('',( #222 ) ) ;
#233 = CARTESIAN_POINT ( 'NONE',  ( 1.148106374200643863E-17, 1.000000000000000000, 0.09375000000000001388 ) ) ;
#234 = DIRECTION ( 'NONE',  ( -1.000000000000000000, 0.000000000000000000, 0.000000000000000000 ) ) ;
#235 =( NAMED_UNIT ( * ) SI_UNIT ( $, .STERADIAN. ) SOLID_ANGLE_UNIT ( ) );
#236 = DIRECTION ( 'NONE',  ( -1.000000000000000000, 0.000000000000000000, 0.000000000000000000 ) ) ;
#237 = AXIS2_PLACEMENT_3D ( 'NONE', #225, #161, #203 ) ;
#238 = EDGE_CURVE ( 'NONE', #132, #6, #111, .T. ) ;
#239 = CARTESIAN_POINT ( 'NONE',  ( 0.000000000000000000, 1.000000000000000000, 0.000000000000000000 ) ) ;
#240 = VERTEX_POINT ( 'NONE', #3 ) ;
#241 = EDGE_CURVE ( 'NONE', #15, #150, #16, .T. ) ;
#242 = EDGE_LOOP ( 'NONE', ( #94, #128 ) ) ;
#243 = FILL_AREA_STYLE_COLOUR ( '', #154 ) ;
#244 = ORIENTED_EDGE ( 'NONE', *, *, #100, .T. ) ;
#245 = CIRCLE ( 'NONE', #182, 0.09375000000000001388 ) ;
#246 = CIRCLE ( 'NONE', #191, 0.09375000000000001388 ) ;
#247 = PRESENTATION_STYLE_ASSIGNMENT (( #179 ) ) ;
#248 = CARTESIAN_POINT ( 'NONE',  ( 0.09375000000000001388, 2.500000000000000000, 0.000000000000000000 ) ) ;
#249 = LINE ( 'NONE', #279, #223 ) ;
#250 =( CONVERSION_BASED_UNIT ( 'INCH', #160 ) LENGTH_UNIT ( ) NAMED_UNIT ( #258 ) );
#251 = PRESENTATION_STYLE_ASSIGNMENT (( #163 ) ) ;
#252 = EDGE_CURVE ( 'NONE', #8, #240, #246, .T. ) ;
#253 =( NAMED_UNIT ( * ) PLANE_ANGLE_UNIT ( ) SI_UNIT ( $, .RADIAN. ) );
#254 = CARTESIAN_POINT ( 'NONE',  ( -6.123233995736766036E-17, 2.500000000000000000, 0.000000000000000000 ) ) ;
#255 = DIRECTION ( 'NONE',  ( -0.000000000000000000, -1.000000000000000000, -0.000000000000000000 ) ) ;
#256 = DIMENSIONAL_EXPONENTS ( 1.000000000000000000, 0.000000000000000000, 0.000000000000000000, 0.000000000000000000, 0.000000000000000000, 0.000000000000000000, 0.000000000000000000 ) ;
#257 = STYLED_ITEM ( 'NONE', ( #144 ), #301 ) ;
#258 = DIMENSIONAL_EXPONENTS ( 1.000000000000000000, 0.000000000000000000, 0.000000000000000000, 0.000000000000000000, 0.000000000000000000, 0.000000000000000000, 0.000000000000000000 ) ;
#259 = CARTESIAN_POINT ( 'NONE',  ( 0.000000000000000000, 1.000000000000000000, 0.000000000000000000 ) ) ;
#260 = CIRCLE ( 'NONE', #31, 0.09375000000000006939 ) ;
#261 =( GEOMETRIC_REPRESENTATION_CONTEXT ( 3 ) GLOBAL_UNCERTAINTY_ASSIGNED_CONTEXT ( ( #54 ) ) GLOBAL_UNIT_ASSIGNED_CONTEXT ( ( #291, #77, #23 ) ) REPRESENTATION_CONTEXT ( 'NONE', 'WORKASPACE' ) );
#262 = APPLICATION_PROTOCOL_DEFINITION ( 'draft international standard', 'automotive_design', 1998, #308 ) ;
#263 = CYLINDRICAL_SURFACE ( 'NONE', #62, 0.09375000000000001388 ) ;
#264 =( LENGTH_UNIT ( ) NAMED_UNIT ( * ) SI_UNIT ( $, .METRE. ) );
#265 = CARTESIAN_POINT ( 'NONE',  ( -6.123233995736766036E-17, 2.500000000000000000, 0.000000000000000000 ) ) ;
#266 = APPLICATION_PROTOCOL_DEFINITION ( 'draft international standard', 'automotive_design', 1998, #194 ) ;
#267 = DIRECTION ( 'NONE',  ( -4.082155997157843818E-17, 1.000000000000000000, -0.000000000000000000 ) ) ;
#268 = STYLED_ITEM ( 'NONE', ( #63 ), #76 ) ;
#269 = DIRECTION ( 'NONE',  ( -0.000000000000000000, -1.000000000000000000, -0.000000000000000000 ) ) ;
#270 =( NAMED_UNIT ( * ) SI_UNIT ( $, .STERADIAN. ) SOLID_ANGLE_UNIT ( ) );
#271 = UNCERTAINTY_MEASURE_WITH_UNIT (LENGTH_MEASURE( 1.000000000000000082E-05 ), #215, 'distance_accuracy_value', 'NONE');
#272 = LENGTH_MEASURE_WITH_UNIT ( LENGTH_MEASURE( 0.02539999999999999897 ), #131 );
#273 = FACE_OUTER_BOUND ( 'NONE', #229, .T. ) ;
#274 = AXIS2_PLACEMENT_3D ( 'NONE', #58, #227, #17 ) ;
#275 = MECHANICAL_DESIGN_GEOMETRIC_PRESENTATION_REPRESENTATION (  '', ( #49 ), #202 ) ;
#276 = EDGE_CURVE ( 'NONE', #4, #290, #51, .T. ) ;
#277 = FILL_AREA_STYLE ('',( #55 ) ) ;
#278 = DIRECTION ( 'NONE',  ( -0.000000000000000000, -1.000000000000000000, -0.000000000000000000 ) ) ;
#279 = CARTESIAN_POINT ( 'NONE',  ( -0.09375000000000011102, 2.500000000000000000, 0.000000000000000000 ) ) ;
#280 =( NAMED_UNIT ( * ) PLANE_ANGLE_UNIT ( ) SI_UNIT ( $, .RADIAN. ) );
#281 = CARTESIAN_POINT ( 'NONE',  ( 0.09375000000000001388, 1.000000000000000000, 1.148106374200644325E-17 ) ) ;
#282 = SURFACE_STYLE_FILL_AREA ( #188 ) ;
#283 = SURFACE_STYLE_FILL_AREA ( #116 ) ;
#284 = AXIS2_PLACEMENT_3D ( 'NONE', #126, #101, #236 ) ;
#285 = FILL_AREA_STYLE_COLOUR ( '', #197 ) ;
#286 = ADVANCED_FACE ( 'NONE', ( #174 ), #32, .T. ) ;
#287 = FILL_AREA_STYLE_COLOUR ( '', #13 ) ;
#288 = COLOUR_RGB ( '',1.000000000000000000, 0.000000000000000000, 0.000000000000000000 ) ;
#289 = AXIS2_PLACEMENT_3D ( 'NONE', #303, #167, #230 ) ;
#290 = VERTEX_POINT ( 'NONE', #117 ) ;
#291 =( CONVERSION_BASED_UNIT ( 'INCH', #196 ) LENGTH_UNIT ( ) NAMED_UNIT ( #165 ) );
#292 = EDGE_CURVE ( 'NONE', #290, #6, #123, .T. ) ;
#293 = AXIS2_PLACEMENT_3D ( 'NONE', #28, #269, #220 ) ;
#294 = ADVANCED_FACE ( 'NONE', ( #300 ), #81, .T. ) ;
#295 = DIRECTION ( 'NONE',  ( 0.000000000000000000, 0.000000000000000000, -1.000000000000000000 ) ) ;
#296 = CYLINDRICAL_SURFACE ( 'NONE', #48, 0.09375000000000004163 ) ;
#297 = AXIS2_PLACEMENT_3D ( 'NONE', #41, #80, #85 ) ;
#298 = MECHANICAL_DESIGN_GEOMETRIC_PRESENTATION_REPRESENTATION (  '', ( #257 ), #53 ) ;
#299 = UNCERTAINTY_MEASURE_WITH_UNIT (LENGTH_MEASURE( 1.000000000000000082E-05 ), #250, 'distance_accuracy_value', 'NONE');
#300 = FACE_OUTER_BOUND ( 'NONE', #242, .T. ) ;
#301 = ADVANCED_FACE ( 'NONE', ( #29 ), #263, .T. ) ;
#302 = FILL_AREA_STYLE_COLOUR ( '', #2 ) ;
#303 = CARTESIAN_POINT ( 'NONE',  ( 0.000000000000000000, 1.000000000000000000, 0.000000000000000000 ) ) ;
#304 = ORIENTED_EDGE ( 'NONE', *, *, #276, .F. ) ;
#305 = SURFACE_STYLE_USAGE ( .BOTH. , #232 ) ;
#306 = CIRCLE ( 'NONE', #297, 0.09375000000000001388 ) ;
#307 = AXIS2_PLACEMENT_3D ( 'NONE', #93, #147, #50 ) ;
#308 = APPLICATION_CONTEXT ( 'automotive_design' ) ;
#309 = DIMENSIONAL_EXPONENTS ( 1.000000000000000000, 0.000000000000000000, 0.000000000000000000, 0.000000000000000000, 0.000000000000000000, 0.000000000000000000, 0.000000000000000000 ) ;
ENDSEC;
END-ISO-10303-21;
