ISO-10303-21;
HEADER;
FILE_DESCRIPTION (( 'STEP AP214' ),
    '1' );
FILE_NAME ('83275.STEP',
    '2023-06-30T22:50:38',
    ( '' ),
    ( '' ),
    'SwSTEP 2.0',
    'SolidWorks 2023',
    '' );
FILE_SCHEMA (( 'AUTOMOTIVE_DESIGN' ));
ENDSEC;

DATA;
#1 = DIMENSIONAL_EXPONENTS ( 1.000000000000000000, 0.000000000000000000, 0.000000000000000000, 0.000000000000000000, 0.000000000000000000, 0.000000000000000000, 0.000000000000000000 ) ;
#2 = SURFACE_STYLE_USAGE ( .BOTH. , #114 ) ;
#3 = UNCERTAINTY_MEASURE_WITH_UNIT (LENGTH_MEASURE( 1.000000000000000082E-05 ), #265, 'distance_accuracy_value', 'NONE');
#4 = SURFACE_STYLE_USAGE ( .BOTH. , #258 ) ;
#5 = ADVANCED_FACE ( 'NONE', ( #96 ), #24, .T. ) ;
#6 =( GEOMETRIC_REPRESENTATION_CONTEXT ( 3 ) GLOBAL_UNCERTAINTY_ASSIGNED_CONTEXT ( ( #228 ) ) GLOBAL_UNIT_ASSIGNED_CONTEXT ( ( #92, #146, #341 ) ) REPRESENTATION_CONTEXT ( 'NONE', 'WORKASPACE' ) );
#7 = CIRCLE ( 'NONE', #54, 0.06250000000000005551 ) ;
#8 = LENGTH_MEASURE_WITH_UNIT ( LENGTH_MEASURE( 0.02539999999999999897 ), #148 );
#9 = DIRECTION ( 'NONE',  ( -1.097423995467271145E-16, 1.000000000000000000, -0.000000000000000000 ) ) ;
#10 = CLOSED_SHELL ( 'NONE', ( #261, #304, #328, #334 ) ) ;
#11 = EDGE_LOOP ( 'NONE', ( #126, #103 ) ) ;
#12 = STYLED_ITEM ( 'NONE', ( #284 ), #131 ) ;
#13 = ORIENTED_EDGE ( 'NONE', *, *, #207, .F. ) ;
#14 =( NAMED_UNIT ( * ) PLANE_ANGLE_UNIT ( ) SI_UNIT ( $, .RADIAN. ) );
#15 = APPLICATION_CONTEXT ( 'automotive_design' ) ;
#16 = ORIENTED_EDGE ( 'NONE', *, *, #171, .F. ) ;
#17 = CIRCLE ( 'NONE', #166, 0.06250000000000005551 ) ;
#18 = CIRCLE ( 'NONE', #225, 0.06249999999999955591 ) ;
#19 = DIRECTION ( 'NONE',  ( 0.000000000000000000, 0.000000000000000000, -1.000000000000000000 ) ) ;
#20 = ORIENTED_EDGE ( 'NONE', *, *, #199, .T. ) ;
#21 = DIRECTION ( 'NONE',  ( -0.000000000000000000, -1.000000000000000000, -0.000000000000000000 ) ) ;
#22 = EDGE_CURVE ( 'NONE', #295, #189, #316, .T. ) ;
#23 = CARTESIAN_POINT ( 'NONE',  ( 0.06249999999999991673, 1.499999999999999778, 7.654042494670894374E-18 ) ) ;
#24 = SPHERICAL_SURFACE ( 'NONE', #351, 0.06250000000000002776 ) ;
#25 = PRESENTATION_LAYER_ASSIGNMENT (  '', '', ( #201 ) ) ;
#26 = AXIS2_PLACEMENT_3D ( 'NONE', #337, #303, #253 ) ;
#27 = DIRECTION ( 'NONE',  ( -0.000000000000000000, -1.000000000000000000, -0.000000000000000000 ) ) ;
#28 =( NAMED_UNIT ( * ) SI_UNIT ( $, .STERADIAN. ) SOLID_ANGLE_UNIT ( ) );
#29 =( CONVERSION_BASED_UNIT ( 'INCH', #105 ) LENGTH_UNIT ( ) NAMED_UNIT ( #306 ) );
#30 = CARTESIAN_POINT ( 'NONE',  ( 0.000000000000000000, 0.2500000000000000555, 0.000000000000000000 ) ) ;
#31 = EDGE_CURVE ( 'NONE', #292, #295, #17, .T. ) ;
#32 = DIRECTION ( 'NONE',  ( -0.000000000000000000, -1.000000000000000000, -0.000000000000000000 ) ) ;
#33 = UNCERTAINTY_MEASURE_WITH_UNIT (LENGTH_MEASURE( 1.000000000000000082E-05 ), #273, 'distance_accuracy_value', 'NONE');
#34 = DIMENSIONAL_EXPONENTS ( 1.000000000000000000, 0.000000000000000000, 0.000000000000000000, 0.000000000000000000, 0.000000000000000000, 0.000000000000000000, 0.000000000000000000 ) ;
#35 = AXIS2_PLACEMENT_3D ( 'NONE', #93, #309, #231 ) ;
#36 = DIRECTION ( 'NONE',  ( 0.000000000000000000, 1.000000000000000000, 0.000000000000000000 ) ) ;
#37 = APPLICATION_PROTOCOL_DEFINITION ( 'draft international standard', 'automotive_design', 1998, #15 ) ;
#38 =( CONVERSION_BASED_UNIT ( 'INCH', #227 ) LENGTH_UNIT ( ) NAMED_UNIT ( #252 ) );
#39 = CARTESIAN_POINT ( 'NONE',  ( 5.658043791349825064E-16, 0.2500000000000000555, 0.000000000000000000 ) ) ;
#40 = PRODUCT_DEFINITION_SHAPE ( 'NONE', 'NONE',  #70 ) ;
#41 = MECHANICAL_DESIGN_GEOMETRIC_PRESENTATION_REPRESENTATION (  '', ( #12 ), #75 ) ;
#42 = AXIS2_PLACEMENT_3D ( 'NONE', #190, #21, #222 ) ;
#43 = CARTESIAN_POINT ( 'NONE',  ( 0.000000000000000000, 0.2500000000000000555, 0.000000000000000000 ) ) ;
#44 = DIRECTION ( 'NONE',  ( 1.000000000000000000, 0.000000000000000000, -1.224646799147353207E-16 ) ) ;
#45 = ORIENTED_EDGE ( 'NONE', *, *, #149, .T. ) ;
#46 = PRESENTATION_STYLE_ASSIGNMENT (( #154 ) ) ;
#47 = PRESENTATION_LAYER_ASSIGNMENT (  '', '', ( #12 ) ) ;
#48 = VERTEX_POINT ( 'NONE', #330 ) ;
#49 = SURFACE_SIDE_STYLE ('',( #180 ) ) ;
#50 = ORIENTED_EDGE ( 'NONE', *, *, #61, .T. ) ;
#51 = ORIENTED_EDGE ( 'NONE', *, *, #171, .T. ) ;
#52 = LENGTH_MEASURE_WITH_UNIT ( LENGTH_MEASURE( 0.02539999999999999897 ), #352 );
#53 = SURFACE_STYLE_FILL_AREA ( #244 ) ;
#54 = AXIS2_PLACEMENT_3D ( 'NONE', #111, #245, #299 ) ;
#55 = SURFACE_STYLE_FILL_AREA ( #198 ) ;
#56 = FACE_OUTER_BOUND ( 'NONE', #11, .T. ) ;
#57 = CARTESIAN_POINT ( 'NONE',  ( 0.000000000000000000, 0.06250000000000005551, -0.06250000000000005551 ) ) ;
#58 = DIRECTION ( 'NONE',  ( -0.000000000000000000, -1.000000000000000000, -0.000000000000000000 ) ) ;
#59 = AXIS2_PLACEMENT_3D ( 'NONE', #158, #270, #369 ) ;
#60 = CYLINDRICAL_SURFACE ( 'NONE', #35, 0.06250000000000001388 ) ;
#61 = EDGE_CURVE ( 'NONE', #150, #189, #163, .T. ) ;
#62 =( NAMED_UNIT ( * ) PLANE_ANGLE_UNIT ( ) SI_UNIT ( $, .RADIAN. ) );
#63 =( GEOMETRIC_REPRESENTATION_CONTEXT ( 3 ) GLOBAL_UNCERTAINTY_ASSIGNED_CONTEXT ( ( #172 ) ) GLOBAL_UNIT_ASSIGNED_CONTEXT ( ( #106, #62, #28 ) ) REPRESENTATION_CONTEXT ( 'NONE', 'WORKASPACE' ) );
#64 = EDGE_CURVE ( 'NONE', #325, #150, #289, .T. ) ;
#65 = PRESENTATION_LAYER_ASSIGNMENT (  '', '', ( #368 ) ) ;
#66 = DIRECTION ( 'NONE',  ( 0.000000000000000000, -0.000000000000000000, 1.000000000000000000 ) ) ;
#67 = UNCERTAINTY_MEASURE_WITH_UNIT (LENGTH_MEASURE( 1.000000000000000082E-05 ), #91, 'distance_accuracy_value', 'NONE');
#68 = SURFACE_SIDE_STYLE ('',( #206 ) ) ;
#69 = PLANE ( 'NONE',  #213 ) ;
#70 = PRODUCT_DEFINITION ( 'UNKNOWN', '', #359, #287 ) ;
#71 = SURFACE_SIDE_STYLE ('',( #318 ) ) ;
#72 = EDGE_LOOP ( 'NONE', ( #234, #101, #20, #13, #263 ) ) ;
#73 = ORIENTED_EDGE ( 'NONE', *, *, #31, .T. ) ;
#74 =( NAMED_UNIT ( * ) PLANE_ANGLE_UNIT ( ) SI_UNIT ( $, .RADIAN. ) );
#75 =( GEOMETRIC_REPRESENTATION_CONTEXT ( 3 ) GLOBAL_UNCERTAINTY_ASSIGNED_CONTEXT ( ( #257 ) ) GLOBAL_UNIT_ASSIGNED_CONTEXT ( ( #38, #173, #314 ) ) REPRESENTATION_CONTEXT ( 'NONE', 'WORKASPACE' ) );
#76 = ORIENTED_EDGE ( 'NONE', *, *, #187, .F. ) ;
#77 =( GEOMETRIC_REPRESENTATION_CONTEXT ( 3 ) GLOBAL_UNCERTAINTY_ASSIGNED_CONTEXT ( ( #67 ) ) GLOBAL_UNIT_ASSIGNED_CONTEXT ( ( #91, #343, #90 ) ) REPRESENTATION_CONTEXT ( 'NONE', 'WORKASPACE' ) );
#78 =( LENGTH_UNIT ( ) NAMED_UNIT ( * ) SI_UNIT ( $, .METRE. ) );
#79 = ORIENTED_EDGE ( 'NONE', *, *, #64, .T. ) ;
#80 = FILL_AREA_STYLE_COLOUR ( '', #324 ) ;
#81 = EDGE_LOOP ( 'NONE', ( #79, #50, #128, #217, #271 ) ) ;
#82 = FACE_OUTER_BOUND ( 'NONE', #319, .T. ) ;
#83 =( NAMED_UNIT ( * ) SI_UNIT ( $, .STERADIAN. ) SOLID_ANGLE_UNIT ( ) );
#84 = AXIS2_PLACEMENT_3D ( 'NONE', #144, #200, #177 ) ;
#85 = CARTESIAN_POINT ( 'NONE',  ( 4.286263797015736102E-16, 1.499999999999999778, 0.000000000000000000 ) ) ;
#86 = CARTESIAN_POINT ( 'NONE',  ( 0.06249999999999997918, 1.499999999999999778, 0.000000000000000000 ) ) ;
#87 = CARTESIAN_POINT ( 'NONE',  ( -7.654042494670957545E-18, 0.06250000000000001388, 0.000000000000000000 ) ) ;
#88 = DIMENSIONAL_EXPONENTS ( 1.000000000000000000, 0.000000000000000000, 0.000000000000000000, 0.000000000000000000, 0.000000000000000000, 0.000000000000000000, 0.000000000000000000 ) ;
#89 = AXIS2_PLACEMENT_3D ( 'NONE', #162, #277, #19 ) ;
#90 =( NAMED_UNIT ( * ) SI_UNIT ( $, .STERADIAN. ) SOLID_ANGLE_UNIT ( ) );
#91 =( CONVERSION_BASED_UNIT ( 'INCH', #283 ) LENGTH_UNIT ( ) NAMED_UNIT ( #135 ) );
#92 =( CONVERSION_BASED_UNIT ( 'INCH', #8 ) LENGTH_UNIT ( ) NAMED_UNIT ( #1 ) );
#93 = CARTESIAN_POINT ( 'NONE',  ( 0.000000000000000000, 0.000000000000000000, 0.000000000000000000 ) ) ;
#94 = ADVANCED_FACE ( 'NONE', ( #140 ), #192, .T. ) ;
#95 = PRESENTATION_LAYER_ASSIGNMENT (  '', '', ( #312 ) ) ;
#96 = FACE_OUTER_BOUND ( 'NONE', #269, .T. ) ;
#97 = DIRECTION ( 'NONE',  ( -1.000000000000000000, 0.000000000000000000, 0.000000000000000000 ) ) ;
#98 = ORIENTED_EDGE ( 'NONE', *, *, #291, .F. ) ;
#99 = SURFACE_STYLE_USAGE ( .BOTH. , #71 ) ;
#100 = AXIS2_PLACEMENT_3D ( 'NONE', #30, #32, #112 ) ;
#101 = ORIENTED_EDGE ( 'NONE', *, *, #267, .T. ) ;
#102 = CIRCLE ( 'NONE', #42, 0.06250000000000005551 ) ;
#103 = ORIENTED_EDGE ( 'NONE', *, *, #315, .F. ) ;
#104 = FACE_OUTER_BOUND ( 'NONE', #212, .T. ) ;
#105 = LENGTH_MEASURE_WITH_UNIT ( LENGTH_MEASURE( 0.02539999999999999897 ), #78 );
#106 =( CONVERSION_BASED_UNIT ( 'INCH', #370 ) LENGTH_UNIT ( ) NAMED_UNIT ( #88 ) );
#107 = VECTOR ( 'NONE', #254, 39.37007874015748143 ) ;
#108 = COLOUR_RGB ( '',1.000000000000000000, 0.000000000000000000, 0.000000000000000000 ) ;
#109 = DIRECTION ( 'NONE',  ( -1.097423995467271022E-16, 1.000000000000000000, -0.000000000000000000 ) ) ;
#110 = PRESENTATION_STYLE_ASSIGNMENT (( #373 ) ) ;
#111 = CARTESIAN_POINT ( 'NONE',  ( 0.000000000000000000, 0.06250000000000005551, 0.000000000000000000 ) ) ;
#112 = DIRECTION ( 'NONE',  ( 0.000000000000000000, 0.000000000000000000, -1.000000000000000000 ) ) ;
#113 = MECHANICAL_DESIGN_GEOMETRIC_PRESENTATION_REPRESENTATION (  '', ( #232 ), #63 ) ;
#114 = SURFACE_SIDE_STYLE ('',( #117 ) ) ;
#115 = DIMENSIONAL_EXPONENTS ( 1.000000000000000000, 0.000000000000000000, 0.000000000000000000, 0.000000000000000000, 0.000000000000000000, 0.000000000000000000, 0.000000000000000000 ) ;
#116 = CARTESIAN_POINT ( 'NONE',  ( -3.827021247335477232E-18, -1.707404996040164512E-17, 0.000000000000000000 ) ) ;
#117 = SURFACE_STYLE_FILL_AREA ( #175 ) ;
#118 =( GEOMETRIC_REPRESENTATION_CONTEXT ( 3 ) GLOBAL_UNCERTAINTY_ASSIGNED_CONTEXT ( ( #145 ) ) GLOBAL_UNIT_ASSIGNED_CONTEXT ( ( #123, #74, #326 ) ) REPRESENTATION_CONTEXT ( 'NONE', 'WORKASPACE' ) );
#119 = FILL_AREA_STYLE_COLOUR ( '', #174 ) ;
#120 = PRODUCT ( '83275', '83275', '', ( #204 ) ) ;
#121 = LINE ( 'NONE', #211, #197 ) ;
#122 = PRESENTATION_LAYER_ASSIGNMENT (  '', '', ( #191 ) ) ;
#123 =( CONVERSION_BASED_UNIT ( 'INCH', #360 ) LENGTH_UNIT ( ) NAMED_UNIT ( #34 ) );
#124 = EDGE_LOOP ( 'NONE', ( #156, #266 ) ) ;
#125 = ADVANCED_FACE ( 'NONE', ( #251 ), #60, .T. ) ;
#126 = ORIENTED_EDGE ( 'NONE', *, *, #157, .F. ) ;
#127 = CYLINDRICAL_SURFACE ( 'NONE', #89, 0.06250000000000001388 ) ;
#128 = ORIENTED_EDGE ( 'NONE', *, *, #22, .F. ) ;
#129 = AXIS2_PLACEMENT_3D ( 'NONE', #161, #143, #300 ) ;
#130 = ORIENTED_EDGE ( 'NONE', *, *, #22, .T. ) ;
#131 = ADVANCED_FACE ( 'NONE', ( #179 ), #69, .T. ) ;
#132 = SURFACE_STYLE_USAGE ( .BOTH. , #297 ) ;
#133 = DIRECTION ( 'NONE',  ( -1.000000000000000000, 0.000000000000000000, 0.000000000000000000 ) ) ;
#134 = DIRECTION ( 'NONE',  ( -0.000000000000000000, -1.000000000000000000, -0.000000000000000000 ) ) ;
#135 = DIMENSIONAL_EXPONENTS ( 1.000000000000000000, 0.000000000000000000, 0.000000000000000000, 0.000000000000000000, 0.000000000000000000, 0.000000000000000000, 0.000000000000000000 ) ;
#136 = CARTESIAN_POINT ( 'NONE',  ( 4.286263797015736102E-16, 1.499999999999999778, 0.000000000000000000 ) ) ;
#137 = SURFACE_STYLE_FILL_AREA ( #278 ) ;
#138 = CIRCLE ( 'NONE', #26, 0.06249999999999941713 ) ;
#139 = CARTESIAN_POINT ( 'NONE',  ( 5.658043791349825064E-16, 0.2500000000000000555, 0.000000000000000000 ) ) ;
#140 = FACE_OUTER_BOUND ( 'NONE', #159, .T. ) ;
#141 = CYLINDRICAL_SURFACE ( 'NONE', #203, 0.06249999999999948652 ) ;
#142 = PRODUCT_RELATED_PRODUCT_CATEGORY ( 'part', '', ( #120 ) ) ;
#143 = DIRECTION ( 'NONE',  ( 0.000000000000000000, 0.000000000000000000, 1.000000000000000000 ) ) ;
#144 = CARTESIAN_POINT ( 'NONE',  ( -7.654042494670957545E-18, 0.06250000000000001388, 0.000000000000000000 ) ) ;
#145 = UNCERTAINTY_MEASURE_WITH_UNIT (LENGTH_MEASURE( 1.000000000000000082E-05 ), #123, 'distance_accuracy_value', 'NONE');
#146 =( NAMED_UNIT ( * ) PLANE_ANGLE_UNIT ( ) SI_UNIT ( $, .RADIAN. ) );
#147 = DIRECTION ( 'NONE',  ( -1.097423995467271022E-16, 1.000000000000000000, -0.000000000000000000 ) ) ;
#148 =( LENGTH_UNIT ( ) NAMED_UNIT ( * ) SI_UNIT ( $, .METRE. ) );
#149 = EDGE_CURVE ( 'NONE', #295, #153, #311, .T. ) ;
#150 = VERTEX_POINT ( 'NONE', #286 ) ;
#151 = CIRCLE ( 'NONE', #298, 0.06249999999999941713 ) ;
#152 = CIRCLE ( 'NONE', #249, 0.06250000000000002776 ) ;
#153 = VERTEX_POINT ( 'NONE', #116 ) ;
#154 = SURFACE_STYLE_USAGE ( .BOTH. , #49 ) ;
#155 = ORIENTED_EDGE ( 'NONE', *, *, #255, .T. ) ;
#156 = ORIENTED_EDGE ( 'NONE', *, *, #64, .F. ) ;
#157 = EDGE_CURVE ( 'NONE', #238, #186, #151, .T. ) ;
#158 = CARTESIAN_POINT ( 'NONE',  ( 4.286263797015736102E-16, 1.499999999999999778, 0.000000000000000000 ) ) ;
#159 = EDGE_LOOP ( 'NONE', ( #155, #51, #242, #130 ) ) ;
#160 =( NAMED_UNIT ( * ) PLANE_ANGLE_UNIT ( ) SI_UNIT ( $, .RADIAN. ) );
#161 = CARTESIAN_POINT ( 'NONE',  ( -7.654042494670957545E-18, 0.06250000000000001388, 0.000000000000000000 ) ) ;
#162 = CARTESIAN_POINT ( 'NONE',  ( 0.000000000000000000, 0.000000000000000000, 0.000000000000000000 ) ) ;
#163 = LINE ( 'NONE', #333, #107 ) ;
#164 = FACE_OUTER_BOUND ( 'NONE', #353, .T. ) ;
#165 = LENGTH_MEASURE_WITH_UNIT ( LENGTH_MEASURE( 0.02539999999999999897 ), #169 );
#166 = AXIS2_PLACEMENT_3D ( 'NONE', #340, #58, #305 ) ;
#167 = MECHANICAL_DESIGN_GEOMETRIC_PRESENTATION_REPRESENTATION (  '', ( #312 ), #221 ) ;
#168 = MANIFOLD_SOLID_BREP ( 'Revolve - Tool Body (Straight Shanked)', #10 ) ;
#169 =( LENGTH_UNIT ( ) NAMED_UNIT ( * ) SI_UNIT ( $, .METRE. ) );
#170 = MANIFOLD_SOLID_BREP ( 'Revolve - Cutting Edge', #239 ) ;
#171 = EDGE_CURVE ( 'NONE', #357, #153, #152, .T. ) ;
#172 = UNCERTAINTY_MEASURE_WITH_UNIT (LENGTH_MEASURE( 1.000000000000000082E-05 ), #106, 'distance_accuracy_value', 'NONE');
#173 =( NAMED_UNIT ( * ) PLANE_ANGLE_UNIT ( ) SI_UNIT ( $, .RADIAN. ) );
#174 = COLOUR_RGB ( '',1.000000000000000000, 0.000000000000000000, 0.000000000000000000 ) ;
#175 = FILL_AREA_STYLE ('',( #119 ) ) ;
#176 = APPLICATION_PROTOCOL_DEFINITION ( 'draft international standard', 'automotive_design', 1998, #342 ) ;
#177 = DIRECTION ( 'NONE',  ( -1.000000000000000000, 0.000000000000000000, 0.000000000000000000 ) ) ;
#178 = EDGE_CURVE ( 'NONE', #48, #210, #18, .T. ) ;
#179 = FACE_OUTER_BOUND ( 'NONE', #124, .T. ) ;
#180 = SURFACE_STYLE_FILL_AREA ( #233 ) ;
#181 =( LENGTH_UNIT ( ) NAMED_UNIT ( * ) SI_UNIT ( $, .METRE. ) );
#182 = ORIENTED_EDGE ( 'NONE', *, *, #207, .T. ) ;
#183 = PRESENTATION_LAYER_ASSIGNMENT (  '', '', ( #196 ) ) ;
#184 = DIRECTION ( 'NONE',  ( -0.000000000000000000, -1.000000000000000000, -0.000000000000000000 ) ) ;
#185 = ORIENTED_EDGE ( 'NONE', *, *, #187, .T. ) ;
#186 = VERTEX_POINT ( 'NONE', #209 ) ;
#187 = EDGE_CURVE ( 'NONE', #238, #210, #262, .T. ) ;
#188 = DIRECTION ( 'NONE',  ( 1.224646799147353207E-16, -0.000000000000000000, 1.000000000000000000 ) ) ;
#189 = VERTEX_POINT ( 'NONE', #322 ) ;
#190 = CARTESIAN_POINT ( 'NONE',  ( 0.000000000000000000, 0.06250000000000005551, 0.000000000000000000 ) ) ;
#191 = STYLED_ITEM ( 'NONE', ( #260 ), #168 ) ;
#192 = SPHERICAL_SURFACE ( 'NONE', #129, 0.06250000000000002776 ) ;
#193 = DIRECTION ( 'NONE',  ( -1.000000000000000000, 0.000000000000000000, 0.000000000000000000 ) ) ;
#194 = DIRECTION ( 'NONE',  ( 0.000000000000000000, 0.000000000000000000, -1.000000000000000000 ) ) ;
#195 =( LENGTH_UNIT ( ) NAMED_UNIT ( * ) SI_UNIT ( $, .METRE. ) );
#196 = STYLED_ITEM ( 'NONE', ( #110 ), #94 ) ;
#197 = VECTOR ( 'NONE', #184, 39.37007874015748143 ) ;
#198 = FILL_AREA_STYLE ('',( #224 ) ) ;
#199 = EDGE_CURVE ( 'NONE', #325, #292, #121, .T. ) ;
#200 = DIRECTION ( 'NONE',  ( 0.000000000000000000, 0.000000000000000000, -1.000000000000000000 ) ) ;
#201 = STYLED_ITEM ( 'NONE', ( #280 ), #125 ) ;
#202 = AXIS2_PLACEMENT_3D ( 'NONE', #136, #219, #133 ) ;
#203 = AXIS2_PLACEMENT_3D ( 'NONE', #85, #109, #193 ) ;
#204 = PRODUCT_CONTEXT ( 'NONE', #342, 'mechanical' ) ;
#205 = ADVANCED_FACE ( 'NONE', ( #293 ), #127, .T. ) ;
#206 = SURFACE_STYLE_FILL_AREA ( #348 ) ;
#207 = EDGE_CURVE ( 'NONE', #357, #292, #102, .T. ) ;
#208 = COLOUR_RGB ( '',1.000000000000000000, 0.000000000000000000, 0.000000000000000000 ) ;
#209 = CARTESIAN_POINT ( 'NONE',  ( 0.06249999999999997224, 0.2500000000000000555, 7.654042494670898997E-18 ) ) ;
#210 = VERTEX_POINT ( 'NONE', #301 ) ;
#211 = CARTESIAN_POINT ( 'NONE',  ( 0.000000000000000000, 0.000000000000000000, -0.06250000000000001388 ) ) ;
#212 = EDGE_LOOP ( 'NONE', ( #321, #355, #98, #76 ) ) ;
#213 = AXIS2_PLACEMENT_3D ( 'NONE', #43, #36, #66 ) ;
#214 = AXIS2_PLACEMENT_3D ( 'NONE', #139, #362, #272 ) ;
#215 = PRESENTATION_STYLE_ASSIGNMENT (( #99 ) ) ;
#216 = ORIENTED_EDGE ( 'NONE', *, *, #178, .F. ) ;
#217 = ORIENTED_EDGE ( 'NONE', *, *, #31, .F. ) ;
#218 = DIRECTION ( 'NONE',  ( 1.097423995467271145E-16, -1.000000000000000000, 0.000000000000000000 ) ) ;
#219 = DIRECTION ( 'NONE',  ( -1.097423995467271022E-16, 1.000000000000000000, -0.000000000000000000 ) ) ;
#220 = COLOUR_RGB ( '',1.000000000000000000, 0.000000000000000000, 0.000000000000000000 ) ;
#221 =( GEOMETRIC_REPRESENTATION_CONTEXT ( 3 ) GLOBAL_UNCERTAINTY_ASSIGNED_CONTEXT ( ( #347 ) ) GLOBAL_UNIT_ASSIGNED_CONTEXT ( ( #29, #160, #243 ) ) REPRESENTATION_CONTEXT ( 'NONE', 'WORKASPACE' ) );
#222 = DIRECTION ( 'NONE',  ( 0.000000000000000000, 0.000000000000000000, -1.000000000000000000 ) ) ;
#223 = CARTESIAN_POINT ( 'NONE',  ( 0.06250000000000002776, 0.06250000000000005551, 0.000000000000000000 ) ) ;
#224 = FILL_AREA_STYLE_COLOUR ( '', #208 ) ;
#225 = AXIS2_PLACEMENT_3D ( 'NONE', #241, #296, #97 ) ;
#226 = DIRECTION ( 'NONE',  ( 1.000000000000000000, 0.000000000000000000, 0.000000000000000000 ) ) ;
#227 = LENGTH_MEASURE_WITH_UNIT ( LENGTH_MEASURE( 0.02539999999999999897 ), #349 );
#228 = UNCERTAINTY_MEASURE_WITH_UNIT (LENGTH_MEASURE( 1.000000000000000082E-05 ), #92, 'distance_accuracy_value', 'NONE');
#229 = AXIS2_PLACEMENT_3D ( 'NONE', #86, #218, #371 ) ;
#230 = FILL_AREA_STYLE_COLOUR ( '', #281 ) ;
#231 = DIRECTION ( 'NONE',  ( 0.000000000000000000, 0.000000000000000000, -1.000000000000000000 ) ) ;
#232 = STYLED_ITEM ( 'NONE', ( #363 ), #5 ) ;
#233 = FILL_AREA_STYLE ('',( #80 ) ) ;
#234 = ORIENTED_EDGE ( 'NONE', *, *, #61, .F. ) ;
#235 = ADVANCED_BREP_SHAPE_REPRESENTATION ( '83275', ( #170, #168, #275 ), #77 ) ;
#236 = ORIENTED_EDGE ( 'NONE', *, *, #320, .F. ) ;
#237 = CARTESIAN_POINT ( 'NONE',  ( -0.06249999999999906325, 1.499999999999999778, 0.000000000000000000 ) ) ;
#238 = VERTEX_POINT ( 'NONE', #274 ) ;
#239 = CLOSED_SHELL ( 'NONE', ( #94, #205, #131, #125, #5 ) ) ;
#240 = VECTOR ( 'NONE', #9, 39.37007874015748143 ) ;
#241 = CARTESIAN_POINT ( 'NONE',  ( 4.286263797015736102E-16, 1.499999999999999778, 0.000000000000000000 ) ) ;
#242 = ORIENTED_EDGE ( 'NONE', *, *, #149, .F. ) ;
#243 =( NAMED_UNIT ( * ) SI_UNIT ( $, .STERADIAN. ) SOLID_ANGLE_UNIT ( ) );
#244 = FILL_AREA_STYLE ('',( #361 ) ) ;
#245 = DIRECTION ( 'NONE',  ( -0.000000000000000000, -1.000000000000000000, -0.000000000000000000 ) ) ;
#246 =( NAMED_UNIT ( * ) PLANE_ANGLE_UNIT ( ) SI_UNIT ( $, .RADIAN. ) );
#247 = AXIS2_PLACEMENT_3D ( 'NONE', #279, #134, #372 ) ;
#248 = CARTESIAN_POINT ( 'NONE',  ( 0.000000000000000000, 0.2500000000000000555, -0.06249999999999997918 ) ) ;
#249 = AXIS2_PLACEMENT_3D ( 'NONE', #268, #188, #44 ) ;
#250 = PLANE ( 'NONE',  #229 ) ;
#251 = FACE_OUTER_BOUND ( 'NONE', #72, .T. ) ;
#252 = DIMENSIONAL_EXPONENTS ( 1.000000000000000000, 0.000000000000000000, 0.000000000000000000, 0.000000000000000000, 0.000000000000000000, 0.000000000000000000, 0.000000000000000000 ) ;
#253 = DIRECTION ( 'NONE',  ( -1.000000000000000000, 0.000000000000000000, 0.000000000000000000 ) ) ;
#254 = DIRECTION ( 'NONE',  ( -0.000000000000000000, -1.000000000000000000, -0.000000000000000000 ) ) ;
#255 = EDGE_CURVE ( 'NONE', #189, #357, #7, .T. ) ;
#256 = CARTESIAN_POINT ( 'NONE',  ( 0.000000000000000000, 0.000000000000000000, 0.000000000000000000 ) ) ;
#257 = UNCERTAINTY_MEASURE_WITH_UNIT (LENGTH_MEASURE( 1.000000000000000082E-05 ), #38, 'distance_accuracy_value', 'NONE');
#258 = SURFACE_SIDE_STYLE ('',( #55 ) ) ;
#259 = MECHANICAL_DESIGN_GEOMETRIC_PRESENTATION_REPRESENTATION (  '', ( #196 ), #358 ) ;
#260 = PRESENTATION_STYLE_ASSIGNMENT (( #288 ) ) ;
#261 = ADVANCED_FACE ( 'NONE', ( #104 ), #141, .T. ) ;
#262 = LINE ( 'NONE', #237, #240 ) ;
#263 = ORIENTED_EDGE ( 'NONE', *, *, #255, .F. ) ;
#264 =( GEOMETRIC_REPRESENTATION_CONTEXT ( 3 ) GLOBAL_UNCERTAINTY_ASSIGNED_CONTEXT ( ( #3 ) ) GLOBAL_UNIT_ASSIGNED_CONTEXT ( ( #265, #14, #354 ) ) REPRESENTATION_CONTEXT ( 'NONE', 'WORKASPACE' ) );
#265 =( CONVERSION_BASED_UNIT ( 'INCH', #52 ) LENGTH_UNIT ( ) NAMED_UNIT ( #276 ) );
#266 = ORIENTED_EDGE ( 'NONE', *, *, #267, .F. ) ;
#267 = EDGE_CURVE ( 'NONE', #150, #325, #331, .T. ) ;
#268 = CARTESIAN_POINT ( 'NONE',  ( -7.654042494670957545E-18, 0.06250000000000001388, 0.000000000000000000 ) ) ;
#269 = EDGE_LOOP ( 'NONE', ( #16, #182, #73, #45 ) ) ;
#270 = DIRECTION ( 'NONE',  ( -1.097423995467271022E-16, 1.000000000000000000, -0.000000000000000000 ) ) ;
#271 = ORIENTED_EDGE ( 'NONE', *, *, #199, .F. ) ;
#272 = DIRECTION ( 'NONE',  ( -1.000000000000000000, -1.097423995467271145E-16, 0.000000000000000000 ) ) ;
#273 =( CONVERSION_BASED_UNIT ( 'INCH', #165 ) LENGTH_UNIT ( ) NAMED_UNIT ( #115 ) );
#274 = CARTESIAN_POINT ( 'NONE',  ( -0.06249999999999885508, 0.2500000000000000555, 0.000000000000000000 ) ) ;
#275 = AXIS2_PLACEMENT_3D ( 'NONE', #256, #313, #226 ) ;
#276 = DIMENSIONAL_EXPONENTS ( 1.000000000000000000, 0.000000000000000000, 0.000000000000000000, 0.000000000000000000, 0.000000000000000000, 0.000000000000000000, 0.000000000000000000 ) ;
#277 = DIRECTION ( 'NONE',  ( -0.000000000000000000, -1.000000000000000000, -0.000000000000000000 ) ) ;
#278 = FILL_AREA_STYLE ('',( #308 ) ) ;
#279 = CARTESIAN_POINT ( 'NONE',  ( 0.000000000000000000, 0.06250000000000005551, 0.000000000000000000 ) ) ;
#280 = PRESENTATION_STYLE_ASSIGNMENT (( #4 ) ) ;
#281 = COLOUR_RGB ( '',0.7921568627450980005, 0.8196078431372548767, 0.9333333333333333481 ) ;
#282 = MECHANICAL_DESIGN_GEOMETRIC_PRESENTATION_REPRESENTATION (  '', ( #368 ), #264 ) ;
#283 = LENGTH_MEASURE_WITH_UNIT ( LENGTH_MEASURE( 0.02539999999999999897 ), #195 );
#284 = PRESENTATION_STYLE_ASSIGNMENT (( #2 ) ) ;
#285 = SHAPE_DEFINITION_REPRESENTATION ( #40, #235 ) ;
#286 = CARTESIAN_POINT ( 'NONE',  ( 7.654042494670957545E-18, 0.2500000000000000555, 0.06249999999999997918 ) ) ;
#287 = PRODUCT_DEFINITION_CONTEXT ( 'detailed design', #15, 'design' ) ;
#288 = SURFACE_STYLE_USAGE ( .BOTH. , #68 ) ;
#289 = CIRCLE ( 'NONE', #100, 0.06249999999999997918 ) ;
#290 =( LENGTH_UNIT ( ) NAMED_UNIT ( * ) SI_UNIT ( $, .METRE. ) );
#291 = EDGE_CURVE ( 'NONE', #210, #48, #367, .T. ) ;
#292 = VERTEX_POINT ( 'NONE', #57 ) ;
#293 = FACE_OUTER_BOUND ( 'NONE', #81, .T. ) ;
#294 = ORIENTED_EDGE ( 'NONE', *, *, #291, .T. ) ;
#295 = VERTEX_POINT ( 'NONE', #223 ) ;
#296 = DIRECTION ( 'NONE',  ( -1.097423995467271022E-16, 1.000000000000000000, -0.000000000000000000 ) ) ;
#297 = SURFACE_SIDE_STYLE ('',( #53 ) ) ;
#298 = AXIS2_PLACEMENT_3D ( 'NONE', #39, #147, #344 ) ;
#299 = DIRECTION ( 'NONE',  ( 0.000000000000000000, 0.000000000000000000, -1.000000000000000000 ) ) ;
#300 = DIRECTION ( 'NONE',  ( 1.000000000000000000, 0.000000000000000000, 0.000000000000000000 ) ) ;
#301 = CARTESIAN_POINT ( 'NONE',  ( -0.06249999999999912570, 1.499999999999999778, 0.000000000000000000 ) ) ;
#302 = DIRECTION ( 'NONE',  ( 1.000000000000000000, 0.000000000000000000, 0.000000000000000000 ) ) ;
#303 = DIRECTION ( 'NONE',  ( -1.097423995467271022E-16, 1.000000000000000000, -0.000000000000000000 ) ) ;
#304 = ADVANCED_FACE ( 'NONE', ( #56 ), #332, .F. ) ;
#305 = DIRECTION ( 'NONE',  ( 0.000000000000000000, 0.000000000000000000, -1.000000000000000000 ) ) ;
#306 = DIMENSIONAL_EXPONENTS ( 1.000000000000000000, 0.000000000000000000, 0.000000000000000000, 0.000000000000000000, 0.000000000000000000, 0.000000000000000000, 0.000000000000000000 ) ;
#307 = LINE ( 'NONE', #23, #317 ) ;
#308 = FILL_AREA_STYLE_COLOUR ( '', #345 ) ;
#309 = DIRECTION ( 'NONE',  ( -0.000000000000000000, -1.000000000000000000, -0.000000000000000000 ) ) ;
#310 = MECHANICAL_DESIGN_GEOMETRIC_PRESENTATION_REPRESENTATION (  '', ( #191 ), #118 ) ;
#311 = CIRCLE ( 'NONE', #84, 0.06250000000000002776 ) ;
#312 = STYLED_ITEM ( 'NONE', ( #215 ), #205 ) ;
#313 = DIRECTION ( 'NONE',  ( 0.000000000000000000, 0.000000000000000000, 1.000000000000000000 ) ) ;
#314 =( NAMED_UNIT ( * ) SI_UNIT ( $, .STERADIAN. ) SOLID_ANGLE_UNIT ( ) );
#315 = EDGE_CURVE ( 'NONE', #186, #238, #138, .T. ) ;
#316 = CIRCLE ( 'NONE', #247, 0.06250000000000005551 ) ;
#317 = VECTOR ( 'NONE', #364, 39.37007874015748143 ) ;
#318 = SURFACE_STYLE_FILL_AREA ( #350 ) ;
#319 = EDGE_LOOP ( 'NONE', ( #294, #327 ) ) ;
#320 = EDGE_CURVE ( 'NONE', #186, #48, #307, .T. ) ;
#321 = ORIENTED_EDGE ( 'NONE', *, *, #157, .T. ) ;
#322 = CARTESIAN_POINT ( 'NONE',  ( 7.654042494670963708E-18, 0.06250000000000005551, 0.06250000000000004163 ) ) ;
#323 = ORIENTED_EDGE ( 'NONE', *, *, #315, .T. ) ;
#324 = COLOUR_RGB ( '',0.7921568627450980005, 0.8196078431372548767, 0.9333333333333333481 ) ;
#325 = VERTEX_POINT ( 'NONE', #248 ) ;
#326 =( NAMED_UNIT ( * ) SI_UNIT ( $, .STERADIAN. ) SOLID_ANGLE_UNIT ( ) );
#327 = ORIENTED_EDGE ( 'NONE', *, *, #178, .T. ) ;
#328 = ADVANCED_FACE ( 'NONE', ( #164 ), #339, .T. ) ;
#329 = CARTESIAN_POINT ( 'NONE',  ( -0.06250000000000005551, 0.06250000000000005551, 7.654042494670963708E-18 ) ) ;
#330 = CARTESIAN_POINT ( 'NONE',  ( 0.06249999999999997224, 1.499999999999999778, 7.654042494670898997E-18 ) ) ;
#331 = CIRCLE ( 'NONE', #346, 0.06249999999999997918 ) ;
#332 = PLANE ( 'NONE',  #214 ) ;
#333 = CARTESIAN_POINT ( 'NONE',  ( 7.654042494670959086E-18, 0.000000000000000000, 0.06250000000000001388 ) ) ;
#334 = ADVANCED_FACE ( 'NONE', ( #82 ), #250, .F. ) ;
#335 = CARTESIAN_POINT ( 'NONE',  ( 0.000000000000000000, 0.2500000000000000555, 0.000000000000000000 ) ) ;
#336 = DIRECTION ( 'NONE',  ( 0.000000000000000000, 0.000000000000000000, 1.000000000000000000 ) ) ;
#337 = CARTESIAN_POINT ( 'NONE',  ( 5.658043791349825064E-16, 0.2500000000000000555, 0.000000000000000000 ) ) ;
#338 = MECHANICAL_DESIGN_GEOMETRIC_PRESENTATION_REPRESENTATION (  '', ( #201 ), #6 ) ;
#339 = CYLINDRICAL_SURFACE ( 'NONE', #59, 0.06249999999999948652 ) ;
#340 = CARTESIAN_POINT ( 'NONE',  ( 0.000000000000000000, 0.06250000000000005551, 0.000000000000000000 ) ) ;
#341 =( NAMED_UNIT ( * ) SI_UNIT ( $, .STERADIAN. ) SOLID_ANGLE_UNIT ( ) );
#342 = APPLICATION_CONTEXT ( 'automotive_design' ) ;
#343 =( NAMED_UNIT ( * ) PLANE_ANGLE_UNIT ( ) SI_UNIT ( $, .RADIAN. ) );
#344 = DIRECTION ( 'NONE',  ( -1.000000000000000000, 0.000000000000000000, 0.000000000000000000 ) ) ;
#345 = COLOUR_RGB ( '',1.000000000000000000, 0.000000000000000000, 0.000000000000000000 ) ;
#346 = AXIS2_PLACEMENT_3D ( 'NONE', #335, #27, #194 ) ;
#347 = UNCERTAINTY_MEASURE_WITH_UNIT (LENGTH_MEASURE( 1.000000000000000082E-05 ), #29, 'distance_accuracy_value', 'NONE');
#348 = FILL_AREA_STYLE ('',( #230 ) ) ;
#349 =( LENGTH_UNIT ( ) NAMED_UNIT ( * ) SI_UNIT ( $, .METRE. ) );
#350 = FILL_AREA_STYLE ('',( #356 ) ) ;
#351 = AXIS2_PLACEMENT_3D ( 'NONE', #87, #336, #302 ) ;
#352 =( LENGTH_UNIT ( ) NAMED_UNIT ( * ) SI_UNIT ( $, .METRE. ) );
#353 = EDGE_LOOP ( 'NONE', ( #236, #323, #185, #216 ) ) ;
#354 =( NAMED_UNIT ( * ) SI_UNIT ( $, .STERADIAN. ) SOLID_ANGLE_UNIT ( ) );
#355 = ORIENTED_EDGE ( 'NONE', *, *, #320, .T. ) ;
#356 = FILL_AREA_STYLE_COLOUR ( '', #108 ) ;
#357 = VERTEX_POINT ( 'NONE', #329 ) ;
#358 =( GEOMETRIC_REPRESENTATION_CONTEXT ( 3 ) GLOBAL_UNCERTAINTY_ASSIGNED_CONTEXT ( ( #33 ) ) GLOBAL_UNIT_ASSIGNED_CONTEXT ( ( #273, #246, #83 ) ) REPRESENTATION_CONTEXT ( 'NONE', 'WORKASPACE' ) );
#359 = PRODUCT_DEFINITION_FORMATION_WITH_SPECIFIED_SOURCE ( 'ANY', '', #120, .NOT_KNOWN. ) ;
#360 = LENGTH_MEASURE_WITH_UNIT ( LENGTH_MEASURE( 0.02539999999999999897 ), #181 );
#361 = FILL_AREA_STYLE_COLOUR ( '', #220 ) ;
#362 = DIRECTION ( 'NONE',  ( -1.097423995467271145E-16, 1.000000000000000000, 0.000000000000000000 ) ) ;
#363 = PRESENTATION_STYLE_ASSIGNMENT (( #132 ) ) ;
#364 = DIRECTION ( 'NONE',  ( -1.097423995467271145E-16, 1.000000000000000000, -0.000000000000000000 ) ) ;
#365 = SURFACE_SIDE_STYLE ('',( #137 ) ) ;
#366 = PRESENTATION_LAYER_ASSIGNMENT (  '', '', ( #232 ) ) ;
#367 = CIRCLE ( 'NONE', #202, 0.06249999999999955591 ) ;
#368 = STYLED_ITEM ( 'NONE', ( #46 ), #170 ) ;
#369 = DIRECTION ( 'NONE',  ( -1.000000000000000000, 0.000000000000000000, 0.000000000000000000 ) ) ;
#370 = LENGTH_MEASURE_WITH_UNIT ( LENGTH_MEASURE( 0.02539999999999999897 ), #290 );
#371 = DIRECTION ( 'NONE',  ( 1.000000000000000000, 1.097423995467271145E-16, 0.000000000000000000 ) ) ;
#372 = DIRECTION ( 'NONE',  ( 0.000000000000000000, 0.000000000000000000, -1.000000000000000000 ) ) ;
#373 = SURFACE_STYLE_USAGE ( .BOTH. , #365 ) ;
ENDSEC;
END-ISO-10303-21;
