ISO-10303-21;
HEADER;
FILE_DESCRIPTION (( 'STEP AP214' ),
    '1' );
FILE_NAME ('Micro_BEM-218-02X.STEP',
    '2021-09-03T13:06:41',
    ( '' ),
    ( '' ),
    'SwSTEP 2.0',
    'SolidWorks 2020',
    '' );
FILE_SCHEMA (( 'AUTOMOTIVE_DESIGN' ));
ENDSEC;

DATA;
#1 = VERTEX_POINT ( 'NONE', #262 ) ;
#2 = DIRECTION ( 'NONE',  ( 1.000000000000000000, 0.0000000000000000000, 0.0000000000000000000 ) ) ;
#3 = CARTESIAN_POINT ( 'NONE',  ( 7.654042494670957853E-17, 0.0000000000000000000, 0.6250000000000000000 ) ) ;
#4 = CARTESIAN_POINT ( 'NONE',  ( 0.0000000000000000000, 0.0000000000000000000, 2.485000000000000320 ) ) ;
#5 = AXIS2_PLACEMENT_3D ( 'NONE', #142, #121, #104 ) ;
#6 = AXIS2_PLACEMENT_3D ( 'NONE', #199, #126, #54 ) ;
#7 = CARTESIAN_POINT ( 'NONE',  ( 0.0000000000000000000, 0.0000000000000000000, 2.500000000000000000 ) ) ;
#8 = LINE ( 'NONE', #302, #145 ) ;
#9 = ORIENTED_EDGE ( 'NONE', *, *, #222, .T. ) ;
#10 = LINE ( 'NONE', #63, #112 ) ;
#11 = CIRCLE ( 'NONE', #105, 0.1092406499999999947 ) ;
#12 = CARTESIAN_POINT ( 'NONE',  ( 0.0000000000000000000, 0.0000000000000000000, 2.500000000000000000 ) ) ;
#13 = CYLINDRICAL_SURFACE ( 'NONE', #258, 0.1250000000000000000 ) ;
#14 = ORIENTED_EDGE ( 'NONE', *, *, #122, .F. ) ;
#15 = CARTESIAN_POINT ( 'NONE',  ( 1.337812123592763100E-17, 0.0000000000000000000, 0.1092406499999999947 ) ) ;
#16 = EDGE_CURVE ( 'NONE', #95, #165, #196, .T. ) ;
#17 = EDGE_CURVE ( 'NONE', #253, #172, #287, .T. ) ;
#18 = DIRECTION ( 'NONE',  ( 0.0000000000000000000, 0.0000000000000000000, 1.000000000000000000 ) ) ;
#19 = MECHANICAL_DESIGN_GEOMETRIC_PRESENTATION_REPRESENTATION (  '', ( #81 ), #236 ) ;
#20 = DIRECTION ( 'NONE',  ( -1.000000000000000000, 0.0000000000000000000, 0.0000000000000000000 ) ) ;
#21 = CARTESIAN_POINT ( 'NONE',  ( 0.1100000000000001948, 1.347111479062090784E-17, 2.500000000000000000 ) ) ;
#22 = ADVANCED_FACE ( 'NONE', ( #26 ), #321, .T. ) ;
#23 = CIRCLE ( 'NONE', #185, 0.1092406499999999947 ) ;
#24 = DIRECTION ( 'NONE',  ( 1.000000000000000000, 0.0000000000000000000, 0.0000000000000000000 ) ) ;
#25 = CIRCLE ( 'NONE', #42, 0.1250000000000000000 ) ;
#26 = FACE_OUTER_BOUND ( 'NONE', #53, .T. ) ;
#27 = DIRECTION ( 'NONE',  ( 0.7071067811865499042, 8.659560562354961208E-17, -0.7071067811865451302 ) ) ;
#28 = DIRECTION ( 'NONE',  ( 1.000000000000000000, 0.0000000000000000000, 0.0000000000000000000 ) ) ;
#29 = AXIS2_PLACEMENT_3D ( 'NONE', #3, #277, #80 ) ;
#30 = ORIENTED_EDGE ( 'NONE', *, *, #278, .T. ) ;
#31 = CARTESIAN_POINT ( 'NONE',  ( 7.654042494670957853E-17, 0.0000000000000000000, 0.6250000000000000000 ) ) ;
#32 = EDGE_LOOP ( 'NONE', ( #14, #223, #148, #181 ) ) ;
#33 = DIRECTION ( 'NONE',  ( -0.0000000000000000000, -0.0000000000000000000, -1.000000000000000000 ) ) ;
#34 = CIRCLE ( 'NONE', #227, 0.1092406499999999947 ) ;
#35 = CARTESIAN_POINT ( 'NONE',  ( 0.1250000000000000833, 1.530808498934192433E-17, 0.7143757151439918962 ) ) ;
#36 = ORIENTED_EDGE ( 'NONE', *, *, #133, .F. ) ;
#37 = VERTEX_POINT ( 'NONE', #46 ) ;
#38 = CARTESIAN_POINT ( 'NONE',  ( 1.337812123592763100E-17, 0.0000000000000000000, 0.1092406499999999947 ) ) ;
#39 = CARTESIAN_POINT ( 'NONE',  ( 1.337812123592763100E-17, 0.0000000000000000000, 0.1092406499999999947 ) ) ;
#40 = ADVANCED_FACE ( 'NONE', ( #296 ), #70, .T. ) ;
#41 = ORIENTED_EDGE ( 'NONE', *, *, #107, .T. ) ;
#42 = AXIS2_PLACEMENT_3D ( 'NONE', #228, #201, #226 ) ;
#43 = CARTESIAN_POINT ( 'NONE',  ( 0.0000000000000000000, 0.0000000000000000000, 2.500000000000000000 ) ) ;
#44 =( NAMED_UNIT ( * ) SI_UNIT ( $, .STERADIAN. ) SOLID_ANGLE_UNIT ( ) );
#45 = ORIENTED_EDGE ( 'NONE', *, *, #268, .F. ) ;
#46 = CARTESIAN_POINT ( 'NONE',  ( -0.1249999999999999167, 0.0000000000000000000, 0.7143757151439918962 ) ) ;
#47 = CIRCLE ( 'NONE', #93, 0.1250000000000000000 ) ;
#48 = ORIENTED_EDGE ( 'NONE', *, *, #120, .F. ) ;
#49 = SHAPE_DEFINITION_REPRESENTATION ( #117, #102 ) ;
#50 = ORIENTED_EDGE ( 'NONE', *, *, #17, .F. ) ;
#51 =( NAMED_UNIT ( * ) PLANE_ANGLE_UNIT ( ) SI_UNIT ( $, .RADIAN. ) );
#52 = DIRECTION ( 'NONE',  ( 0.0000000000000000000, 0.0000000000000000000, 1.000000000000000000 ) ) ;
#53 = EDGE_LOOP ( 'NONE', ( #267, #261, #50 ) ) ;
#54 = DIRECTION ( 'NONE',  ( 1.000000000000000000, 0.0000000000000000000, -0.0000000000000000000 ) ) ;
#55 = DIRECTION ( 'NONE',  ( 0.0000000000000000000, 0.0000000000000000000, 1.000000000000000000 ) ) ;
#56 = EDGE_CURVE ( 'NONE', #310, #172, #23, .T. ) ;
#57 = FACE_OUTER_BOUND ( 'NONE', #97, .T. ) ;
#58 = MECHANICAL_DESIGN_GEOMETRIC_PRESENTATION_REPRESENTATION (  '', ( #73 ), #311 ) ;
#59 = CARTESIAN_POINT ( 'NONE',  ( 0.0000000000000000000, 0.0000000000000000000, 0.0000000000000000000 ) ) ;
#60 = DIRECTION ( 'NONE',  ( -1.000000000000000000, 0.0000000000000000000, 1.224646799147353207E-16 ) ) ;
#61 = CIRCLE ( 'NONE', #186, 0.1250000000000000000 ) ;
#62 = DIRECTION ( 'NONE',  ( -1.224646799147353207E-16, -0.0000000000000000000, -1.000000000000000000 ) ) ;
#63 = CARTESIAN_POINT ( 'NONE',  ( -0.1092406499999999947, 0.0000000000000000000, 1.337812123592763100E-17 ) ) ;
#64 = CARTESIAN_POINT ( 'NONE',  ( 8.748579329396911086E-17, 0.0000000000000000000, 0.7143757151439918962 ) ) ;
#65 = CONICAL_SURFACE ( 'NONE', #180, 0.1092406499999999947, 0.1745329251994338637 ) ;
#66 = LENGTH_MEASURE_WITH_UNIT ( LENGTH_MEASURE( 0.02539999999999999897 ), #167 );
#67 = VERTEX_POINT ( 'NONE', #221 ) ;
#68 = PRESENTATION_STYLE_ASSIGNMENT (( #295 ) ) ;
#69 = VERTEX_POINT ( 'NONE', #74 ) ;
#70 = CYLINDRICAL_SURFACE ( 'NONE', #5, 0.1092406499999999947 ) ;
#71 = ORIENTED_EDGE ( 'NONE', *, *, #190, .F. ) ;
#72 =( CONVERSION_BASED_UNIT ( 'INCH', #66 ) LENGTH_UNIT ( ) NAMED_UNIT ( #282 ) );
#73 = STYLED_ITEM ( 'NONE', ( #68 ), #85 ) ;
#74 = CARTESIAN_POINT ( 'NONE',  ( -0.1250000000000000000, 0.0000000000000000000, 2.485000000000000320 ) ) ;
#75 = AXIS2_PLACEMENT_3D ( 'NONE', #59, #92, #60 ) ;
#76 = EDGE_CURVE ( 'NONE', #37, #176, #47, .T. ) ;
#77 = CARTESIAN_POINT ( 'NONE',  ( -0.1092406499999999669, 0.0000000000000000000, 0.1092406500000000086 ) ) ;
#78 = CARTESIAN_POINT ( 'NONE',  ( 0.1092406500000000502, 0.0000000000000000000, 0.6250000000000000000 ) ) ;
#79 = ADVANCED_FACE ( 'NONE', ( #188 ), #118, .T. ) ;
#80 = DIRECTION ( 'NONE',  ( -1.000000000000000000, 0.0000000000000000000, 0.0000000000000000000 ) ) ;
#81 = STYLED_ITEM ( 'NONE', ( #290 ), #102 ) ;
#82 = ORIENTED_EDGE ( 'NONE', *, *, #161, .T. ) ;
#83 =( NAMED_UNIT ( * ) SI_UNIT ( $, .STERADIAN. ) SOLID_ANGLE_UNIT ( ) );
#84 = PRODUCT_RELATED_PRODUCT_CATEGORY ( 'part', '', ( #194 ) ) ;
#85 = MANIFOLD_SOLID_BREP ( 'Fillet1', #239 ) ;
#86 = FACE_OUTER_BOUND ( 'NONE', #182, .T. ) ;
#87 = DIRECTION ( 'NONE',  ( -0.0000000000000000000, -0.0000000000000000000, -1.000000000000000000 ) ) ;
#88 = CIRCLE ( 'NONE', #191, 0.1100000000000001948 ) ;
#89 = ORIENTED_EDGE ( 'NONE', *, *, #209, .T. ) ;
#90 = DIRECTION ( 'NONE',  ( -1.224646799147353207E-16, -0.0000000000000000000, -1.000000000000000000 ) ) ;
#91 =( LENGTH_UNIT ( ) NAMED_UNIT ( * ) SI_UNIT ( $, .METRE. ) );
#92 = DIRECTION ( 'NONE',  ( -1.224646799147353207E-16, -0.0000000000000000000, -1.000000000000000000 ) ) ;
#93 = AXIS2_PLACEMENT_3D ( 'NONE', #64, #260, #171 ) ;
#94 = CYLINDRICAL_SURFACE ( 'NONE', #75, 0.1092406499999999947 ) ;
#95 = VERTEX_POINT ( 'NONE', #307 ) ;
#96 = APPLICATION_CONTEXT ( 'automotive_design' ) ;
#97 = EDGE_LOOP ( 'NONE', ( #103, #163 ) ) ;
#98 =( GEOMETRIC_REPRESENTATION_CONTEXT ( 3 ) GLOBAL_UNCERTAINTY_ASSIGNED_CONTEXT ( ( #241 ) ) GLOBAL_UNIT_ASSIGNED_CONTEXT ( ( #286, #233, #288 ) ) REPRESENTATION_CONTEXT ( 'NONE', 'WORKASPACE' ) );
#99 = SURFACE_STYLE_FILL_AREA ( #215 ) ;
#100 = DIRECTION ( 'NONE',  ( 1.224646799147353207E-16, 0.0000000000000000000, 1.000000000000000000 ) ) ;
#101 = ADVANCED_FACE ( 'NONE', ( #57 ), #292, .T. ) ;
#102 = ADVANCED_BREP_SHAPE_REPRESENTATION ( 'Micro_BEM-218-02X', ( #85, #280 ), #98 ) ;
#103 = ORIENTED_EDGE ( 'NONE', *, *, #133, .T. ) ;
#104 = DIRECTION ( 'NONE',  ( -1.000000000000000000, 0.0000000000000000000, 1.224646799147353207E-16 ) ) ;
#105 = AXIS2_PLACEMENT_3D ( 'NONE', #38, #230, #231 ) ;
#106 = DIRECTION ( 'NONE',  ( 1.000000000000000000, 0.0000000000000000000, 0.0000000000000000000 ) ) ;
#107 = EDGE_CURVE ( 'NONE', #127, #1, #259, .T. ) ;
#108 = CARTESIAN_POINT ( 'NONE',  ( 0.0000000000000000000, 0.0000000000000000000, 2.500000000000000000 ) ) ;
#109 = DIRECTION ( 'NONE',  ( 0.1736481776669313581, 0.0000000000000000000, 0.9848077530122077983 ) ) ;
#110 = CARTESIAN_POINT ( 'NONE',  ( -0.1092406499999999253, 1.434310311263477304E-17, 0.6250000000000000000 ) ) ;
#111 = CARTESIAN_POINT ( 'NONE',  ( -0.1100000000000001948, 0.0000000000000000000, 2.500000000000000000 ) ) ;
#112 = VECTOR ( 'NONE', #90, 39.37007874015748143 ) ;
#113 = DIRECTION ( 'NONE',  ( 0.0000000000000000000, 0.0000000000000000000, -1.000000000000000000 ) ) ;
#114 = DIRECTION ( 'NONE',  ( -0.0000000000000000000, -0.0000000000000000000, -1.000000000000000000 ) ) ;
#115 = EDGE_LOOP ( 'NONE', ( #263, #294, #116, #71 ) ) ;
#116 = ORIENTED_EDGE ( 'NONE', *, *, #76, .T. ) ;
#117 = PRODUCT_DEFINITION_SHAPE ( 'NONE', 'NONE',  #220 ) ;
#118 = CYLINDRICAL_SURFACE ( 'NONE', #211, 0.1250000000000000000 ) ;
#119 = EDGE_LOOP ( 'NONE', ( #243, #312, #187, #45 ) ) ;
#120 = EDGE_CURVE ( 'NONE', #165, #69, #25, .T. ) ;
#121 = DIRECTION ( 'NONE',  ( -1.224646799147353207E-16, -0.0000000000000000000, -1.000000000000000000 ) ) ;
#122 = EDGE_CURVE ( 'NONE', #95, #67, #129, .T. ) ;
#123 = CARTESIAN_POINT ( 'NONE',  ( 1.337812123592763100E-17, 0.0000000000000000000, 0.1092406499999999947 ) ) ;
#124 = DIRECTION ( 'NONE',  ( 1.000000000000000000, 0.0000000000000000000, 0.0000000000000000000 ) ) ;
#125 = EDGE_LOOP ( 'NONE', ( #143, #36, #322, #48 ) ) ;
#126 = DIRECTION ( 'NONE',  ( 0.0000000000000000000, 0.0000000000000000000, 1.000000000000000000 ) ) ;
#127 = VERTEX_POINT ( 'NONE', #110 ) ;
#128 = DIRECTION ( 'NONE',  ( -1.224646799147353207E-16, -0.0000000000000000000, -1.000000000000000000 ) ) ;
#129 = CIRCLE ( 'NONE', #208, 0.1100000000000001948 ) ;
#130 = ORIENTED_EDGE ( 'NONE', *, *, #268, .T. ) ;
#131 = DIRECTION ( 'NONE',  ( 1.000000000000000000, 0.0000000000000000000, 0.0000000000000000000 ) ) ;
#132 = SPHERICAL_SURFACE ( 'NONE', #248, 0.1092406499999999947 ) ;
#133 = EDGE_CURVE ( 'NONE', #67, #95, #88, .T. ) ;
#134 = VECTOR ( 'NONE', #313, 39.37007874015748143 ) ;
#135 = DIRECTION ( 'NONE',  ( -1.000000000000000000, 0.0000000000000000000, 0.0000000000000000000 ) ) ;
#136 = CARTESIAN_POINT ( 'NONE',  ( 0.1092406500000000086, 1.337812123592763100E-17, 0.1092406499999999669 ) ) ;
#137 = PRODUCT_DEFINITION_CONTEXT ( 'detailed design', #203, 'design' ) ;
#138 = PRODUCT_DEFINITION_FORMATION_WITH_SPECIFIED_SOURCE ( 'ANY', '', #194, .NOT_KNOWN. ) ;
#139 = SURFACE_SIDE_STYLE ('',( #266 ) ) ;
#140 = ORIENTED_EDGE ( 'NONE', *, *, #285, .F. ) ;
#141 = FILL_AREA_STYLE_COLOUR ( '', #318 ) ;
#142 = CARTESIAN_POINT ( 'NONE',  ( 0.0000000000000000000, 0.0000000000000000000, 0.0000000000000000000 ) ) ;
#143 = ORIENTED_EDGE ( 'NONE', *, *, #16, .F. ) ;
#144 = AXIS2_PLACEMENT_3D ( 'NONE', #164, #100, #213 ) ;
#145 = VECTOR ( 'NONE', #114, 39.37007874015748143 ) ;
#146 = ORIENTED_EDGE ( 'NONE', *, *, #190, .T. ) ;
#147 =( NAMED_UNIT ( * ) PLANE_ANGLE_UNIT ( ) SI_UNIT ( $, .RADIAN. ) );
#148 = ORIENTED_EDGE ( 'NONE', *, *, #161, .F. ) ;
#149 = AXIS2_PLACEMENT_3D ( 'NONE', #31, #204, #306 ) ;
#150 = DIRECTION ( 'NONE',  ( 1.000000000000000000, 0.0000000000000000000, 0.0000000000000000000 ) ) ;
#151 = LINE ( 'NONE', #246, #245 ) ;
#152 = LINE ( 'NONE', #247, #319 ) ;
#153 = ADVANCED_FACE ( 'NONE', ( #225 ), #65, .T. ) ;
#154 = ORIENTED_EDGE ( 'NONE', *, *, #17, .T. ) ;
#155 = DIRECTION ( 'NONE',  ( -0.1736481776669311639, 2.126576849575783008E-17, 0.9848077530122080203 ) ) ;
#156 = DIMENSIONAL_EXPONENTS ( 1.000000000000000000, 0.0000000000000000000, 0.0000000000000000000, 0.0000000000000000000, 0.0000000000000000000, 0.0000000000000000000, 0.0000000000000000000 ) ;
#157 = DIRECTION ( 'NONE',  ( 0.0000000000000000000, 1.000000000000000000, 0.0000000000000000000 ) ) ;
#158 = LENGTH_MEASURE_WITH_UNIT ( LENGTH_MEASURE( 0.02539999999999999897 ), #91 );
#159 = CONICAL_SURFACE ( 'NONE', #212, 0.1100000000000001948, 0.7853981633974517207 ) ;
#160 = FACE_OUTER_BOUND ( 'NONE', #299, .T. ) ;
#161 = EDGE_CURVE ( 'NONE', #69, #165, #61, .T. ) ;
#162 = DIRECTION ( 'NONE',  ( 1.000000000000000000, 0.0000000000000000000, 0.0000000000000000000 ) ) ;
#163 = ORIENTED_EDGE ( 'NONE', *, *, #122, .T. ) ;
#164 = CARTESIAN_POINT ( 'NONE',  ( 1.337812123592763100E-17, 0.0000000000000000000, 0.1092406499999999947 ) ) ;
#165 = VERTEX_POINT ( 'NONE', #173 ) ;
#166 = DIRECTION ( 'NONE',  ( 1.000000000000000000, 0.0000000000000000000, 0.0000000000000000000 ) ) ;
#167 =( LENGTH_UNIT ( ) NAMED_UNIT ( * ) SI_UNIT ( $, .METRE. ) );
#168 = VECTOR ( 'NONE', #27, 39.37007874015748143 ) ;
#169 = ORIENTED_EDGE ( 'NONE', *, *, #209, .F. ) ;
#170 = CIRCLE ( 'NONE', #323, 0.1250000000000000000 ) ;
#171 = DIRECTION ( 'NONE',  ( 1.000000000000000000, 0.0000000000000000000, 0.0000000000000000000 ) ) ;
#172 = VERTEX_POINT ( 'NONE', #77 ) ;
#173 = CARTESIAN_POINT ( 'NONE',  ( 0.1250000000000000000, 1.530808498934191509E-17, 2.485000000000000320 ) ) ;
#174 = DIRECTION ( 'NONE',  ( 1.224646799147353207E-16, 0.0000000000000000000, 1.000000000000000000 ) ) ;
#175 = ADVANCED_FACE ( 'NONE', ( #86 ), #305, .T. ) ;
#176 = VERTEX_POINT ( 'NONE', #35 ) ;
#177 =( CONVERSION_BASED_UNIT ( 'INCH', #304 ) LENGTH_UNIT ( ) NAMED_UNIT ( #156 ) );
#178 = DIMENSIONAL_EXPONENTS ( 1.000000000000000000, 0.0000000000000000000, 0.0000000000000000000, 0.0000000000000000000, 0.0000000000000000000, 0.0000000000000000000, 0.0000000000000000000 ) ;
#179 = DIRECTION ( 'NONE',  ( -1.000000000000000000, 0.0000000000000000000, 0.0000000000000000000 ) ) ;
#180 = AXIS2_PLACEMENT_3D ( 'NONE', #273, #174, #106 ) ;
#181 = ORIENTED_EDGE ( 'NONE', *, *, #264, .F. ) ;
#182 = EDGE_LOOP ( 'NONE', ( #301, #169, #146, #130 ) ) ;
#183 = DIRECTION ( 'NONE',  ( -1.000000000000000000, 0.0000000000000000000, 0.0000000000000000000 ) ) ;
#184 = CARTESIAN_POINT ( 'NONE',  ( 2.006718185389144496E-17, 0.0000000000000000000, 0.0000000000000000000 ) ) ;
#185 = AXIS2_PLACEMENT_3D ( 'NONE', #291, #257, #298 ) ;
#186 = AXIS2_PLACEMENT_3D ( 'NONE', #4, #205, #2 ) ;
#187 = ORIENTED_EDGE ( 'NONE', *, *, #250, .T. ) ;
#188 = FACE_OUTER_BOUND ( 'NONE', #283, .T. ) ;
#189 = ORIENTED_EDGE ( 'NONE', *, *, #285, .T. ) ;
#190 = EDGE_CURVE ( 'NONE', #1, #176, #276, .T. ) ;
#191 = AXIS2_PLACEMENT_3D ( 'NONE', #108, #52, #124 ) ;
#192 = CARTESIAN_POINT ( 'NONE',  ( 0.0000000000000000000, 0.0000000000000000000, 0.0000000000000000000 ) ) ;
#193 = SURFACE_SIDE_STYLE ('',( #99 ) ) ;
#194 = PRODUCT ( 'Micro_BEM-218-02X', 'Micro_BEM-218-02X', '', ( #218 ) ) ;
#195 = ORIENTED_EDGE ( 'NONE', *, *, #214, .T. ) ;
#196 = LINE ( 'NONE', #21, #168 ) ;
#197 = PRESENTATION_LAYER_ASSIGNMENT (  '', '', ( #73 ) ) ;
#198 = VECTOR ( 'NONE', #109, 39.37007874015748143 ) ;
#199 = CARTESIAN_POINT ( 'NONE',  ( 0.0000000000000000000, 0.0000000000000000000, 2.500000000000000000 ) ) ;
#200 = EDGE_CURVE ( 'NONE', #127, #37, #151, .T. ) ;
#201 = DIRECTION ( 'NONE',  ( 0.0000000000000000000, 0.0000000000000000000, -1.000000000000000000 ) ) ;
#202 = CARTESIAN_POINT ( 'NONE',  ( 7.654042494670957853E-17, 0.0000000000000000000, 0.6250000000000000000 ) ) ;
#203 = APPLICATION_CONTEXT ( 'automotive_design' ) ;
#204 = DIRECTION ( 'NONE',  ( -1.224646799147353207E-16, -0.0000000000000000000, -1.000000000000000000 ) ) ;
#205 = DIRECTION ( 'NONE',  ( 0.0000000000000000000, 0.0000000000000000000, -1.000000000000000000 ) ) ;
#206 = FILL_AREA_STYLE_COLOUR ( '', #216 ) ;
#207 = CARTESIAN_POINT ( 'NONE',  ( 8.748579329396911086E-17, 0.0000000000000000000, 0.7143757151439918962 ) ) ;
#208 = AXIS2_PLACEMENT_3D ( 'NONE', #7, #55, #28 ) ;
#209 = EDGE_CURVE ( 'NONE', #1, #127, #224, .T. ) ;
#210 = FACE_OUTER_BOUND ( 'NONE', #125, .T. ) ;
#211 = AXIS2_PLACEMENT_3D ( 'NONE', #43, #237, #20 ) ;
#212 = AXIS2_PLACEMENT_3D ( 'NONE', #12, #309, #183 ) ;
#213 = DIRECTION ( 'NONE',  ( -1.000000000000000000, 0.0000000000000000000, 1.562975866621229869E-16 ) ) ;
#214 = EDGE_CURVE ( 'NONE', #165, #176, #152, .T. ) ;
#215 = FILL_AREA_STYLE ('',( #141 ) ) ;
#216 = COLOUR_RGB ( '',0.7921568627450980005, 0.8196078431372548767, 0.9333333333333333481 ) ;
#217 = ORIENTED_EDGE ( 'NONE', *, *, #56, .F. ) ;
#218 = PRODUCT_CONTEXT ( 'NONE', #96, 'mechanical' ) ;
#219 = EDGE_LOOP ( 'NONE', ( #242, #89, #189, #30 ) ) ;
#220 = PRODUCT_DEFINITION ( 'UNKNOWN', '', #138, #137 ) ;
#221 = CARTESIAN_POINT ( 'NONE',  ( -0.1100000000000001948, 0.0000000000000000000, 2.500000000000000000 ) ) ;
#222 = EDGE_CURVE ( 'NONE', #1, #253, #229, .T. ) ;
#223 = ORIENTED_EDGE ( 'NONE', *, *, #16, .T. ) ;
#224 = CIRCLE ( 'NONE', #149, 0.1092406499999999947 ) ;
#225 = FACE_OUTER_BOUND ( 'NONE', #115, .T. ) ;
#226 = DIRECTION ( 'NONE',  ( 1.000000000000000000, 0.0000000000000000000, 0.0000000000000000000 ) ) ;
#227 = AXIS2_PLACEMENT_3D ( 'NONE', #15, #281, #289 ) ;
#228 = CARTESIAN_POINT ( 'NONE',  ( 0.0000000000000000000, 0.0000000000000000000, 2.485000000000000320 ) ) ;
#229 = LINE ( 'NONE', #249, #275 ) ;
#230 = DIRECTION ( 'NONE',  ( 0.0000000000000000000, -1.000000000000000000, 0.0000000000000000000 ) ) ;
#231 = DIRECTION ( 'NONE',  ( 0.0000000000000000000, 0.0000000000000000000, -1.000000000000000000 ) ) ;
#232 = UNCERTAINTY_MEASURE_WITH_UNIT (LENGTH_MEASURE( 1.000000000000000082E-05 ), #177, 'distance_accuracy_value', 'NONE');
#233 =( NAMED_UNIT ( * ) PLANE_ANGLE_UNIT ( ) SI_UNIT ( $, .RADIAN. ) );
#234 = FACE_OUTER_BOUND ( 'NONE', #119, .T. ) ;
#235 = APPLICATION_PROTOCOL_DEFINITION ( 'draft international standard', 'automotive_design', 1998, #96 ) ;
#236 =( GEOMETRIC_REPRESENTATION_CONTEXT ( 3 ) GLOBAL_UNCERTAINTY_ASSIGNED_CONTEXT ( ( #271 ) ) GLOBAL_UNIT_ASSIGNED_CONTEXT ( ( #72, #147, #44 ) ) REPRESENTATION_CONTEXT ( 'NONE', 'WORKASPACE' ) );
#237 = DIRECTION ( 'NONE',  ( -0.0000000000000000000, -0.0000000000000000000, -1.000000000000000000 ) ) ;
#238 = ORIENTED_EDGE ( 'NONE', *, *, #270, .T. ) ;
#239 = CLOSED_SHELL ( 'NONE', ( #22, #40, #153, #317, #79, #272, #101, #279, #175, #308, #314 ) ) ;
#240 = DIRECTION ( 'NONE',  ( 0.0000000000000000000, 1.000000000000000000, 0.0000000000000000000 ) ) ;
#241 = UNCERTAINTY_MEASURE_WITH_UNIT (LENGTH_MEASURE( 1.000000000000000082E-05 ), #286, 'distance_accuracy_value', 'NONE');
#242 = ORIENTED_EDGE ( 'NONE', *, *, #222, .F. ) ;
#243 = ORIENTED_EDGE ( 'NONE', *, *, #214, .F. ) ;
#244 =( LENGTH_UNIT ( ) NAMED_UNIT ( * ) SI_UNIT ( $, .METRE. ) );
#245 = VECTOR ( 'NONE', #155, 39.37007874015747433 ) ;
#246 = CARTESIAN_POINT ( 'NONE',  ( -0.1092406499999999253, 1.337812123592763100E-17, 0.6250000000000000000 ) ) ;
#247 = CARTESIAN_POINT ( 'NONE',  ( 0.1250000000000000000, 1.530808498934191509E-17, 2.500000000000000000 ) ) ;
#248 = AXIS2_PLACEMENT_3D ( 'NONE', #39, #157, #131 ) ;
#249 = CARTESIAN_POINT ( 'NONE',  ( 0.1092406499999999947, 1.337812123592763100E-17, -1.337812123592763100E-17 ) ) ;
#250 = EDGE_CURVE ( 'NONE', #69, #37, #8, .T. ) ;
#251 = EDGE_LOOP ( 'NONE', ( #41, #9, #154, #140 ) ) ;
#252 = FACE_OUTER_BOUND ( 'NONE', #219, .T. ) ;
#253 = VERTEX_POINT ( 'NONE', #136 ) ;
#254 = CARTESIAN_POINT ( 'NONE',  ( 0.0000000000000000000, 0.0000000000000000000, 2.500000000000000000 ) ) ;
#255 = PRESENTATION_LAYER_ASSIGNMENT (  '', '', ( #81 ) ) ;
#256 = SURFACE_STYLE_USAGE ( .BOTH. , #139 ) ;
#257 = DIRECTION ( 'NONE',  ( 1.224646799147353207E-16, 1.000000000000000000, -0.0000000000000000000 ) ) ;
#258 = AXIS2_PLACEMENT_3D ( 'NONE', #316, #87, #179 ) ;
#259 = CIRCLE ( 'NONE', #29, 0.1092406499999999947 ) ;
#260 = DIRECTION ( 'NONE',  ( -1.224646799147353207E-16, -0.0000000000000000000, -1.000000000000000000 ) ) ;
#261 = ORIENTED_EDGE ( 'NONE', *, *, #56, .T. ) ;
#262 = CARTESIAN_POINT ( 'NONE',  ( 0.1092406500000000502, 0.0000000000000000000, 0.6250000000000000000 ) ) ;
#263 = ORIENTED_EDGE ( 'NONE', *, *, #107, .F. ) ;
#264 = EDGE_CURVE ( 'NONE', #67, #69, #315, .T. ) ;
#265 = AXIS2_PLACEMENT_3D ( 'NONE', #202, #303, #150 ) ;
#266 = SURFACE_STYLE_FILL_AREA ( #297 ) ;
#267 = ORIENTED_EDGE ( 'NONE', *, *, #270, .F. ) ;
#268 = EDGE_CURVE ( 'NONE', #176, #37, #170, .T. ) ;
#269 = ORIENTED_EDGE ( 'NONE', *, *, #76, .F. ) ;
#270 = EDGE_CURVE ( 'NONE', #310, #253, #11, .T. ) ;
#271 = UNCERTAINTY_MEASURE_WITH_UNIT (LENGTH_MEASURE( 1.000000000000000082E-05 ), #72, 'distance_accuracy_value', 'NONE');
#272 = ADVANCED_FACE ( 'NONE', ( #234 ), #13, .T. ) ;
#273 = CARTESIAN_POINT ( 'NONE',  ( 7.654042494670957853E-17, 0.0000000000000000000, 0.6250000000000000000 ) ) ;
#274 = AXIS2_PLACEMENT_3D ( 'NONE', #123, #240, #24 ) ;
#275 = VECTOR ( 'NONE', #128, 39.37007874015748143 ) ;
#276 = LINE ( 'NONE', #78, #198 ) ;
#277 = DIRECTION ( 'NONE',  ( -1.224646799147353207E-16, -0.0000000000000000000, -1.000000000000000000 ) ) ;
#278 = EDGE_CURVE ( 'NONE', #172, #253, #34, .T. ) ;
#279 = ADVANCED_FACE ( 'NONE', ( #210 ), #159, .T. ) ;
#280 = AXIS2_PLACEMENT_3D ( 'NONE', #192, #18, #166 ) ;
#281 = DIRECTION ( 'NONE',  ( 1.224646799147353207E-16, 0.0000000000000000000, 1.000000000000000000 ) ) ;
#282 = DIMENSIONAL_EXPONENTS ( 1.000000000000000000, 0.0000000000000000000, 0.0000000000000000000, 0.0000000000000000000, 0.0000000000000000000, 0.0000000000000000000, 0.0000000000000000000 ) ;
#283 = EDGE_LOOP ( 'NONE', ( #82, #195, #269, #324 ) ) ;
#284 = FACE_OUTER_BOUND ( 'NONE', #32, .T. ) ;
#285 = EDGE_CURVE ( 'NONE', #127, #172, #10, .T. ) ;
#286 =( CONVERSION_BASED_UNIT ( 'INCH', #158 ) LENGTH_UNIT ( ) NAMED_UNIT ( #178 ) );
#287 = CIRCLE ( 'NONE', #144, 0.1092406499999999947 ) ;
#288 =( NAMED_UNIT ( * ) SI_UNIT ( $, .STERADIAN. ) SOLID_ANGLE_UNIT ( ) );
#289 = DIRECTION ( 'NONE',  ( -1.000000000000000000, 0.0000000000000000000, 1.562975866621229869E-16 ) ) ;
#290 = PRESENTATION_STYLE_ASSIGNMENT (( #256 ) ) ;
#291 = CARTESIAN_POINT ( 'NONE',  ( 1.337812123592763100E-17, 0.0000000000000000000, 0.1092406499999999947 ) ) ;
#292 = PLANE ( 'NONE',  #6 ) ;
#293 = CONICAL_SURFACE ( 'NONE', #300, 0.1100000000000001948, 0.7853981633974517207 ) ;
#294 = ORIENTED_EDGE ( 'NONE', *, *, #200, .T. ) ;
#295 = SURFACE_STYLE_USAGE ( .BOTH. , #193 ) ;
#296 = FACE_OUTER_BOUND ( 'NONE', #251, .T. ) ;
#297 = FILL_AREA_STYLE ('',( #206 ) ) ;
#298 = DIRECTION ( 'NONE',  ( -1.000000000000000000, 1.224646799147353207E-16, 0.0000000000000000000 ) ) ;
#299 = EDGE_LOOP ( 'NONE', ( #217, #238, #325 ) ) ;
#300 = AXIS2_PLACEMENT_3D ( 'NONE', #254, #113, #135 ) ;
#301 = ORIENTED_EDGE ( 'NONE', *, *, #200, .F. ) ;
#302 = CARTESIAN_POINT ( 'NONE',  ( -0.1250000000000000000, 0.0000000000000000000, 2.500000000000000000 ) ) ;
#303 = DIRECTION ( 'NONE',  ( 1.224646799147353207E-16, 0.0000000000000000000, 1.000000000000000000 ) ) ;
#304 = LENGTH_MEASURE_WITH_UNIT ( LENGTH_MEASURE( 0.02539999999999999897 ), #244 );
#305 = CONICAL_SURFACE ( 'NONE', #265, 0.1092406499999999947, 0.1745329251994338637 ) ;
#306 = DIRECTION ( 'NONE',  ( -1.000000000000000000, 0.0000000000000000000, 0.0000000000000000000 ) ) ;
#307 = CARTESIAN_POINT ( 'NONE',  ( 0.1100000000000001948, 1.438959988998141146E-17, 2.500000000000000000 ) ) ;
#308 = ADVANCED_FACE ( 'NONE', ( #252 ), #94, .T. ) ;
#309 = DIRECTION ( 'NONE',  ( 0.0000000000000000000, 0.0000000000000000000, -1.000000000000000000 ) ) ;
#310 = VERTEX_POINT ( 'NONE', #184 ) ;
#311 =( GEOMETRIC_REPRESENTATION_CONTEXT ( 3 ) GLOBAL_UNCERTAINTY_ASSIGNED_CONTEXT ( ( #232 ) ) GLOBAL_UNIT_ASSIGNED_CONTEXT ( ( #177, #51, #83 ) ) REPRESENTATION_CONTEXT ( 'NONE', 'WORKASPACE' ) );
#312 = ORIENTED_EDGE ( 'NONE', *, *, #120, .T. ) ;
#313 = DIRECTION ( 'NONE',  ( -0.7071067811865499042, 0.0000000000000000000, -0.7071067811865451302 ) ) ;
#314 = ADVANCED_FACE ( 'NONE', ( #160 ), #132, .T. ) ;
#315 = LINE ( 'NONE', #111, #134 ) ;
#316 = CARTESIAN_POINT ( 'NONE',  ( 0.0000000000000000000, 0.0000000000000000000, 2.500000000000000000 ) ) ;
#317 = ADVANCED_FACE ( 'NONE', ( #284 ), #293, .T. ) ;
#318 = COLOUR_RGB ( '',0.7921568627450980005, 0.8196078431372548767, 0.9333333333333333481 ) ;
#319 = VECTOR ( 'NONE', #33, 39.37007874015748143 ) ;
#320 = APPLICATION_PROTOCOL_DEFINITION ( 'draft international standard', 'automotive_design', 1998, #203 ) ;
#321 = SPHERICAL_SURFACE ( 'NONE', #274, 0.1092406499999999947 ) ;
#322 = ORIENTED_EDGE ( 'NONE', *, *, #264, .T. ) ;
#323 = AXIS2_PLACEMENT_3D ( 'NONE', #207, #62, #162 ) ;
#324 = ORIENTED_EDGE ( 'NONE', *, *, #250, .F. ) ;
#325 = ORIENTED_EDGE ( 'NONE', *, *, #278, .F. ) ;
ENDSEC;
END-ISO-10303-21;
