ISO-10303-21;
HEADER;
FILE_DESCRIPTION (( 'STEP AP214' ),
    '1' );
FILE_NAME ('44257.STEP',
    '2023-06-22T19:49:26',
    ( '' ),
    ( '' ),
    'SwSTEP 2.0',
    'SolidWorks 2023',
    '' );
FILE_SCHEMA (( 'AUTOMOTIVE_DESIGN' ));
ENDSEC;

DATA;
#1 = CARTESIAN_POINT ( 'NONE',  ( 0.000000000000000000, 0.6250000000000000000, 0.000000000000000000 ) ) ;
#2 = UNCERTAINTY_MEASURE_WITH_UNIT (LENGTH_MEASURE( 1.000000000000000082E-05 ), #245, 'distance_accuracy_value', 'NONE');
#3 = DIRECTION ( 'NONE',  ( 6.531449595452550356E-17, 1.000000000000000000, -0.000000000000000000 ) ) ;
#4 =( GEOMETRIC_REPRESENTATION_CONTEXT ( 3 ) GLOBAL_UNCERTAINTY_ASSIGNED_CONTEXT ( ( #2 ) ) GLOBAL_UNIT_ASSIGNED_CONTEXT ( ( #245, #123, #171 ) ) REPRESENTATION_CONTEXT ( 'NONE', 'WORKASPACE' ) );
#5 = CARTESIAN_POINT ( 'NONE',  ( 1.224646799147353207E-16, 2.500000000000000000, 0.000000000000000000 ) ) ;
#6 = PRODUCT_RELATED_PRODUCT_CATEGORY ( 'part', '', ( #44 ) ) ;
#7 = EDGE_LOOP ( 'NONE', ( #306, #264 ) ) ;
#8 = ORIENTED_EDGE ( 'NONE', *, *, #177, .T. ) ;
#9 = LINE ( 'NONE', #183, #287 ) ;
#10 = SURFACE_STYLE_USAGE ( .BOTH. , #101 ) ;
#11 = EDGE_LOOP ( 'NONE', ( #65, #16, #209, #255 ) ) ;
#12 = SURFACE_SIDE_STYLE ('',( #159 ) ) ;
#13 = VERTEX_POINT ( 'NONE', #152 ) ;
#14 =( LENGTH_UNIT ( ) NAMED_UNIT ( * ) SI_UNIT ( $, .METRE. ) );
#15 = ORIENTED_EDGE ( 'NONE', *, *, #249, .F. ) ;
#16 = ORIENTED_EDGE ( 'NONE', *, *, #231, .T. ) ;
#17 = SURFACE_STYLE_USAGE ( .BOTH. , #213 ) ;
#18 = VERTEX_POINT ( 'NONE', #28 ) ;
#19 = FACE_OUTER_BOUND ( 'NONE', #222, .T. ) ;
#20 = AXIS2_PLACEMENT_3D ( 'NONE', #5, #205, #198 ) ;
#21 = CIRCLE ( 'NONE', #134, 0.2499999999999999722 ) ;
#22 = FILL_AREA_STYLE_COLOUR ( '', #160 ) ;
#23 =( NAMED_UNIT ( * ) SI_UNIT ( $, .STERADIAN. ) SOLID_ANGLE_UNIT ( ) );
#24 = DIRECTION ( 'NONE',  ( -0.000000000000000000, -1.000000000000000000, -0.000000000000000000 ) ) ;
#25 = DIRECTION ( 'NONE',  ( 0.000000000000000000, -0.000000000000000000, 1.000000000000000000 ) ) ;
#26 = CARTESIAN_POINT ( 'NONE',  ( -0.2499999999999996947, 2.500000000000000000, 0.000000000000000000 ) ) ;
#27 = MECHANICAL_DESIGN_GEOMETRIC_PRESENTATION_REPRESENTATION (  '', ( #174 ), #4 ) ;
#28 = CARTESIAN_POINT ( 'NONE',  ( 0.2500000000000000000, 0.6250000000000000000, 3.061616997868382402E-17 ) ) ;
#29 = DIRECTION ( 'NONE',  ( -0.000000000000000000, -1.000000000000000000, -0.000000000000000000 ) ) ;
#30 = DIRECTION ( 'NONE',  ( 0.000000000000000000, 0.000000000000000000, -1.000000000000000000 ) ) ;
#31 = FACE_OUTER_BOUND ( 'NONE', #139, .T. ) ;
#32 = EDGE_LOOP ( 'NONE', ( #165, #48 ) ) ;
#33 = FACE_OUTER_BOUND ( 'NONE', #285, .T. ) ;
#34 = LINE ( 'NONE', #130, #168 ) ;
#35 = CARTESIAN_POINT ( 'NONE',  ( 0.000000000000000000, 0.000000000000000000, -0.2500000000000000000 ) ) ;
#36 = SURFACE_STYLE_FILL_AREA ( #235 ) ;
#37 = DIRECTION ( 'NONE',  ( 0.000000000000000000, 0.000000000000000000, -1.000000000000000000 ) ) ;
#38 = LINE ( 'NONE', #138, #238 ) ;
#39 = FACE_OUTER_BOUND ( 'NONE', #32, .T. ) ;
#40 = VERTEX_POINT ( 'NONE', #260 ) ;
#41 = COLOUR_RGB ( '',0.7921568627450980005, 0.8196078431372548767, 0.9333333333333333481 ) ;
#42 = FACE_OUTER_BOUND ( 'NONE', #237, .T. ) ;
#43 = ORIENTED_EDGE ( 'NONE', *, *, #218, .T. ) ;
#44 = PRODUCT ( '44257', '44257', '', ( #266 ) ) ;
#45 =( CONVERSION_BASED_UNIT ( 'INCH', #210 ) LENGTH_UNIT ( ) NAMED_UNIT ( #124 ) );
#46 =( CONVERSION_BASED_UNIT ( 'INCH', #289 ) LENGTH_UNIT ( ) NAMED_UNIT ( #199 ) );
#47 = LENGTH_MEASURE_WITH_UNIT ( LENGTH_MEASURE( 0.02539999999999999897 ), #126 );
#48 = ORIENTED_EDGE ( 'NONE', *, *, #193, .T. ) ;
#49 = DIRECTION ( 'NONE',  ( -6.531449595452550356E-17, -1.000000000000000000, 0.000000000000000000 ) ) ;
#50 = PRESENTATION_LAYER_ASSIGNMENT (  '', '', ( #91 ) ) ;
#51 = SHAPE_DEFINITION_REPRESENTATION ( #103, #212 ) ;
#52 = UNCERTAINTY_MEASURE_WITH_UNIT (LENGTH_MEASURE( 1.000000000000000082E-05 ), #269, 'distance_accuracy_value', 'NONE');
#53 = CARTESIAN_POINT ( 'NONE',  ( 0.000000000000000000, 0.000000000000000000, 0.000000000000000000 ) ) ;
#54 =( NAMED_UNIT ( * ) PLANE_ANGLE_UNIT ( ) SI_UNIT ( $, .RADIAN. ) );
#55 = ADVANCED_FACE ( 'NONE', ( #39 ), #180, .T. ) ;
#56 = DIRECTION ( 'NONE',  ( -1.000000000000000000, 0.000000000000000000, 0.000000000000000000 ) ) ;
#57 = UNCERTAINTY_MEASURE_WITH_UNIT (LENGTH_MEASURE( 1.000000000000000082E-05 ), #46, 'distance_accuracy_value', 'NONE');
#58 = AXIS2_PLACEMENT_3D ( 'NONE', #151, #275, #302 ) ;
#59 = PRESENTATION_LAYER_ASSIGNMENT (  '', '', ( #128 ) ) ;
#60 = DIRECTION ( 'NONE',  ( 6.531449595452550356E-17, 1.000000000000000000, -0.000000000000000000 ) ) ;
#61 = ORIENTED_EDGE ( 'NONE', *, *, #108, .T. ) ;
#62 = CIRCLE ( 'NONE', #162, 0.2499999999999999722 ) ;
#63 = DIRECTION ( 'NONE',  ( -0.000000000000000000, -1.000000000000000000, -0.000000000000000000 ) ) ;
#64 = ADVANCED_FACE ( 'NONE', ( #33 ), #226, .T. ) ;
#65 = ORIENTED_EDGE ( 'NONE', *, *, #175, .F. ) ;
#66 = STYLED_ITEM ( 'NONE', ( #82 ), #70 ) ;
#67 = AXIS2_PLACEMENT_3D ( 'NONE', #164, #94, #191 ) ;
#68 = APPLICATION_PROTOCOL_DEFINITION ( 'draft international standard', 'automotive_design', 1998, #265 ) ;
#69 = LENGTH_MEASURE_WITH_UNIT ( LENGTH_MEASURE( 0.02539999999999999897 ), #234 );
#70 = ADVANCED_FACE ( 'NONE', ( #19 ), #142, .T. ) ;
#71 = ORIENTED_EDGE ( 'NONE', *, *, #231, .F. ) ;
#72 = DIRECTION ( 'NONE',  ( 0.000000000000000000, 0.000000000000000000, -1.000000000000000000 ) ) ;
#73 = FACE_OUTER_BOUND ( 'NONE', #11, .T. ) ;
#74 = AXIS2_PLACEMENT_3D ( 'NONE', #207, #29, #136 ) ;
#75 = CARTESIAN_POINT ( 'NONE',  ( 0.2499999999999999722, 2.500000000000000000, 0.000000000000000000 ) ) ;
#76 = AXIS2_PLACEMENT_3D ( 'NONE', #157, #259, #37 ) ;
#77 = MANIFOLD_SOLID_BREP ( 'Revolve - Cutting Edge', #217 ) ;
#78 = EDGE_CURVE ( 'NONE', #13, #18, #278, .T. ) ;
#79 = DIRECTION ( 'NONE',  ( 0.000000000000000000, -1.000000000000000000, -0.000000000000000000 ) ) ;
#80 = COLOUR_RGB ( '',1.000000000000000000, 0.000000000000000000, 0.000000000000000000 ) ;
#81 =( GEOMETRIC_REPRESENTATION_CONTEXT ( 3 ) GLOBAL_UNCERTAINTY_ASSIGNED_CONTEXT ( ( #52 ) ) GLOBAL_UNIT_ASSIGNED_CONTEXT ( ( #269, #283, #140 ) ) REPRESENTATION_CONTEXT ( 'NONE', 'WORKASPACE' ) );
#82 = PRESENTATION_STYLE_ASSIGNMENT (( #276 ) ) ;
#83 = DIRECTION ( 'NONE',  ( 6.531449595452550356E-17, 1.000000000000000000, -0.000000000000000000 ) ) ;
#84 = ORIENTED_EDGE ( 'NONE', *, *, #100, .F. ) ;
#85 = CYLINDRICAL_SURFACE ( 'NONE', #257, 0.2499999999999998890 ) ;
#86 = CIRCLE ( 'NONE', #76, 0.2500000000000000000 ) ;
#87 = FACE_OUTER_BOUND ( 'NONE', #7, .T. ) ;
#88 = ORIENTED_EDGE ( 'NONE', *, *, #90, .T. ) ;
#89 = EDGE_LOOP ( 'NONE', ( #109, #88, #273, #239 ) ) ;
#90 = EDGE_CURVE ( 'NONE', #18, #161, #34, .T. ) ;
#91 = STYLED_ITEM ( 'NONE', ( #299 ), #282 ) ;
#92 = SURFACE_STYLE_FILL_AREA ( #170 ) ;
#93 = CARTESIAN_POINT ( 'NONE',  ( 0.000000000000000000, 0.000000000000000000, 0.000000000000000000 ) ) ;
#94 = DIRECTION ( 'NONE',  ( 0.000000000000000000, 0.000000000000000000, 1.000000000000000000 ) ) ;
#95 = FILL_AREA_STYLE ('',( #143 ) ) ;
#96 = AXIS2_PLACEMENT_3D ( 'NONE', #53, #290, #104 ) ;
#97 =( NAMED_UNIT ( * ) SI_UNIT ( $, .STERADIAN. ) SOLID_ANGLE_UNIT ( ) );
#98 =( CONVERSION_BASED_UNIT ( 'INCH', #291 ) LENGTH_UNIT ( ) NAMED_UNIT ( #172 ) );
#99 = FILL_AREA_STYLE ('',( #22 ) ) ;
#100 = EDGE_CURVE ( 'NONE', #40, #233, #208, .T. ) ;
#101 = SURFACE_SIDE_STYLE ('',( #242 ) ) ;
#102 = PRESENTATION_LAYER_ASSIGNMENT (  '', '', ( #196 ) ) ;
#103 = PRODUCT_DEFINITION_SHAPE ( 'NONE', 'NONE',  #110 ) ;
#104 = DIRECTION ( 'NONE',  ( 0.000000000000000000, 0.000000000000000000, -1.000000000000000000 ) ) ;
#105 = SURFACE_SIDE_STYLE ('',( #220 ) ) ;
#106 = DIRECTION ( 'NONE',  ( -1.000000000000000000, 0.000000000000000000, 0.000000000000000000 ) ) ;
#107 = PRESENTATION_LAYER_ASSIGNMENT (  '', '', ( #66 ) ) ;
#108 = EDGE_CURVE ( 'NONE', #272, #161, #252, .T. ) ;
#109 = ORIENTED_EDGE ( 'NONE', *, *, #78, .T. ) ;
#110 = PRODUCT_DEFINITION ( 'UNKNOWN', '', #169, #119 ) ;
#111 = PRESENTATION_STYLE_ASSIGNMENT (( #187 ) ) ;
#112 = COLOUR_RGB ( '',1.000000000000000000, 0.000000000000000000, 0.000000000000000000 ) ;
#113 = VERTEX_POINT ( 'NONE', #178 ) ;
#114 = FILL_AREA_STYLE_COLOUR ( '', #112 ) ;
#115 = AXIS2_PLACEMENT_3D ( 'NONE', #93, #241, #72 ) ;
#116 = MECHANICAL_DESIGN_GEOMETRIC_PRESENTATION_REPRESENTATION (  '', ( #196 ), #182 ) ;
#117 = UNCERTAINTY_MEASURE_WITH_UNIT (LENGTH_MEASURE( 1.000000000000000082E-05 ), #45, 'distance_accuracy_value', 'NONE');
#118 =( NAMED_UNIT ( * ) SI_UNIT ( $, .STERADIAN. ) SOLID_ANGLE_UNIT ( ) );
#119 = PRODUCT_DEFINITION_CONTEXT ( 'detailed design', #265, 'design' ) ;
#120 = AXIS2_PLACEMENT_3D ( 'NONE', #301, #79, #274 ) ;
#121 =( NAMED_UNIT ( * ) PLANE_ANGLE_UNIT ( ) SI_UNIT ( $, .RADIAN. ) );
#122 = AXIS2_PLACEMENT_3D ( 'NONE', #223, #155, #25 ) ;
#123 =( NAMED_UNIT ( * ) PLANE_ANGLE_UNIT ( ) SI_UNIT ( $, .RADIAN. ) );
#124 = DIMENSIONAL_EXPONENTS ( 1.000000000000000000, 0.000000000000000000, 0.000000000000000000, 0.000000000000000000, 0.000000000000000000, 0.000000000000000000, 0.000000000000000000 ) ;
#125 = ADVANCED_FACE ( 'NONE', ( #277 ), #85, .T. ) ;
#126 =( LENGTH_UNIT ( ) NAMED_UNIT ( * ) SI_UNIT ( $, .METRE. ) );
#127 = DIRECTION ( 'NONE',  ( -0.000000000000000000, -1.000000000000000000, -0.000000000000000000 ) ) ;
#128 = STYLED_ITEM ( 'NONE', ( #111 ), #55 ) ;
#129 = FILL_AREA_STYLE ('',( #176 ) ) ;
#130 = CARTESIAN_POINT ( 'NONE',  ( 0.2500000000000000555, 2.500000000000000000, 3.061616997868381785E-17 ) ) ;
#131 = SURFACE_SIDE_STYLE ('',( #250 ) ) ;
#132 = CARTESIAN_POINT ( 'NONE',  ( 0.000000000000000000, 0.6250000000000000000, 0.000000000000000000 ) ) ;
#133 = MECHANICAL_DESIGN_GEOMETRIC_PRESENTATION_REPRESENTATION (  '', ( #66 ), #192 ) ;
#134 = AXIS2_PLACEMENT_3D ( 'NONE', #1, #24, #30 ) ;
#135 = DIRECTION ( 'NONE',  ( -1.000000000000000000, 0.000000000000000000, 0.000000000000000000 ) ) ;
#136 = DIRECTION ( 'NONE',  ( 0.000000000000000000, 0.000000000000000000, -1.000000000000000000 ) ) ;
#137 = PLANE ( 'NONE',  #122 ) ;
#138 = CARTESIAN_POINT ( 'NONE',  ( -0.2499999999999997502, 2.500000000000000000, 0.000000000000000000 ) ) ;
#139 = EDGE_LOOP ( 'NONE', ( #61, #173 ) ) ;
#140 =( NAMED_UNIT ( * ) SI_UNIT ( $, .STERADIAN. ) SOLID_ANGLE_UNIT ( ) );
#141 = SURFACE_SIDE_STYLE ('',( #36 ) ) ;
#142 = CYLINDRICAL_SURFACE ( 'NONE', #115, 0.2500000000000000000 ) ;
#143 = FILL_AREA_STYLE_COLOUR ( '', #307 ) ;
#144 = EDGE_CURVE ( 'NONE', #18, #13, #300, .T. ) ;
#145 = ORIENTED_EDGE ( 'NONE', *, *, #144, .T. ) ;
#146 = ADVANCED_FACE ( 'NONE', ( #31 ), #240, .F. ) ;
#147 =( LENGTH_UNIT ( ) NAMED_UNIT ( * ) SI_UNIT ( $, .METRE. ) );
#148 = CIRCLE ( 'NONE', #58, 0.2499999999999998335 ) ;
#149 = DIMENSIONAL_EXPONENTS ( 1.000000000000000000, 0.000000000000000000, 0.000000000000000000, 0.000000000000000000, 0.000000000000000000, 0.000000000000000000, 0.000000000000000000 ) ;
#150 = ADVANCED_FACE ( 'NONE', ( #87 ), #303, .F. ) ;
#151 = CARTESIAN_POINT ( 'NONE',  ( 1.224646799147353207E-16, 2.500000000000000000, 0.000000000000000000 ) ) ;
#152 = CARTESIAN_POINT ( 'NONE',  ( -0.2499999999999999722, 0.6250000000000000000, 0.000000000000000000 ) ) ;
#153 =( GEOMETRIC_REPRESENTATION_CONTEXT ( 3 ) GLOBAL_UNCERTAINTY_ASSIGNED_CONTEXT ( ( #117 ) ) GLOBAL_UNIT_ASSIGNED_CONTEXT ( ( #45, #224, #97 ) ) REPRESENTATION_CONTEXT ( 'NONE', 'WORKASPACE' ) );
#154 = DIRECTION ( 'NONE',  ( 6.531449595452550356E-17, 1.000000000000000000, -0.000000000000000000 ) ) ;
#155 = DIRECTION ( 'NONE',  ( 0.000000000000000000, 1.000000000000000000, 0.000000000000000000 ) ) ;
#156 = MECHANICAL_DESIGN_GEOMETRIC_PRESENTATION_REPRESENTATION (  '', ( #256 ), #200 ) ;
#157 = CARTESIAN_POINT ( 'NONE',  ( 0.000000000000000000, 0.000000000000000000, 0.000000000000000000 ) ) ;
#158 = DIRECTION ( 'NONE',  ( -0.000000000000000000, -1.000000000000000000, -0.000000000000000000 ) ) ;
#159 = SURFACE_STYLE_FILL_AREA ( #230 ) ;
#160 = COLOUR_RGB ( '',1.000000000000000000, 0.000000000000000000, 0.000000000000000000 ) ;
#161 = VERTEX_POINT ( 'NONE', #258 ) ;
#162 = AXIS2_PLACEMENT_3D ( 'NONE', #132, #127, #216 ) ;
#163 =( LENGTH_UNIT ( ) NAMED_UNIT ( * ) SI_UNIT ( $, .METRE. ) );
#164 = CARTESIAN_POINT ( 'NONE',  ( 0.000000000000000000, 0.000000000000000000, 0.000000000000000000 ) ) ;
#165 = ORIENTED_EDGE ( 'NONE', *, *, #100, .T. ) ;
#166 =( NAMED_UNIT ( * ) SI_UNIT ( $, .STERADIAN. ) SOLID_ANGLE_UNIT ( ) );
#167 = EDGE_CURVE ( 'NONE', #113, #40, #229, .T. ) ;
#168 = VECTOR ( 'NONE', #181, 39.37007874015748143 ) ;
#169 = PRODUCT_DEFINITION_FORMATION_WITH_SPECIFIED_SOURCE ( 'ANY', '', #44, .NOT_KNOWN. ) ;
#170 = FILL_AREA_STYLE ('',( #215 ) ) ;
#171 =( NAMED_UNIT ( * ) SI_UNIT ( $, .STERADIAN. ) SOLID_ANGLE_UNIT ( ) );
#172 = DIMENSIONAL_EXPONENTS ( 1.000000000000000000, 0.000000000000000000, 0.000000000000000000, 0.000000000000000000, 0.000000000000000000, 0.000000000000000000, 0.000000000000000000 ) ;
#173 = ORIENTED_EDGE ( 'NONE', *, *, #249, .T. ) ;
#174 = STYLED_ITEM ( 'NONE', ( #195 ), #294 ) ;
#175 = EDGE_CURVE ( 'NONE', #262, #233, #9, .T. ) ;
#176 = FILL_AREA_STYLE_COLOUR ( '', #41 ) ;
#177 = EDGE_CURVE ( 'NONE', #13, #272, #38, .T. ) ;
#178 = CARTESIAN_POINT ( 'NONE',  ( 0.000000000000000000, 0.6250000000000000000, -0.2499999999999999722 ) ) ;
#179 = APPLICATION_CONTEXT ( 'automotive_design' ) ;
#180 = PLANE ( 'NONE',  #120 ) ;
#181 = DIRECTION ( 'NONE',  ( 6.531449595452550356E-17, 1.000000000000000000, -0.000000000000000000 ) ) ;
#182 =( GEOMETRIC_REPRESENTATION_CONTEXT ( 3 ) GLOBAL_UNCERTAINTY_ASSIGNED_CONTEXT ( ( #57 ) ) GLOBAL_UNIT_ASSIGNED_CONTEXT ( ( #46, #225, #189 ) ) REPRESENTATION_CONTEXT ( 'NONE', 'WORKASPACE' ) );
#183 = CARTESIAN_POINT ( 'NONE',  ( 3.061616997868383018E-17, 0.000000000000000000, 0.2500000000000000000 ) ) ;
#184 = DIMENSIONAL_EXPONENTS ( 1.000000000000000000, 0.000000000000000000, 0.000000000000000000, 0.000000000000000000, 0.000000000000000000, 0.000000000000000000, 0.000000000000000000 ) ;
#185 = DIRECTION ( 'NONE',  ( -1.000000000000000000, 6.531449595452550356E-17, 0.000000000000000000 ) ) ;
#186 =( LENGTH_UNIT ( ) NAMED_UNIT ( * ) SI_UNIT ( $, .METRE. ) );
#187 = SURFACE_STYLE_USAGE ( .BOTH. , #141 ) ;
#188 = SURFACE_STYLE_USAGE ( .BOTH. , #12 ) ;
#189 =( NAMED_UNIT ( * ) SI_UNIT ( $, .STERADIAN. ) SOLID_ANGLE_UNIT ( ) );
#190 = DIRECTION ( 'NONE',  ( 6.531449595452550356E-17, 1.000000000000000000, -0.000000000000000000 ) ) ;
#191 = DIRECTION ( 'NONE',  ( 1.000000000000000000, 0.000000000000000000, 0.000000000000000000 ) ) ;
#192 =( GEOMETRIC_REPRESENTATION_CONTEXT ( 3 ) GLOBAL_UNCERTAINTY_ASSIGNED_CONTEXT ( ( #309 ) ) GLOBAL_UNIT_ASSIGNED_CONTEXT ( ( #244, #121, #118 ) ) REPRESENTATION_CONTEXT ( 'NONE', 'WORKASPACE' ) );
#193 = EDGE_CURVE ( 'NONE', #233, #40, #86, .T. ) ;
#194 = ORIENTED_EDGE ( 'NONE', *, *, #175, .T. ) ;
#195 = PRESENTATION_STYLE_ASSIGNMENT (( #17 ) ) ;
#196 = STYLED_ITEM ( 'NONE', ( #284 ), #204 ) ;
#197 = DIRECTION ( 'NONE',  ( 1.000000000000000000, -6.531449595452550356E-17, 0.000000000000000000 ) ) ;
#198 = DIRECTION ( 'NONE',  ( -1.000000000000000000, 0.000000000000000000, 0.000000000000000000 ) ) ;
#199 = DIMENSIONAL_EXPONENTS ( 1.000000000000000000, 0.000000000000000000, 0.000000000000000000, 0.000000000000000000, 0.000000000000000000, 0.000000000000000000, 0.000000000000000000 ) ;
#200 =( GEOMETRIC_REPRESENTATION_CONTEXT ( 3 ) GLOBAL_UNCERTAINTY_ASSIGNED_CONTEXT ( ( #297 ) ) GLOBAL_UNIT_ASSIGNED_CONTEXT ( ( #98, #54, #166 ) ) REPRESENTATION_CONTEXT ( 'NONE', 'WORKASPACE' ) );
#201 = LENGTH_MEASURE_WITH_UNIT ( LENGTH_MEASURE( 0.02539999999999999897 ), #186 );
#202 = CARTESIAN_POINT ( 'NONE',  ( 0.000000000000000000, 0.6250000000000000000, 0.000000000000000000 ) ) ;
#203 = SURFACE_STYLE_USAGE ( .BOTH. , #105 ) ;
#204 = ADVANCED_FACE ( 'NONE', ( #42 ), #137, .T. ) ;
#205 = DIRECTION ( 'NONE',  ( 6.531449595452550356E-17, 1.000000000000000000, -0.000000000000000000 ) ) ;
#206 = ORIENTED_EDGE ( 'NONE', *, *, #218, .F. ) ;
#207 = CARTESIAN_POINT ( 'NONE',  ( 0.000000000000000000, 0.000000000000000000, 0.000000000000000000 ) ) ;
#208 = CIRCLE ( 'NONE', #74, 0.2500000000000000000 ) ;
#209 = ORIENTED_EDGE ( 'NONE', *, *, #167, .T. ) ;
#210 = LENGTH_MEASURE_WITH_UNIT ( LENGTH_MEASURE( 0.02539999999999999897 ), #14 );
#211 = AXIS2_PLACEMENT_3D ( 'NONE', #75, #49, #197 ) ;
#212 = ADVANCED_BREP_SHAPE_REPRESENTATION ( '44257', ( #77, #282, #67 ), #81 ) ;
#213 = SURFACE_SIDE_STYLE ('',( #92 ) ) ;
#214 = CLOSED_SHELL ( 'NONE', ( #125, #150, #64, #146 ) ) ;
#215 = FILL_AREA_STYLE_COLOUR ( '', #308 ) ;
#216 = DIRECTION ( 'NONE',  ( 0.000000000000000000, 0.000000000000000000, -1.000000000000000000 ) ) ;
#217 = CLOSED_SHELL ( 'NONE', ( #70, #204, #294, #55 ) ) ;
#218 = EDGE_CURVE ( 'NONE', #113, #262, #62, .T. ) ;
#219 = AXIS2_PLACEMENT_3D ( 'NONE', #202, #154, #254 ) ;
#220 = SURFACE_STYLE_FILL_AREA ( #129 ) ;
#221 = CARTESIAN_POINT ( 'NONE',  ( 1.224646799147353207E-16, 2.500000000000000000, 0.000000000000000000 ) ) ;
#222 = EDGE_LOOP ( 'NONE', ( #43, #194, #84, #268 ) ) ;
#223 = CARTESIAN_POINT ( 'NONE',  ( 0.000000000000000000, 0.6250000000000000000, 0.000000000000000000 ) ) ;
#224 =( NAMED_UNIT ( * ) PLANE_ANGLE_UNIT ( ) SI_UNIT ( $, .RADIAN. ) );
#225 =( NAMED_UNIT ( * ) PLANE_ANGLE_UNIT ( ) SI_UNIT ( $, .RADIAN. ) );
#226 = CYLINDRICAL_SURFACE ( 'NONE', #20, 0.2499999999999998890 ) ;
#227 = DIMENSIONAL_EXPONENTS ( 1.000000000000000000, 0.000000000000000000, 0.000000000000000000, 0.000000000000000000, 0.000000000000000000, 0.000000000000000000, 0.000000000000000000 ) ;
#228 = CARTESIAN_POINT ( 'NONE',  ( 0.000000000000000000, 0.6250000000000000000, 0.000000000000000000 ) ) ;
#229 = LINE ( 'NONE', #35, #271 ) ;
#230 = FILL_AREA_STYLE ('',( #114 ) ) ;
#231 = EDGE_CURVE ( 'NONE', #262, #113, #21, .T. ) ;
#232 = FILL_AREA_STYLE_COLOUR ( '', #80 ) ;
#233 = VERTEX_POINT ( 'NONE', #296 ) ;
#234 =( LENGTH_UNIT ( ) NAMED_UNIT ( * ) SI_UNIT ( $, .METRE. ) );
#235 = FILL_AREA_STYLE ('',( #232 ) ) ;
#236 = CYLINDRICAL_SURFACE ( 'NONE', #96, 0.2500000000000000000 ) ;
#237 = EDGE_LOOP ( 'NONE', ( #206, #71 ) ) ;
#238 = VECTOR ( 'NONE', #281, 39.37007874015748143 ) ;
#239 = ORIENTED_EDGE ( 'NONE', *, *, #177, .F. ) ;
#240 = PLANE ( 'NONE',  #211 ) ;
#241 = DIRECTION ( 'NONE',  ( -0.000000000000000000, -1.000000000000000000, -0.000000000000000000 ) ) ;
#242 = SURFACE_STYLE_FILL_AREA ( #95 ) ;
#243 = LENGTH_MEASURE_WITH_UNIT ( LENGTH_MEASURE( 0.02539999999999999897 ), #147 );
#244 =( CONVERSION_BASED_UNIT ( 'INCH', #69 ) LENGTH_UNIT ( ) NAMED_UNIT ( #149 ) );
#245 =( CONVERSION_BASED_UNIT ( 'INCH', #243 ) LENGTH_UNIT ( ) NAMED_UNIT ( #184 ) );
#246 = MECHANICAL_DESIGN_GEOMETRIC_PRESENTATION_REPRESENTATION (  '', ( #91 ), #253 ) ;
#247 =( NAMED_UNIT ( * ) PLANE_ANGLE_UNIT ( ) SI_UNIT ( $, .RADIAN. ) );
#248 = DIMENSIONAL_EXPONENTS ( 1.000000000000000000, 0.000000000000000000, 0.000000000000000000, 0.000000000000000000, 0.000000000000000000, 0.000000000000000000, 0.000000000000000000 ) ;
#249 = EDGE_CURVE ( 'NONE', #161, #272, #148, .T. ) ;
#250 = SURFACE_STYLE_FILL_AREA ( #99 ) ;
#251 = CARTESIAN_POINT ( 'NONE',  ( 3.061616997868382402E-17, 0.6250000000000000000, 0.2499999999999999722 ) ) ;
#252 = CIRCLE ( 'NONE', #279, 0.2499999999999998335 ) ;
#253 =( GEOMETRIC_REPRESENTATION_CONTEXT ( 3 ) GLOBAL_UNCERTAINTY_ASSIGNED_CONTEXT ( ( #304 ) ) GLOBAL_UNIT_ASSIGNED_CONTEXT ( ( #298, #247, #23 ) ) REPRESENTATION_CONTEXT ( 'NONE', 'WORKASPACE' ) );
#254 = DIRECTION ( 'NONE',  ( -1.000000000000000000, 0.000000000000000000, 0.000000000000000000 ) ) ;
#255 = ORIENTED_EDGE ( 'NONE', *, *, #193, .F. ) ;
#256 = STYLED_ITEM ( 'NONE', ( #305 ), #77 ) ;
#257 = AXIS2_PLACEMENT_3D ( 'NONE', #280, #3, #106 ) ;
#258 = CARTESIAN_POINT ( 'NONE',  ( 0.2500000000000000000, 2.500000000000000000, 3.061616997868382402E-17 ) ) ;
#259 = DIRECTION ( 'NONE',  ( -0.000000000000000000, -1.000000000000000000, -0.000000000000000000 ) ) ;
#260 = CARTESIAN_POINT ( 'NONE',  ( 0.000000000000000000, 0.000000000000000000, -0.2500000000000000000 ) ) ;
#261 = ORIENTED_EDGE ( 'NONE', *, *, #90, .F. ) ;
#262 = VERTEX_POINT ( 'NONE', #251 ) ;
#263 =( LENGTH_UNIT ( ) NAMED_UNIT ( * ) SI_UNIT ( $, .METRE. ) );
#264 = ORIENTED_EDGE ( 'NONE', *, *, #144, .F. ) ;
#265 = APPLICATION_CONTEXT ( 'automotive_design' ) ;
#266 = PRODUCT_CONTEXT ( 'NONE', #179, 'mechanical' ) ;
#267 = AXIS2_PLACEMENT_3D ( 'NONE', #228, #190, #56 ) ;
#268 = ORIENTED_EDGE ( 'NONE', *, *, #167, .F. ) ;
#269 =( CONVERSION_BASED_UNIT ( 'INCH', #47 ) LENGTH_UNIT ( ) NAMED_UNIT ( #227 ) );
#270 = APPLICATION_PROTOCOL_DEFINITION ( 'draft international standard', 'automotive_design', 1998, #179 ) ;
#271 = VECTOR ( 'NONE', #158, 39.37007874015748143 ) ;
#272 = VERTEX_POINT ( 'NONE', #26 ) ;
#273 = ORIENTED_EDGE ( 'NONE', *, *, #108, .F. ) ;
#274 = DIRECTION ( 'NONE',  ( 0.000000000000000000, 0.000000000000000000, -1.000000000000000000 ) ) ;
#275 = DIRECTION ( 'NONE',  ( 6.531449595452550356E-17, 1.000000000000000000, -0.000000000000000000 ) ) ;
#276 = SURFACE_STYLE_USAGE ( .BOTH. , #131 ) ;
#277 = FACE_OUTER_BOUND ( 'NONE', #89, .T. ) ;
#278 = CIRCLE ( 'NONE', #267, 0.2499999999999999722 ) ;
#279 = AXIS2_PLACEMENT_3D ( 'NONE', #221, #83, #135 ) ;
#280 = CARTESIAN_POINT ( 'NONE',  ( 1.224646799147353207E-16, 2.500000000000000000, 0.000000000000000000 ) ) ;
#281 = DIRECTION ( 'NONE',  ( 6.531449595452550356E-17, 1.000000000000000000, -0.000000000000000000 ) ) ;
#282 = MANIFOLD_SOLID_BREP ( 'Revolve - Tool Body (Straight Shanked)', #214 ) ;
#283 =( NAMED_UNIT ( * ) PLANE_ANGLE_UNIT ( ) SI_UNIT ( $, .RADIAN. ) );
#284 = PRESENTATION_STYLE_ASSIGNMENT (( #188 ) ) ;
#285 = EDGE_LOOP ( 'NONE', ( #261, #145, #8, #15 ) ) ;
#286 = MECHANICAL_DESIGN_GEOMETRIC_PRESENTATION_REPRESENTATION (  '', ( #128 ), #153 ) ;
#287 = VECTOR ( 'NONE', #63, 39.37007874015748143 ) ;
#288 = CARTESIAN_POINT ( 'NONE',  ( 5.332479227242159300E-34, 0.6250000000000000000, 0.000000000000000000 ) ) ;
#289 = LENGTH_MEASURE_WITH_UNIT ( LENGTH_MEASURE( 0.02539999999999999897 ), #163 );
#290 = DIRECTION ( 'NONE',  ( -0.000000000000000000, -1.000000000000000000, -0.000000000000000000 ) ) ;
#291 = LENGTH_MEASURE_WITH_UNIT ( LENGTH_MEASURE( 0.02539999999999999897 ), #263 );
#292 = AXIS2_PLACEMENT_3D ( 'NONE', #288, #60, #185 ) ;
#293 = PRESENTATION_LAYER_ASSIGNMENT (  '', '', ( #174 ) ) ;
#294 = ADVANCED_FACE ( 'NONE', ( #73 ), #236, .T. ) ;
#295 = PRESENTATION_LAYER_ASSIGNMENT (  '', '', ( #256 ) ) ;
#296 = CARTESIAN_POINT ( 'NONE',  ( 3.061616997868383018E-17, 0.000000000000000000, 0.2500000000000000000 ) ) ;
#297 = UNCERTAINTY_MEASURE_WITH_UNIT (LENGTH_MEASURE( 1.000000000000000082E-05 ), #98, 'distance_accuracy_value', 'NONE');
#298 =( CONVERSION_BASED_UNIT ( 'INCH', #201 ) LENGTH_UNIT ( ) NAMED_UNIT ( #248 ) );
#299 = PRESENTATION_STYLE_ASSIGNMENT (( #203 ) ) ;
#300 = CIRCLE ( 'NONE', #219, 0.2499999999999999722 ) ;
#301 = CARTESIAN_POINT ( 'NONE',  ( 0.000000000000000000, 0.000000000000000000, 0.000000000000000000 ) ) ;
#302 = DIRECTION ( 'NONE',  ( -1.000000000000000000, 0.000000000000000000, 0.000000000000000000 ) ) ;
#303 = PLANE ( 'NONE',  #292 ) ;
#304 = UNCERTAINTY_MEASURE_WITH_UNIT (LENGTH_MEASURE( 1.000000000000000082E-05 ), #298, 'distance_accuracy_value', 'NONE');
#305 = PRESENTATION_STYLE_ASSIGNMENT (( #10 ) ) ;
#306 = ORIENTED_EDGE ( 'NONE', *, *, #78, .F. ) ;
#307 = COLOUR_RGB ( '',0.7921568627450980005, 0.8196078431372548767, 0.9333333333333333481 ) ;
#308 = COLOUR_RGB ( '',1.000000000000000000, 0.000000000000000000, 0.000000000000000000 ) ;
#309 = UNCERTAINTY_MEASURE_WITH_UNIT (LENGTH_MEASURE( 1.000000000000000082E-05 ), #244, 'distance_accuracy_value', 'NONE');
ENDSEC;
END-ISO-10303-21;
