ISO-10303-21;
HEADER;
FILE_DESCRIPTION (( 'STEP AP214' ),
    '1' );
FILE_NAME ('59943.STEP',
    '2023-06-23T00:10:38',
    ( '' ),
    ( '' ),
    'SwSTEP 2.0',
    'SolidWorks 2023',
    '' );
FILE_SCHEMA (( 'AUTOMOTIVE_DESIGN' ));
ENDSEC;

DATA;
#1 = EDGE_CURVE ( 'NONE', #114, #132, #119, .T. ) ;
#2 = DIMENSIONAL_EXPONENTS ( 1.000000000000000000, 0.000000000000000000, 0.000000000000000000, 0.000000000000000000, 0.000000000000000000, 0.000000000000000000, 0.000000000000000000 ) ;
#3 = COLOUR_RGB ( '',0.7921568627450980005, 0.8196078431372548767, 0.9333333333333333481 ) ;
#4 = DIRECTION ( 'NONE',  ( -1.000000000000000000, -3.498990854706722745E-17, 0.000000000000000000 ) ) ;
#5 = CARTESIAN_POINT ( 'NONE',  ( 0.000000000000000000, 0.7500000000000001110, 0.000000000000000000 ) ) ;
#6 = LENGTH_MEASURE_WITH_UNIT ( LENGTH_MEASURE( 0.02539999999999999897 ), #226 );
#7 = CARTESIAN_POINT ( 'NONE',  ( 0.000000000000000000, 0.7500000000000001110, 0.000000000000000000 ) ) ;
#8 = ADVANCED_FACE ( 'NONE', ( #255 ), #58, .T. ) ;
#9 = SURFACE_STYLE_USAGE ( .BOTH. , #201 ) ;
#10 = UNCERTAINTY_MEASURE_WITH_UNIT (LENGTH_MEASURE( 1.000000000000000082E-05 ), #206, 'distance_accuracy_value', 'NONE');
#11 = AXIS2_PLACEMENT_3D ( 'NONE', #57, #309, #88 ) ;
#12 =( NAMED_UNIT ( * ) PLANE_ANGLE_UNIT ( ) SI_UNIT ( $, .RADIAN. ) );
#13 = EDGE_CURVE ( 'NONE', #284, #198, #243, .T. ) ;
#14 = DIRECTION ( 'NONE',  ( -1.000000000000000000, 0.000000000000000000, 0.000000000000000000 ) ) ;
#15 = CYLINDRICAL_SURFACE ( 'NONE', #277, 0.1875000000000000278 ) ;
#16 = CARTESIAN_POINT ( 'NONE',  ( 0.000000000000000000, 0.000000000000000000, 0.000000000000000000 ) ) ;
#17 =( GEOMETRIC_REPRESENTATION_CONTEXT ( 3 ) GLOBAL_UNCERTAINTY_ASSIGNED_CONTEXT ( ( #214 ) ) GLOBAL_UNIT_ASSIGNED_CONTEXT ( ( #269, #12, #124 ) ) REPRESENTATION_CONTEXT ( 'NONE', 'WORKASPACE' ) );
#18 = AXIS2_PLACEMENT_3D ( 'NONE', #63, #154, #123 ) ;
#19 = DIMENSIONAL_EXPONENTS ( 1.000000000000000000, 0.000000000000000000, 0.000000000000000000, 0.000000000000000000, 0.000000000000000000, 0.000000000000000000, 0.000000000000000000 ) ;
#20 = VERTEX_POINT ( 'NONE', #67 ) ;
#21 = VERTEX_POINT ( 'NONE', #227 ) ;
#22 = STYLED_ITEM ( 'NONE', ( #179 ), #48 ) ;
#23 = COLOUR_RGB ( '',0.7921568627450980005, 0.8196078431372548767, 0.9333333333333333481 ) ;
#24 = PRESENTATION_LAYER_ASSIGNMENT (  '', '', ( #139 ) ) ;
#25 = EDGE_LOOP ( 'NONE', ( #166, #248, #153, #147 ) ) ;
#26 = UNCERTAINTY_MEASURE_WITH_UNIT (LENGTH_MEASURE( 1.000000000000000082E-05 ), #181, 'distance_accuracy_value', 'NONE');
#27 = FILL_AREA_STYLE ('',( #233 ) ) ;
#28 = DIRECTION ( 'NONE',  ( -3.498990854706722745E-17, 1.000000000000000000, -0.000000000000000000 ) ) ;
#29 =( NAMED_UNIT ( * ) PLANE_ANGLE_UNIT ( ) SI_UNIT ( $, .RADIAN. ) );
#30 = AXIS2_PLACEMENT_3D ( 'NONE', #93, #258, #176 ) ;
#31 = ADVANCED_FACE ( 'NONE', ( #39 ), #193, .T. ) ;
#32 =( LENGTH_UNIT ( ) NAMED_UNIT ( * ) SI_UNIT ( $, .METRE. ) );
#33 = CIRCLE ( 'NONE', #125, 0.1875000000000000278 ) ;
#34 = DIRECTION ( 'NONE',  ( 0.000000000000000000, 0.000000000000000000, -1.000000000000000000 ) ) ;
#35 =( GEOMETRIC_REPRESENTATION_CONTEXT ( 3 ) GLOBAL_UNCERTAINTY_ASSIGNED_CONTEXT ( ( #126 ) ) GLOBAL_UNIT_ASSIGNED_CONTEXT ( ( #109, #300, #294 ) ) REPRESENTATION_CONTEXT ( 'NONE', 'WORKASPACE' ) );
#36 = AXIS2_PLACEMENT_3D ( 'NONE', #16, #120, #101 ) ;
#37 = SURFACE_SIDE_STYLE ('',( #273 ) ) ;
#38 = EDGE_LOOP ( 'NONE', ( #303, #40 ) ) ;
#39 = FACE_OUTER_BOUND ( 'NONE', #38, .T. ) ;
#40 = ORIENTED_EDGE ( 'NONE', *, *, #62, .F. ) ;
#41 = DIRECTION ( 'NONE',  ( -3.498990854706722745E-17, 1.000000000000000000, -0.000000000000000000 ) ) ;
#42 = FILL_AREA_STYLE_COLOUR ( '', #185 ) ;
#43 = CLOSED_SHELL ( 'NONE', ( #177, #31, #8, #115 ) ) ;
#44 = CARTESIAN_POINT ( 'NONE',  ( 2.296212748401287726E-17, 0.000000000000000000, 0.1875000000000000278 ) ) ;
#45 = ADVANCED_FACE ( 'NONE', ( #141 ), #240, .T. ) ;
#46 = PRODUCT_DEFINITION_CONTEXT ( 'detailed design', #268, 'design' ) ;
#47 = CARTESIAN_POINT ( 'NONE',  ( -7.582401355855259480E-33, 0.7499999999999998890, 0.000000000000000000 ) ) ;
#48 = MANIFOLD_SOLID_BREP ( 'Revolve - Tool Body (Straight Shanked)', #77 ) ;
#49 = CARTESIAN_POINT ( 'NONE',  ( 0.1875000000000000278, 2.500000000000000000, 2.296212748401288342E-17 ) ) ;
#50 = LENGTH_MEASURE_WITH_UNIT ( LENGTH_MEASURE( 0.02539999999999999897 ), #234 );
#51 = STYLED_ITEM ( 'NONE', ( #75 ), #115 ) ;
#52 = EDGE_LOOP ( 'NONE', ( #267, #151 ) ) ;
#53 = CARTESIAN_POINT ( 'NONE',  ( 0.000000000000000000, 0.7500000000000001110, 0.000000000000000000 ) ) ;
#54 = CARTESIAN_POINT ( 'NONE',  ( 0.000000000000000000, 0.000000000000000000, 0.000000000000000000 ) ) ;
#55 =( NAMED_UNIT ( * ) PLANE_ANGLE_UNIT ( ) SI_UNIT ( $, .RADIAN. ) );
#56 = FILL_AREA_STYLE_COLOUR ( '', #295 ) ;
#57 = CARTESIAN_POINT ( 'NONE',  ( -6.123233995736766036E-17, 2.500000000000000000, 0.000000000000000000 ) ) ;
#58 = CYLINDRICAL_SURFACE ( 'NONE', #18, 0.1875000000000000278 ) ;
#59 = EDGE_CURVE ( 'NONE', #219, #114, #282, .T. ) ;
#60 =( GEOMETRIC_REPRESENTATION_CONTEXT ( 3 ) GLOBAL_UNCERTAINTY_ASSIGNED_CONTEXT ( ( #26 ) ) GLOBAL_UNIT_ASSIGNED_CONTEXT ( ( #181, #64, #111 ) ) REPRESENTATION_CONTEXT ( 'NONE', 'WORKASPACE' ) );
#61 = ADVANCED_BREP_SHAPE_REPRESENTATION ( '59943', ( #156, #48, #113 ), #178 ) ;
#62 = EDGE_CURVE ( 'NONE', #284, #232, #275, .T. ) ;
#63 = CARTESIAN_POINT ( 'NONE',  ( 0.000000000000000000, 0.000000000000000000, 0.000000000000000000 ) ) ;
#64 =( NAMED_UNIT ( * ) PLANE_ANGLE_UNIT ( ) SI_UNIT ( $, .RADIAN. ) );
#65 = ORIENTED_EDGE ( 'NONE', *, *, #222, .F. ) ;
#66 = COLOUR_RGB ( '',1.000000000000000000, 0.000000000000000000, 0.000000000000000000 ) ;
#67 = CARTESIAN_POINT ( 'NONE',  ( -0.1875000000000000278, 0.7499999999999998890, 0.000000000000000000 ) ) ;
#68 = APPLICATION_CONTEXT ( 'automotive_design' ) ;
#69 = PRESENTATION_LAYER_ASSIGNMENT (  '', '', ( #207 ) ) ;
#70 = DIRECTION ( 'NONE',  ( 1.000000000000000000, 3.498990854706722745E-17, 0.000000000000000000 ) ) ;
#71 = ORIENTED_EDGE ( 'NONE', *, *, #59, .F. ) ;
#72 = STYLED_ITEM ( 'NONE', ( #212 ), #31 ) ;
#73 = FILL_AREA_STYLE_COLOUR ( '', #66 ) ;
#74 =( NAMED_UNIT ( * ) PLANE_ANGLE_UNIT ( ) SI_UNIT ( $, .RADIAN. ) );
#75 = PRESENTATION_STYLE_ASSIGNMENT (( #202 ) ) ;
#76 =( LENGTH_UNIT ( ) NAMED_UNIT ( * ) SI_UNIT ( $, .METRE. ) );
#77 = CLOSED_SHELL ( 'NONE', ( #45, #108, #285, #89 ) ) ;
#78 = DIRECTION ( 'NONE',  ( -0.000000000000000000, -1.000000000000000000, -0.000000000000000000 ) ) ;
#79 = EDGE_LOOP ( 'NONE', ( #71, #86, #175, #131 ) ) ;
#80 = FILL_AREA_STYLE_COLOUR ( '', #3 ) ;
#81 = EDGE_CURVE ( 'NONE', #198, #21, #162, .T. ) ;
#82 = LENGTH_MEASURE_WITH_UNIT ( LENGTH_MEASURE( 0.02539999999999999897 ), #76 );
#83 = PRESENTATION_LAYER_ASSIGNMENT (  '', '', ( #229 ) ) ;
#84 = ORIENTED_EDGE ( 'NONE', *, *, #250, .F. ) ;
#85 = DIMENSIONAL_EXPONENTS ( 1.000000000000000000, 0.000000000000000000, 0.000000000000000000, 0.000000000000000000, 0.000000000000000000, 0.000000000000000000, 0.000000000000000000 ) ;
#86 = ORIENTED_EDGE ( 'NONE', *, *, #250, .T. ) ;
#87 = DIRECTION ( 'NONE',  ( -3.498990854706722745E-17, 1.000000000000000000, -0.000000000000000000 ) ) ;
#88 = DIRECTION ( 'NONE',  ( -1.000000000000000000, 0.000000000000000000, 0.000000000000000000 ) ) ;
#89 = ADVANCED_FACE ( 'NONE', ( #274 ), #288, .F. ) ;
#90 = CARTESIAN_POINT ( 'NONE',  ( 0.1874999999999999722, 2.500000000000000000, 2.296212748401288034E-17 ) ) ;
#91 = DIRECTION ( 'NONE',  ( -3.498990854706722745E-17, 1.000000000000000000, -0.000000000000000000 ) ) ;
#92 = LENGTH_MEASURE_WITH_UNIT ( LENGTH_MEASURE( 0.02539999999999999897 ), #183 );
#93 = CARTESIAN_POINT ( 'NONE',  ( 0.000000000000000000, 0.000000000000000000, 0.000000000000000000 ) ) ;
#94 =( CONVERSION_BASED_UNIT ( 'INCH', #92 ) LENGTH_UNIT ( ) NAMED_UNIT ( #85 ) );
#95 = SURFACE_STYLE_FILL_AREA ( #213 ) ;
#96 = EDGE_CURVE ( 'NONE', #232, #21, #172, .T. ) ;
#97 = EDGE_LOOP ( 'NONE', ( #249, #84 ) ) ;
#98 = CARTESIAN_POINT ( 'NONE',  ( 2.296212748401287726E-17, 0.000000000000000000, 0.1875000000000000278 ) ) ;
#99 = VECTOR ( 'NONE', #146, 39.37007874015748143 ) ;
#100 = PRESENTATION_LAYER_ASSIGNMENT (  '', '', ( #51 ) ) ;
#101 = DIRECTION ( 'NONE',  ( 0.000000000000000000, 0.000000000000000000, -1.000000000000000000 ) ) ;
#102 = DIRECTION ( 'NONE',  ( -0.000000000000000000, -1.000000000000000000, -0.000000000000000000 ) ) ;
#103 = SURFACE_STYLE_FILL_AREA ( #118 ) ;
#104 = DIRECTION ( 'NONE',  ( -0.000000000000000000, -1.000000000000000000, -0.000000000000000000 ) ) ;
#105 = CARTESIAN_POINT ( 'NONE',  ( 0.1875000000000000278, 0.7499999999999998890, 2.296212748401288342E-17 ) ) ;
#106 = DIRECTION ( 'NONE',  ( -0.000000000000000000, -1.000000000000000000, -0.000000000000000000 ) ) ;
#107 =( GEOMETRIC_REPRESENTATION_CONTEXT ( 3 ) GLOBAL_UNCERTAINTY_ASSIGNED_CONTEXT ( ( #10 ) ) GLOBAL_UNIT_ASSIGNED_CONTEXT ( ( #206, #74, #235 ) ) REPRESENTATION_CONTEXT ( 'NONE', 'WORKASPACE' ) );
#108 = ADVANCED_FACE ( 'NONE', ( #199 ), #293, .F. ) ;
#109 =( CONVERSION_BASED_UNIT ( 'INCH', #299 ) LENGTH_UNIT ( ) NAMED_UNIT ( #290 ) );
#110 = CARTESIAN_POINT ( 'NONE',  ( -7.582401355855259480E-33, 0.7499999999999998890, 0.000000000000000000 ) ) ;
#111 =( NAMED_UNIT ( * ) SI_UNIT ( $, .STERADIAN. ) SOLID_ANGLE_UNIT ( ) );
#112 = FILL_AREA_STYLE_COLOUR ( '', #137 ) ;
#113 = AXIS2_PLACEMENT_3D ( 'NONE', #298, #204, #247 ) ;
#114 = VERTEX_POINT ( 'NONE', #49 ) ;
#115 = ADVANCED_FACE ( 'NONE', ( #122 ), #144, .T. ) ;
#116 = MECHANICAL_DESIGN_GEOMETRIC_PRESENTATION_REPRESENTATION (  '', ( #229 ), #107 ) ;
#117 = DIRECTION ( 'NONE',  ( 0.000000000000000000, 0.000000000000000000, -1.000000000000000000 ) ) ;
#118 = FILL_AREA_STYLE ('',( #73 ) ) ;
#119 = CIRCLE ( 'NONE', #171, 0.1875000000000000833 ) ;
#120 = DIRECTION ( 'NONE',  ( 0.000000000000000000, -1.000000000000000000, -0.000000000000000000 ) ) ;
#121 = CARTESIAN_POINT ( 'NONE',  ( -0.1875000000000001110, 2.500000000000000000, 0.000000000000000000 ) ) ;
#122 = FACE_OUTER_BOUND ( 'NONE', #52, .T. ) ;
#123 = DIRECTION ( 'NONE',  ( 0.000000000000000000, 0.000000000000000000, -1.000000000000000000 ) ) ;
#124 =( NAMED_UNIT ( * ) SI_UNIT ( $, .STERADIAN. ) SOLID_ANGLE_UNIT ( ) );
#125 = AXIS2_PLACEMENT_3D ( 'NONE', #54, #78, #142 ) ;
#126 = UNCERTAINTY_MEASURE_WITH_UNIT (LENGTH_MEASURE( 1.000000000000000082E-05 ), #109, 'distance_accuracy_value', 'NONE');
#127 = DIMENSIONAL_EXPONENTS ( 1.000000000000000000, 0.000000000000000000, 0.000000000000000000, 0.000000000000000000, 0.000000000000000000, 0.000000000000000000, 0.000000000000000000 ) ;
#128 = ORIENTED_EDGE ( 'NONE', *, *, #13, .F. ) ;
#129 = DIRECTION ( 'NONE',  ( -1.000000000000000000, 0.000000000000000000, 0.000000000000000000 ) ) ;
#130 = SURFACE_SIDE_STYLE ('',( #160 ) ) ;
#131 = ORIENTED_EDGE ( 'NONE', *, *, #1, .F. ) ;
#132 = VERTEX_POINT ( 'NONE', #266 ) ;
#133 = AXIS2_PLACEMENT_3D ( 'NONE', #47, #91, #159 ) ;
#134 = EDGE_CURVE ( 'NONE', #21, #198, #33, .T. ) ;
#135 = CARTESIAN_POINT ( 'NONE',  ( -6.123233995736766036E-17, 2.500000000000000000, 0.000000000000000000 ) ) ;
#136 = EDGE_LOOP ( 'NONE', ( #259, #272 ) ) ;
#137 = COLOUR_RGB ( '',1.000000000000000000, 0.000000000000000000, 0.000000000000000000 ) ;
#138 = DIRECTION ( 'NONE',  ( 0.000000000000000000, -0.000000000000000000, 1.000000000000000000 ) ) ;
#139 = STYLED_ITEM ( 'NONE', ( #196 ), #156 ) ;
#140 = SURFACE_STYLE_USAGE ( .BOTH. , #278 ) ;
#141 = FACE_OUTER_BOUND ( 'NONE', #264, .T. ) ;
#142 = DIRECTION ( 'NONE',  ( 0.000000000000000000, 0.000000000000000000, -1.000000000000000000 ) ) ;
#143 = FACE_OUTER_BOUND ( 'NONE', #25, .T. ) ;
#144 = PLANE ( 'NONE',  #36 ) ;
#145 = CARTESIAN_POINT ( 'NONE',  ( 0.000000000000000000, 0.000000000000000000, 0.000000000000000000 ) ) ;
#146 = DIRECTION ( 'NONE',  ( -3.498990854706722745E-17, 1.000000000000000000, -0.000000000000000000 ) ) ;
#147 = ORIENTED_EDGE ( 'NONE', *, *, #96, .F. ) ;
#148 = CARTESIAN_POINT ( 'NONE',  ( 1.147775343873870291E-34, 0.7500000000000001110, 0.000000000000000000 ) ) ;
#149 = MECHANICAL_DESIGN_GEOMETRIC_PRESENTATION_REPRESENTATION (  '', ( #72 ), #263 ) ;
#150 = FILL_AREA_STYLE ('',( #80 ) ) ;
#151 = ORIENTED_EDGE ( 'NONE', *, *, #81, .T. ) ;
#152 = VECTOR ( 'NONE', #28, 39.37007874015748143 ) ;
#153 = ORIENTED_EDGE ( 'NONE', *, *, #134, .F. ) ;
#154 = DIRECTION ( 'NONE',  ( -0.000000000000000000, -1.000000000000000000, -0.000000000000000000 ) ) ;
#155 = MECHANICAL_DESIGN_GEOMETRIC_PRESENTATION_REPRESENTATION (  '', ( #22 ), #60 ) ;
#156 = MANIFOLD_SOLID_BREP ( 'Revolve - Cutting Edge', #43 ) ;
#157 = MECHANICAL_DESIGN_GEOMETRIC_PRESENTATION_REPRESENTATION (  '', ( #51 ), #17 ) ;
#158 = ORIENTED_EDGE ( 'NONE', *, *, #81, .F. ) ;
#159 = DIRECTION ( 'NONE',  ( -1.000000000000000000, 0.000000000000000000, 0.000000000000000000 ) ) ;
#160 = SURFACE_STYLE_FILL_AREA ( #189 ) ;
#161 = UNCERTAINTY_MEASURE_WITH_UNIT (LENGTH_MEASURE( 1.000000000000000082E-05 ), #194, 'distance_accuracy_value', 'NONE');
#162 = CIRCLE ( 'NONE', #30, 0.1875000000000000278 ) ;
#163 =( NAMED_UNIT ( * ) PLANE_ANGLE_UNIT ( ) SI_UNIT ( $, .RADIAN. ) );
#164 = PRODUCT_DEFINITION_FORMATION_WITH_SPECIFIED_SOURCE ( 'ANY', '', #223, .NOT_KNOWN. ) ;
#165 = SHAPE_DEFINITION_REPRESENTATION ( #216, #61 ) ;
#166 = ORIENTED_EDGE ( 'NONE', *, *, #187, .T. ) ;
#167 = EDGE_CURVE ( 'NONE', #20, #132, #297, .T. ) ;
#168 = AXIS2_PLACEMENT_3D ( 'NONE', #148, #191, #4 ) ;
#169 = UNCERTAINTY_MEASURE_WITH_UNIT (LENGTH_MEASURE( 1.000000000000000082E-05 ), #236, 'distance_accuracy_value', 'NONE');
#170 = PRESENTATION_STYLE_ASSIGNMENT (( #9 ) ) ;
#171 = AXIS2_PLACEMENT_3D ( 'NONE', #209, #304, #129 ) ;
#172 = LINE ( 'NONE', #271, #252 ) ;
#173 = ORIENTED_EDGE ( 'NONE', *, *, #257, .T. ) ;
#174 =( LENGTH_UNIT ( ) NAMED_UNIT ( * ) SI_UNIT ( $, .METRE. ) );
#175 = ORIENTED_EDGE ( 'NONE', *, *, #167, .T. ) ;
#176 = DIRECTION ( 'NONE',  ( 0.000000000000000000, 0.000000000000000000, -1.000000000000000000 ) ) ;
#177 = ADVANCED_FACE ( 'NONE', ( #143 ), #15, .T. ) ;
#178 =( GEOMETRIC_REPRESENTATION_CONTEXT ( 3 ) GLOBAL_UNCERTAINTY_ASSIGNED_CONTEXT ( ( #161 ) ) GLOBAL_UNIT_ASSIGNED_CONTEXT ( ( #194, #29, #239 ) ) REPRESENTATION_CONTEXT ( 'NONE', 'WORKASPACE' ) );
#179 = PRESENTATION_STYLE_ASSIGNMENT (( #270 ) ) ;
#180 = SURFACE_STYLE_FILL_AREA ( #150 ) ;
#181 =( CONVERSION_BASED_UNIT ( 'INCH', #225 ) LENGTH_UNIT ( ) NAMED_UNIT ( #19 ) );
#182 = FACE_OUTER_BOUND ( 'NONE', #79, .T. ) ;
#183 =( LENGTH_UNIT ( ) NAMED_UNIT ( * ) SI_UNIT ( $, .METRE. ) );
#184 = PRODUCT_DEFINITION ( 'UNKNOWN', '', #164, #46 ) ;
#185 = COLOUR_RGB ( '',1.000000000000000000, 0.000000000000000000, 0.000000000000000000 ) ;
#186 = AXIS2_PLACEMENT_3D ( 'NONE', #7, #220, #195 ) ;
#187 = EDGE_CURVE ( 'NONE', #232, #284, #281, .T. ) ;
#188 = ORIENTED_EDGE ( 'NONE', *, *, #167, .F. ) ;
#189 = FILL_AREA_STYLE ('',( #42 ) ) ;
#190 = UNCERTAINTY_MEASURE_WITH_UNIT (LENGTH_MEASURE( 1.000000000000000082E-05 ), #94, 'distance_accuracy_value', 'NONE');
#191 = DIRECTION ( 'NONE',  ( -3.498990854706722745E-17, 1.000000000000000000, 0.000000000000000000 ) ) ;
#192 = CARTESIAN_POINT ( 'NONE',  ( -6.123233995736766036E-17, 2.500000000000000000, 0.000000000000000000 ) ) ;
#193 = PLANE ( 'NONE',  #286 ) ;
#194 =( CONVERSION_BASED_UNIT ( 'INCH', #6 ) LENGTH_UNIT ( ) NAMED_UNIT ( #2 ) );
#195 = DIRECTION ( 'NONE',  ( 0.000000000000000000, 0.000000000000000000, -1.000000000000000000 ) ) ;
#196 = PRESENTATION_STYLE_ASSIGNMENT (( #140 ) ) ;
#197 = CIRCLE ( 'NONE', #307, 0.1875000000000000278 ) ;
#198 = VERTEX_POINT ( 'NONE', #98 ) ;
#199 = FACE_OUTER_BOUND ( 'NONE', #97, .T. ) ;
#200 = PRESENTATION_STYLE_ASSIGNMENT (( #276 ) ) ;
#201 = SURFACE_SIDE_STYLE ('',( #103 ) ) ;
#202 = SURFACE_STYLE_USAGE ( .BOTH. , #244 ) ;
#203 = MECHANICAL_DESIGN_GEOMETRIC_PRESENTATION_REPRESENTATION (  '', ( #139 ), #218 ) ;
#204 = DIRECTION ( 'NONE',  ( 0.000000000000000000, 0.000000000000000000, 1.000000000000000000 ) ) ;
#205 = SURFACE_SIDE_STYLE ('',( #246 ) ) ;
#206 =( CONVERSION_BASED_UNIT ( 'INCH', #82 ) LENGTH_UNIT ( ) NAMED_UNIT ( #127 ) );
#207 = STYLED_ITEM ( 'NONE', ( #200 ), #8 ) ;
#208 = FILL_AREA_STYLE ('',( #112 ) ) ;
#209 = CARTESIAN_POINT ( 'NONE',  ( -6.123233995736766036E-17, 2.500000000000000000, 0.000000000000000000 ) ) ;
#210 = VECTOR ( 'NONE', #279, 39.37007874015748143 ) ;
#211 = AXIS2_PLACEMENT_3D ( 'NONE', #192, #41, #289 ) ;
#212 = PRESENTATION_STYLE_ASSIGNMENT (( #306 ) ) ;
#213 = FILL_AREA_STYLE ('',( #56 ) ) ;
#214 = UNCERTAINTY_MEASURE_WITH_UNIT (LENGTH_MEASURE( 1.000000000000000082E-05 ), #269, 'distance_accuracy_value', 'NONE');
#215 = ORIENTED_EDGE ( 'NONE', *, *, #96, .T. ) ;
#216 = PRODUCT_DEFINITION_SHAPE ( 'NONE', 'NONE',  #184 ) ;
#217 =( NAMED_UNIT ( * ) SI_UNIT ( $, .STERADIAN. ) SOLID_ANGLE_UNIT ( ) );
#218 =( GEOMETRIC_REPRESENTATION_CONTEXT ( 3 ) GLOBAL_UNCERTAINTY_ASSIGNED_CONTEXT ( ( #169 ) ) GLOBAL_UNIT_ASSIGNED_CONTEXT ( ( #236, #55, #292 ) ) REPRESENTATION_CONTEXT ( 'NONE', 'WORKASPACE' ) );
#219 = VERTEX_POINT ( 'NONE', #105 ) ;
#220 = DIRECTION ( 'NONE',  ( -0.000000000000000000, -1.000000000000000000, -0.000000000000000000 ) ) ;
#221 = ORIENTED_EDGE ( 'NONE', *, *, #62, .T. ) ;
#222 = EDGE_CURVE ( 'NONE', #132, #114, #265, .T. ) ;
#223 = PRODUCT ( '59943', '59943', '', ( #280 ) ) ;
#224 = AXIS2_PLACEMENT_3D ( 'NONE', #237, #241, #70 ) ;
#225 = LENGTH_MEASURE_WITH_UNIT ( LENGTH_MEASURE( 0.02539999999999999897 ), #308 );
#226 =( LENGTH_UNIT ( ) NAMED_UNIT ( * ) SI_UNIT ( $, .METRE. ) );
#227 = CARTESIAN_POINT ( 'NONE',  ( 0.000000000000000000, 0.000000000000000000, -0.1875000000000000278 ) ) ;
#228 = MECHANICAL_DESIGN_GEOMETRIC_PRESENTATION_REPRESENTATION (  '', ( #207 ), #35 ) ;
#229 = STYLED_ITEM ( 'NONE', ( #170 ), #177 ) ;
#230 = LENGTH_MEASURE_WITH_UNIT ( LENGTH_MEASURE( 0.02539999999999999897 ), #32 );
#231 = DIMENSIONAL_EXPONENTS ( 1.000000000000000000, 0.000000000000000000, 0.000000000000000000, 0.000000000000000000, 0.000000000000000000, 0.000000000000000000, 0.000000000000000000 ) ;
#232 = VERTEX_POINT ( 'NONE', #305 ) ;
#233 = FILL_AREA_STYLE_COLOUR ( '', #23 ) ;
#234 =( LENGTH_UNIT ( ) NAMED_UNIT ( * ) SI_UNIT ( $, .METRE. ) );
#235 =( NAMED_UNIT ( * ) SI_UNIT ( $, .STERADIAN. ) SOLID_ANGLE_UNIT ( ) );
#236 =( CONVERSION_BASED_UNIT ( 'INCH', #50 ) LENGTH_UNIT ( ) NAMED_UNIT ( #231 ) );
#237 = CARTESIAN_POINT ( 'NONE',  ( 0.1875000000000000278, 2.500000000000000000, 0.000000000000000000 ) ) ;
#238 = PRESENTATION_LAYER_ASSIGNMENT (  '', '', ( #72 ) ) ;
#239 =( NAMED_UNIT ( * ) SI_UNIT ( $, .STERADIAN. ) SOLID_ANGLE_UNIT ( ) );
#240 = CYLINDRICAL_SURFACE ( 'NONE', #245, 0.1875000000000000555 ) ;
#241 = DIRECTION ( 'NONE',  ( 3.498990854706722745E-17, -1.000000000000000000, 0.000000000000000000 ) ) ;
#242 = APPLICATION_PROTOCOL_DEFINITION ( 'draft international standard', 'automotive_design', 1998, #68 ) ;
#243 = LINE ( 'NONE', #44, #210 ) ;
#244 = SURFACE_SIDE_STYLE ('',( #95 ) ) ;
#245 = AXIS2_PLACEMENT_3D ( 'NONE', #135, #261, #14 ) ;
#246 = SURFACE_STYLE_FILL_AREA ( #27 ) ;
#247 = DIRECTION ( 'NONE',  ( 1.000000000000000000, 0.000000000000000000, 0.000000000000000000 ) ) ;
#248 = ORIENTED_EDGE ( 'NONE', *, *, #13, .T. ) ;
#249 = ORIENTED_EDGE ( 'NONE', *, *, #257, .F. ) ;
#250 = EDGE_CURVE ( 'NONE', #219, #20, #197, .T. ) ;
#251 = PRESENTATION_LAYER_ASSIGNMENT (  '', '', ( #22 ) ) ;
#252 = VECTOR ( 'NONE', #104, 39.37007874015748143 ) ;
#253 = ORIENTED_EDGE ( 'NONE', *, *, #59, .T. ) ;
#254 = CYLINDRICAL_SURFACE ( 'NONE', #211, 0.1875000000000000555 ) ;
#255 = FACE_OUTER_BOUND ( 'NONE', #296, .T. ) ;
#256 = CARTESIAN_POINT ( 'NONE',  ( 2.296212748401287726E-17, 0.7500000000000001110, 0.1875000000000000278 ) ) ;
#257 = EDGE_CURVE ( 'NONE', #20, #219, #287, .T. ) ;
#258 = DIRECTION ( 'NONE',  ( -0.000000000000000000, -1.000000000000000000, -0.000000000000000000 ) ) ;
#259 = ORIENTED_EDGE ( 'NONE', *, *, #222, .T. ) ;
#260 = DIMENSIONAL_EXPONENTS ( 1.000000000000000000, 0.000000000000000000, 0.000000000000000000, 0.000000000000000000, 0.000000000000000000, 0.000000000000000000, 0.000000000000000000 ) ;
#261 = DIRECTION ( 'NONE',  ( -3.498990854706722745E-17, 1.000000000000000000, -0.000000000000000000 ) ) ;
#262 = APPLICATION_PROTOCOL_DEFINITION ( 'draft international standard', 'automotive_design', 1998, #268 ) ;
#263 =( GEOMETRIC_REPRESENTATION_CONTEXT ( 3 ) GLOBAL_UNCERTAINTY_ASSIGNED_CONTEXT ( ( #190 ) ) GLOBAL_UNIT_ASSIGNED_CONTEXT ( ( #94, #163, #217 ) ) REPRESENTATION_CONTEXT ( 'NONE', 'WORKASPACE' ) );
#264 = EDGE_LOOP ( 'NONE', ( #173, #253, #65, #188 ) ) ;
#265 = CIRCLE ( 'NONE', #11, 0.1875000000000000833 ) ;
#266 = CARTESIAN_POINT ( 'NONE',  ( -0.1875000000000001388, 2.500000000000000000, 0.000000000000000000 ) ) ;
#267 = ORIENTED_EDGE ( 'NONE', *, *, #134, .T. ) ;
#268 = APPLICATION_CONTEXT ( 'automotive_design' ) ;
#269 =( CONVERSION_BASED_UNIT ( 'INCH', #230 ) LENGTH_UNIT ( ) NAMED_UNIT ( #260 ) );
#270 = SURFACE_STYLE_USAGE ( .BOTH. , #205 ) ;
#271 = CARTESIAN_POINT ( 'NONE',  ( 0.000000000000000000, 0.000000000000000000, -0.1875000000000000278 ) ) ;
#272 = ORIENTED_EDGE ( 'NONE', *, *, #1, .T. ) ;
#273 = SURFACE_STYLE_FILL_AREA ( #208 ) ;
#274 = FACE_OUTER_BOUND ( 'NONE', #136, .T. ) ;
#275 = CIRCLE ( 'NONE', #302, 0.1875000000000000278 ) ;
#276 = SURFACE_STYLE_USAGE ( .BOTH. , #37 ) ;
#277 = AXIS2_PLACEMENT_3D ( 'NONE', #145, #102, #117 ) ;
#278 = SURFACE_SIDE_STYLE ('',( #180 ) ) ;
#279 = DIRECTION ( 'NONE',  ( -0.000000000000000000, -1.000000000000000000, -0.000000000000000000 ) ) ;
#280 = PRODUCT_CONTEXT ( 'NONE', #68, 'mechanical' ) ;
#281 = CIRCLE ( 'NONE', #186, 0.1875000000000000278 ) ;
#282 = LINE ( 'NONE', #90, #99 ) ;
#283 = DIRECTION ( 'NONE',  ( -1.000000000000000000, 0.000000000000000000, 0.000000000000000000 ) ) ;
#284 = VERTEX_POINT ( 'NONE', #256 ) ;
#285 = ADVANCED_FACE ( 'NONE', ( #182 ), #254, .T. ) ;
#286 = AXIS2_PLACEMENT_3D ( 'NONE', #53, #291, #138 ) ;
#287 = CIRCLE ( 'NONE', #133, 0.1875000000000000278 ) ;
#288 = PLANE ( 'NONE',  #224 ) ;
#289 = DIRECTION ( 'NONE',  ( -1.000000000000000000, 0.000000000000000000, 0.000000000000000000 ) ) ;
#290 = DIMENSIONAL_EXPONENTS ( 1.000000000000000000, 0.000000000000000000, 0.000000000000000000, 0.000000000000000000, 0.000000000000000000, 0.000000000000000000, 0.000000000000000000 ) ;
#291 = DIRECTION ( 'NONE',  ( 0.000000000000000000, 1.000000000000000000, 0.000000000000000000 ) ) ;
#292 =( NAMED_UNIT ( * ) SI_UNIT ( $, .STERADIAN. ) SOLID_ANGLE_UNIT ( ) );
#293 = PLANE ( 'NONE',  #168 ) ;
#294 =( NAMED_UNIT ( * ) SI_UNIT ( $, .STERADIAN. ) SOLID_ANGLE_UNIT ( ) );
#295 = COLOUR_RGB ( '',1.000000000000000000, 0.000000000000000000, 0.000000000000000000 ) ;
#296 = EDGE_LOOP ( 'NONE', ( #128, #221, #215, #158 ) ) ;
#297 = LINE ( 'NONE', #121, #152 ) ;
#298 = CARTESIAN_POINT ( 'NONE',  ( 0.000000000000000000, 0.000000000000000000, 0.000000000000000000 ) ) ;
#299 = LENGTH_MEASURE_WITH_UNIT ( LENGTH_MEASURE( 0.02539999999999999897 ), #174 );
#300 =( NAMED_UNIT ( * ) PLANE_ANGLE_UNIT ( ) SI_UNIT ( $, .RADIAN. ) );
#301 = PRODUCT_RELATED_PRODUCT_CATEGORY ( 'part', '', ( #223 ) ) ;
#302 = AXIS2_PLACEMENT_3D ( 'NONE', #5, #106, #34 ) ;
#303 = ORIENTED_EDGE ( 'NONE', *, *, #187, .F. ) ;
#304 = DIRECTION ( 'NONE',  ( -3.498990854706722745E-17, 1.000000000000000000, -0.000000000000000000 ) ) ;
#305 = CARTESIAN_POINT ( 'NONE',  ( 0.000000000000000000, 0.7500000000000001110, -0.1875000000000000278 ) ) ;
#306 = SURFACE_STYLE_USAGE ( .BOTH. , #130 ) ;
#307 = AXIS2_PLACEMENT_3D ( 'NONE', #110, #87, #283 ) ;
#308 =( LENGTH_UNIT ( ) NAMED_UNIT ( * ) SI_UNIT ( $, .METRE. ) );
#309 = DIRECTION ( 'NONE',  ( -3.498990854706722745E-17, 1.000000000000000000, -0.000000000000000000 ) ) ;
ENDSEC;
END-ISO-10303-21;
