ISO-10303-21;
HEADER;
FILE_DESCRIPTION (( 'STEP AP214' ),
    '1' );
FILE_NAME ('84768.STEP',
    '2023-06-30T23:53:06',
    ( '' ),
    ( '' ),
    'SwSTEP 2.0',
    'SolidWorks 2023',
    '' );
FILE_SCHEMA (( 'AUTOMOTIVE_DESIGN' ));
ENDSEC;

DATA;
#1 = ORIENTED_EDGE ( 'NONE', *, *, #49, .T. ) ;
#2 = DIRECTION ( 'NONE',  ( -2.449293598294705921E-17, 1.000000000000000000, -0.000000000000000000 ) ) ;
#3 = DIRECTION ( 'NONE',  ( -0.000000000000000000, -1.000000000000000000, -0.000000000000000000 ) ) ;
#4 = CIRCLE ( 'NONE', #286, 0.3124999999999996669 ) ;
#5 = ORIENTED_EDGE ( 'NONE', *, *, #195, .T. ) ;
#6 = SURFACE_SIDE_STYLE ('',( #43 ) ) ;
#7 = ORIENTED_EDGE ( 'NONE', *, *, #158, .F. ) ;
#8 = SHAPE_DEFINITION_REPRESENTATION ( #182, #130 ) ;
#9 = DIRECTION ( 'NONE',  ( 0.000000000000000000, -0.000000000000000000, 1.000000000000000000 ) ) ;
#10 = AXIS2_PLACEMENT_3D ( 'NONE', #306, #87, #224 ) ;
#11 = FACE_OUTER_BOUND ( 'NONE', #228, .T. ) ;
#12 = AXIS2_PLACEMENT_3D ( 'NONE', #67, #38, #352 ) ;
#13 = FILL_AREA_STYLE ('',( #156 ) ) ;
#14 = VERTEX_POINT ( 'NONE', #295 ) ;
#15 = SURFACE_STYLE_USAGE ( .BOTH. , #299 ) ;
#16 = ORIENTED_EDGE ( 'NONE', *, *, #280, .F. ) ;
#17 = LENGTH_MEASURE_WITH_UNIT ( LENGTH_MEASURE( 0.02539999999999999897 ), #70 );
#18 = DIMENSIONAL_EXPONENTS ( 1.000000000000000000, 0.000000000000000000, 0.000000000000000000, 0.000000000000000000, 0.000000000000000000, 0.000000000000000000, 0.000000000000000000 ) ;
#19 = AXIS2_PLACEMENT_3D ( 'NONE', #77, #169, #155 ) ;
#20 = ORIENTED_EDGE ( 'NONE', *, *, #214, .T. ) ;
#21 = DIRECTION ( 'NONE',  ( 1.000000000000000000, 0.000000000000000000, -1.224646799147353207E-16 ) ) ;
#22 = DIRECTION ( 'NONE',  ( -2.449293598294705921E-17, 1.000000000000000000, -0.000000000000000000 ) ) ;
#23 =( CONVERSION_BASED_UNIT ( 'INCH', #235 ) LENGTH_UNIT ( ) NAMED_UNIT ( #269 ) );
#24 = LINE ( 'NONE', #28, #329 ) ;
#25 = AXIS2_PLACEMENT_3D ( 'NONE', #300, #361, #21 ) ;
#26 =( CONVERSION_BASED_UNIT ( 'INCH', #331 ) LENGTH_UNIT ( ) NAMED_UNIT ( #220 ) );
#27 = SURFACE_SIDE_STYLE ('',( #141 ) ) ;
#28 = CARTESIAN_POINT ( 'NONE',  ( 0.000000000000000000, 0.000000000000000000, -0.3124999999999998890 ) ) ;
#29 = CARTESIAN_POINT ( 'NONE',  ( 0.3125000000000000000, 0.3125000000000000555, 0.000000000000000000 ) ) ;
#30 = ADVANCED_FACE ( 'NONE', ( #78 ), #48, .F. ) ;
#31 = DIRECTION ( 'NONE',  ( -0.000000000000000000, -1.000000000000000000, -0.000000000000000000 ) ) ;
#32 = AXIS2_PLACEMENT_3D ( 'NONE', #368, #92, #173 ) ;
#33 = APPLICATION_CONTEXT ( 'automotive_design' ) ;
#34 =( LENGTH_UNIT ( ) NAMED_UNIT ( * ) SI_UNIT ( $, .METRE. ) );
#35 = SURFACE_STYLE_USAGE ( .BOTH. , #6 ) ;
#36 = AXIS2_PLACEMENT_3D ( 'NONE', #174, #205, #37 ) ;
#37 = DIRECTION ( 'NONE',  ( -1.000000000000000000, 0.000000000000000000, 0.000000000000000000 ) ) ;
#38 = DIRECTION ( 'NONE',  ( 0.000000000000000000, 0.000000000000000000, 1.000000000000000000 ) ) ;
#39 = DIRECTION ( 'NONE',  ( 0.000000000000000000, 1.000000000000000000, 0.000000000000000000 ) ) ;
#40 = VERTEX_POINT ( 'NONE', #264 ) ;
#41 = APPLICATION_PROTOCOL_DEFINITION ( 'draft international standard', 'automotive_design', 1998, #271 ) ;
#42 = ADVANCED_FACE ( 'NONE', ( #11 ), #168, .F. ) ;
#43 = SURFACE_STYLE_FILL_AREA ( #260 ) ;
#44 = ORIENTED_EDGE ( 'NONE', *, *, #358, .F. ) ;
#45 = ORIENTED_EDGE ( 'NONE', *, *, #108, .F. ) ;
#46 = DIMENSIONAL_EXPONENTS ( 1.000000000000000000, 0.000000000000000000, 0.000000000000000000, 0.000000000000000000, 0.000000000000000000, 0.000000000000000000, 0.000000000000000000 ) ;
#47 = VECTOR ( 'NONE', #282, 39.37007874015748143 ) ;
#48 = PLANE ( 'NONE',  #57 ) ;
#49 = EDGE_CURVE ( 'NONE', #343, #259, #4, .T. ) ;
#50 =( LENGTH_UNIT ( ) NAMED_UNIT ( * ) SI_UNIT ( $, .METRE. ) );
#51 =( NAMED_UNIT ( * ) PLANE_ANGLE_UNIT ( ) SI_UNIT ( $, .RADIAN. ) );
#52 = AXIS2_PLACEMENT_3D ( 'NONE', #371, #83, #367 ) ;
#53 =( LENGTH_UNIT ( ) NAMED_UNIT ( * ) SI_UNIT ( $, .METRE. ) );
#54 =( LENGTH_UNIT ( ) NAMED_UNIT ( * ) SI_UNIT ( $, .METRE. ) );
#55 = EDGE_CURVE ( 'NONE', #216, #259, #165, .T. ) ;
#56 = CARTESIAN_POINT ( 'NONE',  ( 1.836970198721029688E-16, 3.500000000000000000, 0.000000000000000000 ) ) ;
#57 = AXIS2_PLACEMENT_3D ( 'NONE', #245, #188, #359 ) ;
#58 = ORIENTED_EDGE ( 'NONE', *, *, #140, .F. ) ;
#59 = CARTESIAN_POINT ( 'NONE',  ( -3.827021247335478926E-17, 0.3125000000000000000, 0.000000000000000000 ) ) ;
#60 = DIRECTION ( 'NONE',  ( -0.000000000000000000, -1.000000000000000000, -0.000000000000000000 ) ) ;
#61 =( NAMED_UNIT ( * ) SI_UNIT ( $, .STERADIAN. ) SOLID_ANGLE_UNIT ( ) );
#62 = ORIENTED_EDGE ( 'NONE', *, *, #214, .F. ) ;
#63 =( NAMED_UNIT ( * ) PLANE_ANGLE_UNIT ( ) SI_UNIT ( $, .RADIAN. ) );
#64 = CYLINDRICAL_SURFACE ( 'NONE', #36, 0.3124999999999996114 ) ;
#65 = DIRECTION ( 'NONE',  ( 0.000000000000000000, 0.000000000000000000, -1.000000000000000000 ) ) ;
#66 = ORIENTED_EDGE ( 'NONE', *, *, #158, .T. ) ;
#67 = CARTESIAN_POINT ( 'NONE',  ( -3.827021247335478926E-17, 0.3125000000000000000, 0.000000000000000000 ) ) ;
#68 = PRESENTATION_LAYER_ASSIGNMENT (  '', '', ( #253 ) ) ;
#69 = CARTESIAN_POINT ( 'NONE',  ( 0.000000000000000000, 0.000000000000000000, 0.000000000000000000 ) ) ;
#70 =( LENGTH_UNIT ( ) NAMED_UNIT ( * ) SI_UNIT ( $, .METRE. ) );
#71 = SURFACE_SIDE_STYLE ('',( #179 ) ) ;
#72 = DIMENSIONAL_EXPONENTS ( 1.000000000000000000, 0.000000000000000000, 0.000000000000000000, 0.000000000000000000, 0.000000000000000000, 0.000000000000000000, 0.000000000000000000 ) ;
#73 = ORIENTED_EDGE ( 'NONE', *, *, #218, .F. ) ;
#74 = DIRECTION ( 'NONE',  ( 0.000000000000000000, 0.000000000000000000, -1.000000000000000000 ) ) ;
#75 = CARTESIAN_POINT ( 'NONE',  ( 0.000000000000000000, 1.625000000000000000, 0.000000000000000000 ) ) ;
#76 = CIRCLE ( 'NONE', #138, 0.3124999999999996669 ) ;
#77 = CARTESIAN_POINT ( 'NONE',  ( 1.836970198721029688E-16, 3.500000000000000000, 0.000000000000000000 ) ) ;
#78 = FACE_OUTER_BOUND ( 'NONE', #181, .T. ) ;
#79 = SURFACE_STYLE_FILL_AREA ( #251 ) ;
#80 = ORIENTED_EDGE ( 'NONE', *, *, #135, .T. ) ;
#81 =( GEOMETRIC_REPRESENTATION_CONTEXT ( 3 ) GLOBAL_UNCERTAINTY_ASSIGNED_CONTEXT ( ( #284 ) ) GLOBAL_UNIT_ASSIGNED_CONTEXT ( ( #97, #157, #126 ) ) REPRESENTATION_CONTEXT ( 'NONE', 'WORKASPACE' ) );
#82 = CARTESIAN_POINT ( 'NONE',  ( 0.000000000000000000, 0.000000000000000000, 0.000000000000000000 ) ) ;
#83 = DIRECTION ( 'NONE',  ( -0.000000000000000000, -1.000000000000000000, -0.000000000000000000 ) ) ;
#84 = PRODUCT_DEFINITION_CONTEXT ( 'detailed design', #271, 'design' ) ;
#85 = FILL_AREA_STYLE ('',( #332 ) ) ;
#86 = SURFACE_SIDE_STYLE ('',( #79 ) ) ;
#87 = DIRECTION ( 'NONE',  ( 2.449293598294705921E-17, -1.000000000000000000, 0.000000000000000000 ) ) ;
#88 = PRODUCT_RELATED_PRODUCT_CATEGORY ( 'part', '', ( #189 ) ) ;
#89 = AXIS2_PLACEMENT_3D ( 'NONE', #91, #308, #137 ) ;
#90 = STYLED_ITEM ( 'NONE', ( #366 ), #304 ) ;
#91 = CARTESIAN_POINT ( 'NONE',  ( 0.000000000000000000, 0.3125000000000000555, 0.000000000000000000 ) ) ;
#92 = DIRECTION ( 'NONE',  ( -2.449293598294705921E-17, 1.000000000000000000, -0.000000000000000000 ) ) ;
#93 = CARTESIAN_POINT ( 'NONE',  ( 3.827021247335476461E-17, 1.625000000000000000, 0.3124999999999998335 ) ) ;
#94 = EDGE_CURVE ( 'NONE', #14, #316, #217, .T. ) ;
#95 = LINE ( 'NONE', #338, #315 ) ;
#96 = MECHANICAL_DESIGN_GEOMETRIC_PRESENTATION_REPRESENTATION (  '', ( #90 ), #200 ) ;
#97 =( CONVERSION_BASED_UNIT ( 'INCH', #344 ) LENGTH_UNIT ( ) NAMED_UNIT ( #186 ) );
#98 = LENGTH_MEASURE_WITH_UNIT ( LENGTH_MEASURE( 0.02539999999999999897 ), #311 );
#99 = DIRECTION ( 'NONE',  ( 0.000000000000000000, 0.000000000000000000, -1.000000000000000000 ) ) ;
#100 = CARTESIAN_POINT ( 'NONE',  ( 2.296212748401286986E-16, 1.625000000000000000, 0.000000000000000000 ) ) ;
#101 =( GEOMETRIC_REPRESENTATION_CONTEXT ( 3 ) GLOBAL_UNCERTAINTY_ASSIGNED_CONTEXT ( ( #197 ) ) GLOBAL_UNIT_ASSIGNED_CONTEXT ( ( #270, #193, #215 ) ) REPRESENTATION_CONTEXT ( 'NONE', 'WORKASPACE' ) );
#102 = EDGE_LOOP ( 'NONE', ( #162, #66, #73, #20 ) ) ;
#103 = FILL_AREA_STYLE_COLOUR ( '', #176 ) ;
#104 = FILL_AREA_STYLE ('',( #275 ) ) ;
#105 = AXIS2_PLACEMENT_3D ( 'NONE', #337, #153, #65 ) ;
#106 = CIRCLE ( 'NONE', #32, 0.3124999999999995559 ) ;
#107 = VERTEX_POINT ( 'NONE', #29 ) ;
#108 = EDGE_CURVE ( 'NONE', #313, #316, #24, .T. ) ;
#109 = SPHERICAL_SURFACE ( 'NONE', #335, 0.3125000000000000000 ) ;
#110 = CARTESIAN_POINT ( 'NONE',  ( 0.3124999999999998335, 3.500000000000000000, 3.827021247335473996E-17 ) ) ;
#111 = CARTESIAN_POINT ( 'NONE',  ( 0.000000000000000000, 1.625000000000000000, 0.000000000000000000 ) ) ;
#112 = CYLINDRICAL_SURFACE ( 'NONE', #342, 0.3124999999999998890 ) ;
#113 = ADVANCED_FACE ( 'NONE', ( #301 ), #143, .T. ) ;
#114 = DIRECTION ( 'NONE',  ( -0.000000000000000000, -1.000000000000000000, -0.000000000000000000 ) ) ;
#115 = CIRCLE ( 'NONE', #105, 0.3125000000000000000 ) ;
#116 = CARTESIAN_POINT ( 'NONE',  ( 1.836970198721029688E-16, 3.500000000000000000, 0.000000000000000000 ) ) ;
#117 = ORIENTED_EDGE ( 'NONE', *, *, #94, .T. ) ;
#118 = CARTESIAN_POINT ( 'NONE',  ( 0.000000000000000000, 1.625000000000000000, -0.3124999999999998335 ) ) ;
#119 = ORIENTED_EDGE ( 'NONE', *, *, #339, .T. ) ;
#120 = FACE_OUTER_BOUND ( 'NONE', #261, .T. ) ;
#121 =( GEOMETRIC_REPRESENTATION_CONTEXT ( 3 ) GLOBAL_UNCERTAINTY_ASSIGNED_CONTEXT ( ( #362 ) ) GLOBAL_UNIT_ASSIGNED_CONTEXT ( ( #229, #150, #61 ) ) REPRESENTATION_CONTEXT ( 'NONE', 'WORKASPACE' ) );
#122 = DIRECTION ( 'NONE',  ( 0.000000000000000000, 0.000000000000000000, 1.000000000000000000 ) ) ;
#123 = EDGE_LOOP ( 'NONE', ( #132, #5, #151, #185, #44 ) ) ;
#124 = APPLICATION_PROTOCOL_DEFINITION ( 'draft international standard', 'automotive_design', 1998, #33 ) ;
#125 = CARTESIAN_POINT ( 'NONE',  ( -0.3124999999999994449, 3.500000000000000000, 0.000000000000000000 ) ) ;
#126 =( NAMED_UNIT ( * ) SI_UNIT ( $, .STERADIAN. ) SOLID_ANGLE_UNIT ( ) );
#127 = VECTOR ( 'NONE', #252, 39.37007874015748143 ) ;
#128 = UNCERTAINTY_MEASURE_WITH_UNIT (LENGTH_MEASURE( 1.000000000000000082E-05 ), #198, 'distance_accuracy_value', 'NONE');
#129 =( CONVERSION_BASED_UNIT ( 'INCH', #17 ) LENGTH_UNIT ( ) NAMED_UNIT ( #349 ) );
#130 = ADVANCED_BREP_SHAPE_REPRESENTATION ( '84768', ( #304, #180, #273 ), #81 ) ;
#131 = AXIS2_PLACEMENT_3D ( 'NONE', #111, #3, #346 ) ;
#132 = ORIENTED_EDGE ( 'NONE', *, *, #339, .F. ) ;
#133 = AXIS2_PLACEMENT_3D ( 'NONE', #100, #2, #239 ) ;
#134 = EDGE_LOOP ( 'NONE', ( #219, #209 ) ) ;
#135 = EDGE_CURVE ( 'NONE', #259, #343, #76, .T. ) ;
#136 = DIRECTION ( 'NONE',  ( 0.000000000000000000, 0.000000000000000000, -1.000000000000000000 ) ) ;
#137 = DIRECTION ( 'NONE',  ( 0.000000000000000000, 0.000000000000000000, -1.000000000000000000 ) ) ;
#138 = AXIS2_PLACEMENT_3D ( 'NONE', #116, #163, #227 ) ;
#139 =( NAMED_UNIT ( * ) PLANE_ANGLE_UNIT ( ) SI_UNIT ( $, .RADIAN. ) );
#140 = EDGE_CURVE ( 'NONE', #316, #107, #221, .T. ) ;
#141 = SURFACE_STYLE_FILL_AREA ( #85 ) ;
#142 = UNCERTAINTY_MEASURE_WITH_UNIT (LENGTH_MEASURE( 1.000000000000000082E-05 ), #26, 'distance_accuracy_value', 'NONE');
#143 = CYLINDRICAL_SURFACE ( 'NONE', #52, 0.3124999999999998890 ) ;
#144 = MECHANICAL_DESIGN_GEOMETRIC_PRESENTATION_REPRESENTATION (  '', ( #238 ), #244 ) ;
#145 = CIRCLE ( 'NONE', #296, 0.3124999999999998335 ) ;
#146 = PRESENTATION_LAYER_ASSIGNMENT (  '', '', ( #90 ) ) ;
#147 = UNCERTAINTY_MEASURE_WITH_UNIT (LENGTH_MEASURE( 1.000000000000000082E-05 ), #23, 'distance_accuracy_value', 'NONE');
#148 = ADVANCED_FACE ( 'NONE', ( #363 ), #112, .T. ) ;
#149 = DIRECTION ( 'NONE',  ( 0.000000000000000000, 0.000000000000000000, 1.000000000000000000 ) ) ;
#150 =( NAMED_UNIT ( * ) PLANE_ANGLE_UNIT ( ) SI_UNIT ( $, .RADIAN. ) );
#151 = ORIENTED_EDGE ( 'NONE', *, *, #108, .T. ) ;
#152 = PRESENTATION_LAYER_ASSIGNMENT (  '', '', ( #166 ) ) ;
#153 = DIRECTION ( 'NONE',  ( -0.000000000000000000, -1.000000000000000000, -0.000000000000000000 ) ) ;
#154 = COLOUR_RGB ( '',1.000000000000000000, 0.000000000000000000, 0.000000000000000000 ) ;
#155 = DIRECTION ( 'NONE',  ( -1.000000000000000000, 0.000000000000000000, 0.000000000000000000 ) ) ;
#156 = FILL_AREA_STYLE_COLOUR ( '', #199 ) ;
#157 =( NAMED_UNIT ( * ) PLANE_ANGLE_UNIT ( ) SI_UNIT ( $, .RADIAN. ) );
#158 = EDGE_CURVE ( 'NONE', #14, #40, #256, .T. ) ;
#159 = FACE_OUTER_BOUND ( 'NONE', #102, .T. ) ;
#160 = CIRCLE ( 'NONE', #323, 0.3125000000000000000 ) ;
#161 = STYLED_ITEM ( 'NONE', ( #211 ), #276 ) ;
#162 = ORIENTED_EDGE ( 'NONE', *, *, #358, .T. ) ;
#163 = DIRECTION ( 'NONE',  ( -2.449293598294705921E-17, 1.000000000000000000, -0.000000000000000000 ) ) ;
#164 =( NAMED_UNIT ( * ) SI_UNIT ( $, .STERADIAN. ) SOLID_ANGLE_UNIT ( ) );
#165 = LINE ( 'NONE', #194, #47 ) ;
#166 = STYLED_ITEM ( 'NONE', ( #291 ), #226 ) ;
#167 = DIRECTION ( 'NONE',  ( -1.000000000000000000, 0.000000000000000000, 0.000000000000000000 ) ) ;
#168 = PLANE ( 'NONE',  #10 ) ;
#169 = DIRECTION ( 'NONE',  ( -2.449293598294705921E-17, 1.000000000000000000, -0.000000000000000000 ) ) ;
#170 = DIRECTION ( 'NONE',  ( -1.000000000000000000, 0.000000000000000000, 0.000000000000000000 ) ) ;
#171 = PRESENTATION_LAYER_ASSIGNMENT (  '', '', ( #238 ) ) ;
#172 = MECHANICAL_DESIGN_GEOMETRIC_PRESENTATION_REPRESENTATION (  '', ( #161 ), #240 ) ;
#173 = DIRECTION ( 'NONE',  ( -1.000000000000000000, 0.000000000000000000, 0.000000000000000000 ) ) ;
#174 = CARTESIAN_POINT ( 'NONE',  ( 1.836970198721029688E-16, 3.500000000000000000, 0.000000000000000000 ) ) ;
#175 = FILL_AREA_STYLE_COLOUR ( '', #154 ) ;
#176 = COLOUR_RGB ( '',0.7921568627450980005, 0.8196078431372548767, 0.9333333333333333481 ) ;
#177 = DIRECTION ( 'NONE',  ( 1.000000000000000000, 0.000000000000000000, 0.000000000000000000 ) ) ;
#178 = ORIENTED_EDGE ( 'NONE', *, *, #310, .T. ) ;
#179 = SURFACE_STYLE_FILL_AREA ( #13 ) ;
#180 = MANIFOLD_SOLID_BREP ( 'Revolve - Tool Body (Straight Shanked)', #356 ) ;
#181 = EDGE_LOOP ( 'NONE', ( #16, #237 ) ) ;
#182 = PRODUCT_DEFINITION_SHAPE ( 'NONE', 'NONE',  #353 ) ;
#183 = SURFACE_STYLE_FILL_AREA ( #104 ) ;
#184 = COLOUR_RGB ( '',1.000000000000000000, 0.000000000000000000, 0.000000000000000000 ) ;
#185 = ORIENTED_EDGE ( 'NONE', *, *, #94, .F. ) ;
#186 = DIMENSIONAL_EXPONENTS ( 1.000000000000000000, 0.000000000000000000, 0.000000000000000000, 0.000000000000000000, 0.000000000000000000, 0.000000000000000000, 0.000000000000000000 ) ;
#187 = EDGE_LOOP ( 'NONE', ( #268, #119, #62, #58, #45 ) ) ;
#188 = DIRECTION ( 'NONE',  ( -2.449293598294705921E-17, 1.000000000000000000, 0.000000000000000000 ) ) ;
#189 = PRODUCT ( '84768', '84768', '', ( #234 ) ) ;
#190 = PRESENTATION_LAYER_ASSIGNMENT (  '', '', ( #370 ) ) ;
#191 =( GEOMETRIC_REPRESENTATION_CONTEXT ( 3 ) GLOBAL_UNCERTAINTY_ASSIGNED_CONTEXT ( ( #249 ) ) GLOBAL_UNIT_ASSIGNED_CONTEXT ( ( #312, #63, #317 ) ) REPRESENTATION_CONTEXT ( 'NONE', 'WORKASPACE' ) );
#192 = ORIENTED_EDGE ( 'NONE', *, *, #318, .T. ) ;
#193 =( NAMED_UNIT ( * ) PLANE_ANGLE_UNIT ( ) SI_UNIT ( $, .RADIAN. ) );
#194 = CARTESIAN_POINT ( 'NONE',  ( -0.3124999999999993894, 3.500000000000000000, 0.000000000000000000 ) ) ;
#195 = EDGE_CURVE ( 'NONE', #351, #313, #309, .T. ) ;
#196 = SURFACE_STYLE_FILL_AREA ( #277 ) ;
#197 = UNCERTAINTY_MEASURE_WITH_UNIT (LENGTH_MEASURE( 1.000000000000000082E-05 ), #270, 'distance_accuracy_value', 'NONE');
#198 =( CONVERSION_BASED_UNIT ( 'INCH', #336 ) LENGTH_UNIT ( ) NAMED_UNIT ( #72 ) );
#199 = COLOUR_RGB ( '',1.000000000000000000, 0.000000000000000000, 0.000000000000000000 ) ;
#200 =( GEOMETRIC_REPRESENTATION_CONTEXT ( 3 ) GLOBAL_UNCERTAINTY_ASSIGNED_CONTEXT ( ( #243 ) ) GLOBAL_UNIT_ASSIGNED_CONTEXT ( ( #129, #283, #164 ) ) REPRESENTATION_CONTEXT ( 'NONE', 'WORKASPACE' ) );
#201 = LINE ( 'NONE', #110, #127 ) ;
#202 = DIRECTION ( 'NONE',  ( -0.000000000000000000, -1.000000000000000000, -0.000000000000000000 ) ) ;
#203 = CARTESIAN_POINT ( 'NONE',  ( -3.827021247335478926E-17, 0.3125000000000000000, 0.000000000000000000 ) ) ;
#204 = ORIENTED_EDGE ( 'NONE', *, *, #218, .T. ) ;
#205 = DIRECTION ( 'NONE',  ( -2.449293598294705921E-17, 1.000000000000000000, -0.000000000000000000 ) ) ;
#206 = ORIENTED_EDGE ( 'NONE', *, *, #55, .F. ) ;
#207 = FACE_OUTER_BOUND ( 'NONE', #355, .T. ) ;
#208 = PRESENTATION_STYLE_ASSIGNMENT (( #369 ) ) ;
#209 = ORIENTED_EDGE ( 'NONE', *, *, #195, .F. ) ;
#210 = SPHERICAL_SURFACE ( 'NONE', #12, 0.3125000000000000000 ) ;
#211 = PRESENTATION_STYLE_ASSIGNMENT (( #15 ) ) ;
#212 = SURFACE_SIDE_STYLE ('',( #263 ) ) ;
#213 = LENGTH_MEASURE_WITH_UNIT ( LENGTH_MEASURE( 0.02539999999999999897 ), #354 );
#214 = EDGE_CURVE ( 'NONE', #107, #272, #115, .T. ) ;
#215 =( NAMED_UNIT ( * ) SI_UNIT ( $, .STERADIAN. ) SOLID_ANGLE_UNIT ( ) );
#216 = VERTEX_POINT ( 'NONE', #258 ) ;
#217 = CIRCLE ( 'NONE', #360, 0.3125000000000000000 ) ;
#218 = EDGE_CURVE ( 'NONE', #107, #40, #160, .T. ) ;
#219 = ORIENTED_EDGE ( 'NONE', *, *, #262, .F. ) ;
#220 = DIMENSIONAL_EXPONENTS ( 1.000000000000000000, 0.000000000000000000, 0.000000000000000000, 0.000000000000000000, 0.000000000000000000, 0.000000000000000000, 0.000000000000000000 ) ;
#221 = CIRCLE ( 'NONE', #89, 0.3125000000000000000 ) ;
#222 =( NAMED_UNIT ( * ) SI_UNIT ( $, .STERADIAN. ) SOLID_ANGLE_UNIT ( ) );
#223 = CARTESIAN_POINT ( 'NONE',  ( 0.000000000000000000, 0.3125000000000000555, -0.3125000000000000000 ) ) ;
#224 = DIRECTION ( 'NONE',  ( 1.000000000000000000, 2.449293598294705921E-17, 0.000000000000000000 ) ) ;
#225 = PRESENTATION_STYLE_ASSIGNMENT (( #247 ) ) ;
#226 = ADVANCED_FACE ( 'NONE', ( #326 ), #320, .T. ) ;
#227 = DIRECTION ( 'NONE',  ( -1.000000000000000000, 0.000000000000000000, 0.000000000000000000 ) ) ;
#228 = EDGE_LOOP ( 'NONE', ( #80, #1 ) ) ;
#229 =( CONVERSION_BASED_UNIT ( 'INCH', #233 ) LENGTH_UNIT ( ) NAMED_UNIT ( #18 ) );
#230 = ORIENTED_EDGE ( 'NONE', *, *, #55, .T. ) ;
#231 = CIRCLE ( 'NONE', #324, 0.3125000000000000000 ) ;
#232 = CARTESIAN_POINT ( 'NONE',  ( 0.000000000000000000, 0.3125000000000000555, 0.000000000000000000 ) ) ;
#233 = LENGTH_MEASURE_WITH_UNIT ( LENGTH_MEASURE( 0.02539999999999999897 ), #54 );
#234 = PRODUCT_CONTEXT ( 'NONE', #33, 'mechanical' ) ;
#235 = LENGTH_MEASURE_WITH_UNIT ( LENGTH_MEASURE( 0.02539999999999999897 ), #50 );
#236 = DIRECTION ( 'NONE',  ( -0.000000000000000000, -1.000000000000000000, -0.000000000000000000 ) ) ;
#237 = ORIENTED_EDGE ( 'NONE', *, *, #318, .F. ) ;
#238 = STYLED_ITEM ( 'NONE', ( #225 ), #113 ) ;
#239 = DIRECTION ( 'NONE',  ( -1.000000000000000000, 0.000000000000000000, 0.000000000000000000 ) ) ;
#240 =( GEOMETRIC_REPRESENTATION_CONTEXT ( 3 ) GLOBAL_UNCERTAINTY_ASSIGNED_CONTEXT ( ( #147 ) ) GLOBAL_UNIT_ASSIGNED_CONTEXT ( ( #23, #51, #248 ) ) REPRESENTATION_CONTEXT ( 'NONE', 'WORKASPACE' ) );
#241 = CARTESIAN_POINT ( 'NONE',  ( 0.3124999999999997224, 1.625000000000000000, 3.827021247335473996E-17 ) ) ;
#242 = VERTEX_POINT ( 'NONE', #241 ) ;
#243 = UNCERTAINTY_MEASURE_WITH_UNIT (LENGTH_MEASURE( 1.000000000000000082E-05 ), #129, 'distance_accuracy_value', 'NONE');
#244 =( GEOMETRIC_REPRESENTATION_CONTEXT ( 3 ) GLOBAL_UNCERTAINTY_ASSIGNED_CONTEXT ( ( #128 ) ) GLOBAL_UNIT_ASSIGNED_CONTEXT ( ( #198, #334, #222 ) ) REPRESENTATION_CONTEXT ( 'NONE', 'WORKASPACE' ) );
#245 = CARTESIAN_POINT ( 'NONE',  ( 2.296212748401286986E-16, 1.625000000000000000, 0.000000000000000000 ) ) ;
#246 =( NAMED_UNIT ( * ) SI_UNIT ( $, .STERADIAN. ) SOLID_ANGLE_UNIT ( ) );
#247 = SURFACE_STYLE_USAGE ( .BOTH. , #274 ) ;
#248 =( NAMED_UNIT ( * ) SI_UNIT ( $, .STERADIAN. ) SOLID_ANGLE_UNIT ( ) );
#249 = UNCERTAINTY_MEASURE_WITH_UNIT (LENGTH_MEASURE( 1.000000000000000082E-05 ), #312, 'distance_accuracy_value', 'NONE');
#250 = SURFACE_STYLE_USAGE ( .BOTH. , #27 ) ;
#251 = FILL_AREA_STYLE ('',( #333 ) ) ;
#252 = DIRECTION ( 'NONE',  ( -2.449293598294705921E-17, 1.000000000000000000, -0.000000000000000000 ) ) ;
#253 = STYLED_ITEM ( 'NONE', ( #365 ), #148 ) ;
#254 = CIRCLE ( 'NONE', #133, 0.3124999999999995559 ) ;
#255 = CARTESIAN_POINT ( 'NONE',  ( 0.3124999999999998890, 3.500000000000000000, 3.827021247335475229E-17 ) ) ;
#256 = CIRCLE ( 'NONE', #25, 0.3125000000000000000 ) ;
#257 = MECHANICAL_DESIGN_GEOMETRIC_PRESENTATION_REPRESENTATION (  '', ( #357 ), #191 ) ;
#258 = CARTESIAN_POINT ( 'NONE',  ( -0.3124999999999993339, 1.625000000000000000, 0.000000000000000000 ) ) ;
#259 = VERTEX_POINT ( 'NONE', #125 ) ;
#260 = FILL_AREA_STYLE ('',( #103 ) ) ;
#261 = EDGE_LOOP ( 'NONE', ( #7, #117, #340, #204 ) ) ;
#262 = EDGE_CURVE ( 'NONE', #313, #351, #145, .T. ) ;
#263 = SURFACE_STYLE_FILL_AREA ( #345 ) ;
#264 = CARTESIAN_POINT ( 'NONE',  ( -1.913510623667739463E-17, 0.000000000000000000, 0.000000000000000000 ) ) ;
#265 = DIMENSIONAL_EXPONENTS ( 1.000000000000000000, 0.000000000000000000, 0.000000000000000000, 0.000000000000000000, 0.000000000000000000, 0.000000000000000000, 0.000000000000000000 ) ;
#266 =( GEOMETRIC_REPRESENTATION_CONTEXT ( 3 ) GLOBAL_UNCERTAINTY_ASSIGNED_CONTEXT ( ( #142 ) ) GLOBAL_UNIT_ASSIGNED_CONTEXT ( ( #26, #139, #246 ) ) REPRESENTATION_CONTEXT ( 'NONE', 'WORKASPACE' ) );
#267 = SURFACE_STYLE_USAGE ( .BOTH. , #71 ) ;
#268 = ORIENTED_EDGE ( 'NONE', *, *, #262, .T. ) ;
#269 = DIMENSIONAL_EXPONENTS ( 1.000000000000000000, 0.000000000000000000, 0.000000000000000000, 0.000000000000000000, 0.000000000000000000, 0.000000000000000000, 0.000000000000000000 ) ;
#270 =( CONVERSION_BASED_UNIT ( 'INCH', #213 ) LENGTH_UNIT ( ) NAMED_UNIT ( #46 ) );
#271 = APPLICATION_CONTEXT ( 'automotive_design' ) ;
#272 = VERTEX_POINT ( 'NONE', #348 ) ;
#273 = AXIS2_PLACEMENT_3D ( 'NONE', #69, #149, #177 ) ;
#274 = SURFACE_SIDE_STYLE ('',( #196 ) ) ;
#275 = FILL_AREA_STYLE_COLOUR ( '', #294 ) ;
#276 = ADVANCED_FACE ( 'NONE', ( #159 ), #109, .T. ) ;
#277 = FILL_AREA_STYLE ('',( #302 ) ) ;
#278 = COLOUR_RGB ( '',0.7921568627450980005, 0.8196078431372548767, 0.9333333333333333481 ) ;
#279 = PRESENTATION_LAYER_ASSIGNMENT (  '', '', ( #161 ) ) ;
#280 = EDGE_CURVE ( 'NONE', #216, #242, #254, .T. ) ;
#281 = CARTESIAN_POINT ( 'NONE',  ( 0.000000000000000000, 0.3125000000000000555, 0.000000000000000000 ) ) ;
#282 = DIRECTION ( 'NONE',  ( -2.449293598294705921E-17, 1.000000000000000000, -0.000000000000000000 ) ) ;
#283 =( NAMED_UNIT ( * ) PLANE_ANGLE_UNIT ( ) SI_UNIT ( $, .RADIAN. ) );
#284 = UNCERTAINTY_MEASURE_WITH_UNIT (LENGTH_MEASURE( 1.000000000000000082E-05 ), #97, 'distance_accuracy_value', 'NONE');
#285 =( LENGTH_UNIT ( ) NAMED_UNIT ( * ) SI_UNIT ( $, .METRE. ) );
#286 = AXIS2_PLACEMENT_3D ( 'NONE', #56, #22, #167 ) ;
#287 = ORIENTED_EDGE ( 'NONE', *, *, #310, .F. ) ;
#288 = COLOUR_RGB ( '',1.000000000000000000, 0.000000000000000000, 0.000000000000000000 ) ;
#289 = ORIENTED_EDGE ( 'NONE', *, *, #135, .F. ) ;
#290 = PRESENTATION_STYLE_ASSIGNMENT (( #341 ) ) ;
#291 = PRESENTATION_STYLE_ASSIGNMENT (( #267 ) ) ;
#292 = CLOSED_SHELL ( 'NONE', ( #276, #113, #226, #148, #298 ) ) ;
#293 = CARTESIAN_POINT ( 'NONE',  ( 0.000000000000000000, 1.625000000000000000, 0.000000000000000000 ) ) ;
#294 = COLOUR_RGB ( '',1.000000000000000000, 0.000000000000000000, 0.000000000000000000 ) ;
#295 = CARTESIAN_POINT ( 'NONE',  ( -0.3125000000000000000, 0.3125000000000000555, 3.827021247335477694E-17 ) ) ;
#296 = AXIS2_PLACEMENT_3D ( 'NONE', #75, #236, #74 ) ;
#297 = AXIS2_PLACEMENT_3D ( 'NONE', #293, #39, #9 ) ;
#298 = ADVANCED_FACE ( 'NONE', ( #120 ), #210, .T. ) ;
#299 = SURFACE_SIDE_STYLE ('',( #183 ) ) ;
#300 = CARTESIAN_POINT ( 'NONE',  ( -3.827021247335478926E-17, 0.3125000000000000000, 0.000000000000000000 ) ) ;
#301 = FACE_OUTER_BOUND ( 'NONE', #187, .T. ) ;
#302 = FILL_AREA_STYLE_COLOUR ( '', #184 ) ;
#303 = MECHANICAL_DESIGN_GEOMETRIC_PRESENTATION_REPRESENTATION (  '', ( #370 ), #121 ) ;
#304 = MANIFOLD_SOLID_BREP ( 'Revolve - Cutting Edge', #292 ) ;
#305 = PRESENTATION_LAYER_ASSIGNMENT (  '', '', ( #357 ) ) ;
#306 = CARTESIAN_POINT ( 'NONE',  ( 0.3124999999999998890, 3.500000000000000000, 0.000000000000000000 ) ) ;
#307 = DIRECTION ( 'NONE',  ( 0.000000000000000000, 0.000000000000000000, -1.000000000000000000 ) ) ;
#308 = DIRECTION ( 'NONE',  ( -0.000000000000000000, -1.000000000000000000, -0.000000000000000000 ) ) ;
#309 = CIRCLE ( 'NONE', #131, 0.3124999999999998335 ) ;
#310 = EDGE_CURVE ( 'NONE', #242, #343, #201, .T. ) ;
#311 =( LENGTH_UNIT ( ) NAMED_UNIT ( * ) SI_UNIT ( $, .METRE. ) );
#312 =( CONVERSION_BASED_UNIT ( 'INCH', #98 ) LENGTH_UNIT ( ) NAMED_UNIT ( #265 ) );
#313 = VERTEX_POINT ( 'NONE', #118 ) ;
#314 = MECHANICAL_DESIGN_GEOMETRIC_PRESENTATION_REPRESENTATION (  '', ( #166 ), #101 ) ;
#315 = VECTOR ( 'NONE', #31, 39.37007874015748143 ) ;
#316 = VERTEX_POINT ( 'NONE', #223 ) ;
#317 =( NAMED_UNIT ( * ) SI_UNIT ( $, .STERADIAN. ) SOLID_ANGLE_UNIT ( ) );
#318 = EDGE_CURVE ( 'NONE', #242, #216, #106, .T. ) ;
#319 = FACE_OUTER_BOUND ( 'NONE', #325, .T. ) ;
#320 = PLANE ( 'NONE',  #297 ) ;
#321 = ORIENTED_EDGE ( 'NONE', *, *, #280, .T. ) ;
#322 = CYLINDRICAL_SURFACE ( 'NONE', #19, 0.3124999999999996114 ) ;
#323 = AXIS2_PLACEMENT_3D ( 'NONE', #203, #307, #170 ) ;
#324 = AXIS2_PLACEMENT_3D ( 'NONE', #232, #60, #99 ) ;
#325 = EDGE_LOOP ( 'NONE', ( #287, #192, #230, #373 ) ) ;
#326 = FACE_OUTER_BOUND ( 'NONE', #134, .T. ) ;
#327 = ADVANCED_FACE ( 'NONE', ( #319 ), #322, .T. ) ;
#328 = DIRECTION ( 'NONE',  ( 0.000000000000000000, 0.000000000000000000, -1.000000000000000000 ) ) ;
#329 = VECTOR ( 'NONE', #114, 39.37007874015748143 ) ;
#330 = PRODUCT_DEFINITION_FORMATION_WITH_SPECIFIED_SOURCE ( 'ANY', '', #189, .NOT_KNOWN. ) ;
#331 = LENGTH_MEASURE_WITH_UNIT ( LENGTH_MEASURE( 0.02539999999999999897 ), #285 );
#332 = FILL_AREA_STYLE_COLOUR ( '', #288 ) ;
#333 = FILL_AREA_STYLE_COLOUR ( '', #278 ) ;
#334 =( NAMED_UNIT ( * ) PLANE_ANGLE_UNIT ( ) SI_UNIT ( $, .RADIAN. ) );
#335 = AXIS2_PLACEMENT_3D ( 'NONE', #59, #122, #347 ) ;
#336 = LENGTH_MEASURE_WITH_UNIT ( LENGTH_MEASURE( 0.02539999999999999897 ), #53 );
#337 = CARTESIAN_POINT ( 'NONE',  ( 0.000000000000000000, 0.3125000000000000555, 0.000000000000000000 ) ) ;
#338 = CARTESIAN_POINT ( 'NONE',  ( 3.827021247335477078E-17, 0.000000000000000000, 0.3124999999999998890 ) ) ;
#339 = EDGE_CURVE ( 'NONE', #351, #272, #95, .T. ) ;
#340 = ORIENTED_EDGE ( 'NONE', *, *, #140, .T. ) ;
#341 = SURFACE_STYLE_USAGE ( .BOTH. , #212 ) ;
#342 = AXIS2_PLACEMENT_3D ( 'NONE', #82, #364, #328 ) ;
#343 = VERTEX_POINT ( 'NONE', #255 ) ;
#344 = LENGTH_MEASURE_WITH_UNIT ( LENGTH_MEASURE( 0.02539999999999999897 ), #34 );
#345 = FILL_AREA_STYLE ('',( #175 ) ) ;
#346 = DIRECTION ( 'NONE',  ( 0.000000000000000000, 0.000000000000000000, -1.000000000000000000 ) ) ;
#347 = DIRECTION ( 'NONE',  ( 1.000000000000000000, 0.000000000000000000, 0.000000000000000000 ) ) ;
#348 = CARTESIAN_POINT ( 'NONE',  ( 3.827021247335478926E-17, 0.3125000000000000555, 0.3125000000000000000 ) ) ;
#349 = DIMENSIONAL_EXPONENTS ( 1.000000000000000000, 0.000000000000000000, 0.000000000000000000, 0.000000000000000000, 0.000000000000000000, 0.000000000000000000, 0.000000000000000000 ) ;
#350 = MECHANICAL_DESIGN_GEOMETRIC_PRESENTATION_REPRESENTATION (  '', ( #253 ), #266 ) ;
#351 = VERTEX_POINT ( 'NONE', #93 ) ;
#352 = DIRECTION ( 'NONE',  ( 1.000000000000000000, 0.000000000000000000, 0.000000000000000000 ) ) ;
#353 = PRODUCT_DEFINITION ( 'UNKNOWN', '', #330, #84 ) ;
#354 =( LENGTH_UNIT ( ) NAMED_UNIT ( * ) SI_UNIT ( $, .METRE. ) );
#355 = EDGE_LOOP ( 'NONE', ( #321, #178, #289, #206 ) ) ;
#356 = CLOSED_SHELL ( 'NONE', ( #372, #30, #327, #42 ) ) ;
#357 = STYLED_ITEM ( 'NONE', ( #290 ), #298 ) ;
#358 = EDGE_CURVE ( 'NONE', #272, #14, #231, .T. ) ;
#359 = DIRECTION ( 'NONE',  ( -1.000000000000000000, -2.449293598294705921E-17, 0.000000000000000000 ) ) ;
#360 = AXIS2_PLACEMENT_3D ( 'NONE', #281, #202, #136 ) ;
#361 = DIRECTION ( 'NONE',  ( 1.224646799147353207E-16, -0.000000000000000000, 1.000000000000000000 ) ) ;
#362 = UNCERTAINTY_MEASURE_WITH_UNIT (LENGTH_MEASURE( 1.000000000000000082E-05 ), #229, 'distance_accuracy_value', 'NONE');
#363 = FACE_OUTER_BOUND ( 'NONE', #123, .T. ) ;
#364 = DIRECTION ( 'NONE',  ( -0.000000000000000000, -1.000000000000000000, -0.000000000000000000 ) ) ;
#365 = PRESENTATION_STYLE_ASSIGNMENT (( #250 ) ) ;
#366 = PRESENTATION_STYLE_ASSIGNMENT (( #35 ) ) ;
#367 = DIRECTION ( 'NONE',  ( 0.000000000000000000, 0.000000000000000000, -1.000000000000000000 ) ) ;
#368 = CARTESIAN_POINT ( 'NONE',  ( 2.296212748401286986E-16, 1.625000000000000000, 0.000000000000000000 ) ) ;
#369 = SURFACE_STYLE_USAGE ( .BOTH. , #86 ) ;
#370 = STYLED_ITEM ( 'NONE', ( #208 ), #180 ) ;
#371 = CARTESIAN_POINT ( 'NONE',  ( 0.000000000000000000, 0.000000000000000000, 0.000000000000000000 ) ) ;
#372 = ADVANCED_FACE ( 'NONE', ( #207 ), #64, .T. ) ;
#373 = ORIENTED_EDGE ( 'NONE', *, *, #49, .F. ) ;
ENDSEC;
END-ISO-10303-21;
