ISO-10303-21;
HEADER;
FILE_DESCRIPTION (( 'STEP AP214' ),
    '1' );
FILE_NAME ('12032.STEP',
    '2023-06-30T21:50:44',
    ( '' ),
    ( '' ),
    'SwSTEP 2.0',
    'SolidWorks 2023',
    '' );
FILE_SCHEMA (( 'AUTOMOTIVE_DESIGN' ));
ENDSEC;

DATA;
#1 = STYLED_ITEM ( 'NONE', ( #39 ), #205 ) ;
#2 = PRESENTATION_LAYER_ASSIGNMENT (  '', '', ( #76 ) ) ;
#3 = DIRECTION ( 'NONE',  ( 1.000000000000000000, 0.000000000000000000, -1.224646799147353207E-16 ) ) ;
#4 = FACE_OUTER_BOUND ( 'NONE', #195, .T. ) ;
#5 = ORIENTED_EDGE ( 'NONE', *, *, #355, .F. ) ;
#6 = VERTEX_POINT ( 'NONE', #32 ) ;
#7 = CIRCLE ( 'NONE', #263, 0.06249999999999999306 ) ;
#8 = AXIS2_PLACEMENT_3D ( 'NONE', #118, #143, #207 ) ;
#9 = EDGE_LOOP ( 'NONE', ( #208, #183 ) ) ;
#10 =( NAMED_UNIT ( * ) PLANE_ANGLE_UNIT ( ) SI_UNIT ( $, .RADIAN. ) );
#11 = CIRCLE ( 'NONE', #18, 0.06249999999999980571 ) ;
#12 = COLOUR_RGB ( '',1.000000000000000000, 0.000000000000000000, 0.000000000000000000 ) ;
#13 = DIRECTION ( 'NONE',  ( -0.000000000000000000, -1.000000000000000000, -0.000000000000000000 ) ) ;
#14 = APPLICATION_CONTEXT ( 'automotive_design' ) ;
#15 = FILL_AREA_STYLE ('',( #63 ) ) ;
#16 = DIRECTION ( 'NONE',  ( 0.000000000000000000, 0.000000000000000000, 1.000000000000000000 ) ) ;
#17 = DIRECTION ( 'NONE',  ( 1.000000000000000000, 1.224646799147352961E-16, 0.000000000000000000 ) ) ;
#18 = AXIS2_PLACEMENT_3D ( 'NONE', #91, #40, #216 ) ;
#19 = DIRECTION ( 'NONE',  ( -1.000000000000000000, -1.224646799147352961E-16, 0.000000000000000000 ) ) ;
#20 = MANIFOLD_SOLID_BREP ( 'Revolve - Tool Body (Straight Shanked)', #254 ) ;
#21 = ORIENTED_EDGE ( 'NONE', *, *, #362, .F. ) ;
#22 =( NAMED_UNIT ( * ) PLANE_ANGLE_UNIT ( ) SI_UNIT ( $, .RADIAN. ) );
#23 = AXIS2_PLACEMENT_3D ( 'NONE', #278, #334, #217 ) ;
#24 =( CONVERSION_BASED_UNIT ( 'INCH', #296 ) LENGTH_UNIT ( ) NAMED_UNIT ( #215 ) );
#25 = DIRECTION ( 'NONE',  ( 0.000000000000000000, 0.000000000000000000, 1.000000000000000000 ) ) ;
#26 = CIRCLE ( 'NONE', #67, 0.06250000000000005551 ) ;
#27 = MECHANICAL_DESIGN_GEOMETRIC_PRESENTATION_REPRESENTATION (  '', ( #139 ), #224 ) ;
#28 =( LENGTH_UNIT ( ) NAMED_UNIT ( * ) SI_UNIT ( $, .METRE. ) );
#29 = CARTESIAN_POINT ( 'NONE',  ( -7.654042494670957545E-18, 0.06250000000000000000, 0.000000000000000000 ) ) ;
#30 = LENGTH_MEASURE_WITH_UNIT ( LENGTH_MEASURE( 0.02539999999999999897 ), #34 );
#31 = ORIENTED_EDGE ( 'NONE', *, *, #232, .T. ) ;
#32 = CARTESIAN_POINT ( 'NONE',  ( 0.000000000000000000, 0.06250000000000001388, -0.06249999999999999306 ) ) ;
#33 = STYLED_ITEM ( 'NONE', ( #331 ), #20 ) ;
#34 =( LENGTH_UNIT ( ) NAMED_UNIT ( * ) SI_UNIT ( $, .METRE. ) );
#35 = PRODUCT ( '12032', '12032', '', ( #116 ) ) ;
#36 = APPLICATION_CONTEXT ( 'automotive_design' ) ;
#37 = DIRECTION ( 'NONE',  ( -0.000000000000000000, -1.000000000000000000, -0.000000000000000000 ) ) ;
#38 = DIMENSIONAL_EXPONENTS ( 1.000000000000000000, 0.000000000000000000, 0.000000000000000000, 0.000000000000000000, 0.000000000000000000, 0.000000000000000000, 0.000000000000000000 ) ;
#39 = PRESENTATION_STYLE_ASSIGNMENT (( #123 ) ) ;
#40 = DIRECTION ( 'NONE',  ( -1.224646799147352961E-16, 1.000000000000000000, -0.000000000000000000 ) ) ;
#41 = VERTEX_POINT ( 'NONE', #194 ) ;
#42 = AXIS2_PLACEMENT_3D ( 'NONE', #244, #359, #65 ) ;
#43 = CARTESIAN_POINT ( 'NONE',  ( 1.224646799147352961E-16, 0.5000000000000001110, 0.000000000000000000 ) ) ;
#44 = ORIENTED_EDGE ( 'NONE', *, *, #222, .T. ) ;
#45 = CARTESIAN_POINT ( 'NONE',  ( -1.224646799147352961E-16, 2.500000000000000000, 0.000000000000000000 ) ) ;
#46 = CARTESIAN_POINT ( 'NONE',  ( -0.06250000000000016653, 2.500000000000000000, 0.000000000000000000 ) ) ;
#47 = DIRECTION ( 'NONE',  ( -0.000000000000000000, -1.000000000000000000, -0.000000000000000000 ) ) ;
#48 = EDGE_CURVE ( 'NONE', #41, #317, #26, .T. ) ;
#49 =( NAMED_UNIT ( * ) PLANE_ANGLE_UNIT ( ) SI_UNIT ( $, .RADIAN. ) );
#50 = SURFACE_SIDE_STYLE ('',( #293 ) ) ;
#51 = FILL_AREA_STYLE_COLOUR ( '', #277 ) ;
#52 = MECHANICAL_DESIGN_GEOMETRIC_PRESENTATION_REPRESENTATION (  '', ( #62 ), #368 ) ;
#53 = AXIS2_PLACEMENT_3D ( 'NONE', #142, #233, #178 ) ;
#54 = ORIENTED_EDGE ( 'NONE', *, *, #355, .T. ) ;
#55 = DIRECTION ( 'NONE',  ( 0.000000000000000000, 0.000000000000000000, -1.000000000000000000 ) ) ;
#56 = VERTEX_POINT ( 'NONE', #262 ) ;
#57 = DIRECTION ( 'NONE',  ( -0.000000000000000000, -1.000000000000000000, -0.000000000000000000 ) ) ;
#58 = ORIENTED_EDGE ( 'NONE', *, *, #259, .T. ) ;
#59 = DIRECTION ( 'NONE',  ( -1.224646799147352961E-16, 1.000000000000000000, -0.000000000000000000 ) ) ;
#60 = PLANE ( 'NONE',  #75 ) ;
#61 = CARTESIAN_POINT ( 'NONE',  ( 0.000000000000000000, 0.06250000000000001388, 0.000000000000000000 ) ) ;
#62 = STYLED_ITEM ( 'NONE', ( #353 ), #128 ) ;
#63 = FILL_AREA_STYLE_COLOUR ( '', #322 ) ;
#64 = SURFACE_STYLE_FILL_AREA ( #337 ) ;
#65 = DIRECTION ( 'NONE',  ( 0.000000000000000000, 0.000000000000000000, -1.000000000000000000 ) ) ;
#66 = ORIENTED_EDGE ( 'NONE', *, *, #248, .F. ) ;
#67 = AXIS2_PLACEMENT_3D ( 'NONE', #45, #325, #201 ) ;
#68 = DIRECTION ( 'NONE',  ( 0.000000000000000000, 0.000000000000000000, -1.000000000000000000 ) ) ;
#69 = AXIS2_PLACEMENT_3D ( 'NONE', #297, #57, #55 ) ;
#70 = VERTEX_POINT ( 'NONE', #74 ) ;
#71 =( NAMED_UNIT ( * ) PLANE_ANGLE_UNIT ( ) SI_UNIT ( $, .RADIAN. ) );
#72 = SURFACE_STYLE_USAGE ( .BOTH. , #50 ) ;
#73 = EDGE_CURVE ( 'NONE', #56, #321, #269, .T. ) ;
#74 = CARTESIAN_POINT ( 'NONE',  ( 0.000000000000000000, 0.5000000000000000000, -0.06249999999999993061 ) ) ;
#75 = AXIS2_PLACEMENT_3D ( 'NONE', #279, #155, #19 ) ;
#76 = STYLED_ITEM ( 'NONE', ( #109 ), #373 ) ;
#77 = UNCERTAINTY_MEASURE_WITH_UNIT (LENGTH_MEASURE( 1.000000000000000082E-05 ), #360, 'distance_accuracy_value', 'NONE');
#78 =( NAMED_UNIT ( * ) SI_UNIT ( $, .STERADIAN. ) SOLID_ANGLE_UNIT ( ) );
#79 = ORIENTED_EDGE ( 'NONE', *, *, #259, .F. ) ;
#80 = EDGE_LOOP ( 'NONE', ( #44, #225, #5, #161 ) ) ;
#81 = SURFACE_STYLE_FILL_AREA ( #327 ) ;
#82 = COLOUR_RGB ( '',0.7921568627450980005, 0.8196078431372548767, 0.9333333333333333481 ) ;
#83 =( NAMED_UNIT ( * ) PLANE_ANGLE_UNIT ( ) SI_UNIT ( $, .RADIAN. ) );
#84 = VERTEX_POINT ( 'NONE', #108 ) ;
#85 =( CONVERSION_BASED_UNIT ( 'INCH', #30 ) LENGTH_UNIT ( ) NAMED_UNIT ( #92 ) );
#86 = SURFACE_SIDE_STYLE ('',( #354 ) ) ;
#87 = AXIS2_PLACEMENT_3D ( 'NONE', #43, #361, #243 ) ;
#88 = MECHANICAL_DESIGN_GEOMETRIC_PRESENTATION_REPRESENTATION (  '', ( #76 ), #246 ) ;
#89 = DIRECTION ( 'NONE',  ( -0.000000000000000000, -1.000000000000000000, -0.000000000000000000 ) ) ;
#90 = DIRECTION ( 'NONE',  ( -1.224646799147352961E-16, 1.000000000000000000, -0.000000000000000000 ) ) ;
#91 = CARTESIAN_POINT ( 'NONE',  ( 1.224646799147352961E-16, 0.5000000000000001110, 0.000000000000000000 ) ) ;
#92 = DIMENSIONAL_EXPONENTS ( 1.000000000000000000, 0.000000000000000000, 0.000000000000000000, 0.000000000000000000, 0.000000000000000000, 0.000000000000000000, 0.000000000000000000 ) ;
#93 = CYLINDRICAL_SURFACE ( 'NONE', #113, 0.06249999999999996531 ) ;
#94 = DIRECTION ( 'NONE',  ( -1.000000000000000000, 0.000000000000000000, 0.000000000000000000 ) ) ;
#95 = DIMENSIONAL_EXPONENTS ( 1.000000000000000000, 0.000000000000000000, 0.000000000000000000, 0.000000000000000000, 0.000000000000000000, 0.000000000000000000, 0.000000000000000000 ) ;
#96 = SURFACE_STYLE_USAGE ( .BOTH. , #149 ) ;
#97 =( NAMED_UNIT ( * ) SI_UNIT ( $, .STERADIAN. ) SOLID_ANGLE_UNIT ( ) );
#98 = PRODUCT_DEFINITION_CONTEXT ( 'detailed design', #14, 'design' ) ;
#99 = EDGE_LOOP ( 'NONE', ( #141, #163, #130, #54 ) ) ;
#100 = VECTOR ( 'NONE', #89, 39.37007874015748143 ) ;
#101 =( LENGTH_UNIT ( ) NAMED_UNIT ( * ) SI_UNIT ( $, .METRE. ) );
#102 = FILL_AREA_STYLE_COLOUR ( '', #12 ) ;
#103 =( CONVERSION_BASED_UNIT ( 'INCH', #364 ) LENGTH_UNIT ( ) NAMED_UNIT ( #283 ) );
#104 =( NAMED_UNIT ( * ) SI_UNIT ( $, .STERADIAN. ) SOLID_ANGLE_UNIT ( ) );
#105 = AXIS2_PLACEMENT_3D ( 'NONE', #345, #165, #292 ) ;
#106 = AXIS2_PLACEMENT_3D ( 'NONE', #260, #135, #253 ) ;
#107 = ORIENTED_EDGE ( 'NONE', *, *, #248, .T. ) ;
#108 = CARTESIAN_POINT ( 'NONE',  ( 7.654042494670951382E-18, 0.5000000000000000000, 0.06249999999999993061 ) ) ;
#109 = PRESENTATION_STYLE_ASSIGNMENT (( #298 ) ) ;
#110 = ADVANCED_BREP_SHAPE_REPRESENTATION ( '12032', ( #128, #20, #8 ), #169 ) ;
#111 =( NAMED_UNIT ( * ) SI_UNIT ( $, .STERADIAN. ) SOLID_ANGLE_UNIT ( ) );
#112 = VERTEX_POINT ( 'NONE', #230 ) ;
#113 = AXIS2_PLACEMENT_3D ( 'NONE', #226, #47, #68 ) ;
#114 = VERTEX_POINT ( 'NONE', #323 ) ;
#115 = EDGE_CURVE ( 'NONE', #84, #70, #153, .T. ) ;
#116 = PRODUCT_CONTEXT ( 'NONE', #36, 'mechanical' ) ;
#117 = EDGE_LOOP ( 'NONE', ( #66, #234 ) ) ;
#118 = CARTESIAN_POINT ( 'NONE',  ( 0.000000000000000000, 0.000000000000000000, 0.000000000000000000 ) ) ;
#119 = DIMENSIONAL_EXPONENTS ( 1.000000000000000000, 0.000000000000000000, 0.000000000000000000, 0.000000000000000000, 0.000000000000000000, 0.000000000000000000, 0.000000000000000000 ) ;
#120 = APPLICATION_PROTOCOL_DEFINITION ( 'draft international standard', 'automotive_design', 1998, #14 ) ;
#121 = AXIS2_PLACEMENT_3D ( 'NONE', #290, #339, #310 ) ;
#122 = CARTESIAN_POINT ( 'NONE',  ( -0.06250000000000005551, 2.500000000000000000, 0.000000000000000000 ) ) ;
#123 = SURFACE_STYLE_USAGE ( .BOTH. , #189 ) ;
#124 = FACE_OUTER_BOUND ( 'NONE', #239, .T. ) ;
#125 =( LENGTH_UNIT ( ) NAMED_UNIT ( * ) SI_UNIT ( $, .METRE. ) );
#126 =( LENGTH_UNIT ( ) NAMED_UNIT ( * ) SI_UNIT ( $, .METRE. ) );
#127 = SURFACE_SIDE_STYLE ('',( #64 ) ) ;
#128 = MANIFOLD_SOLID_BREP ( 'Revolve - Cutting Edge', #302 ) ;
#129 = UNCERTAINTY_MEASURE_WITH_UNIT (LENGTH_MEASURE( 1.000000000000000082E-05 ), #291, 'distance_accuracy_value', 'NONE');
#130 = ORIENTED_EDGE ( 'NONE', *, *, #157, .T. ) ;
#131 =( NAMED_UNIT ( * ) SI_UNIT ( $, .STERADIAN. ) SOLID_ANGLE_UNIT ( ) );
#132 = COLOUR_RGB ( '',0.7921568627450980005, 0.8196078431372548767, 0.9333333333333333481 ) ;
#133 = MECHANICAL_DESIGN_GEOMETRIC_PRESENTATION_REPRESENTATION (  '', ( #255 ), #333 ) ;
#134 = FACE_OUTER_BOUND ( 'NONE', #117, .T. ) ;
#135 = DIRECTION ( 'NONE',  ( 0.000000000000000000, 1.000000000000000000, 0.000000000000000000 ) ) ;
#136 = SURFACE_STYLE_FILL_AREA ( #370 ) ;
#137 =( NAMED_UNIT ( * ) SI_UNIT ( $, .STERADIAN. ) SOLID_ANGLE_UNIT ( ) );
#138 = DIRECTION ( 'NONE',  ( -1.000000000000000000, 0.000000000000000000, 0.000000000000000000 ) ) ;
#139 = STYLED_ITEM ( 'NONE', ( #341 ), #301 ) ;
#140 = STYLED_ITEM ( 'NONE', ( #172 ), #313 ) ;
#141 = ORIENTED_EDGE ( 'NONE', *, *, #73, .F. ) ;
#142 = CARTESIAN_POINT ( 'NONE',  ( -7.654042494670957545E-18, 0.06250000000000000000, 0.000000000000000000 ) ) ;
#143 = DIRECTION ( 'NONE',  ( 0.000000000000000000, 0.000000000000000000, 1.000000000000000000 ) ) ;
#144 = EDGE_LOOP ( 'NONE', ( #288, #31, #58, #352 ) ) ;
#145 = EDGE_CURVE ( 'NONE', #56, #6, #349, .T. ) ;
#146 = PRESENTATION_LAYER_ASSIGNMENT (  '', '', ( #1 ) ) ;
#147 = FILL_AREA_STYLE ('',( #300 ) ) ;
#148 = VERTEX_POINT ( 'NONE', #167 ) ;
#149 = SURFACE_SIDE_STYLE ('',( #136 ) ) ;
#150 = PRODUCT_DEFINITION ( 'UNKNOWN', '', #237, #98 ) ;
#151 = CYLINDRICAL_SURFACE ( 'NONE', #23, 0.06249999999999993061 ) ;
#152 = DIRECTION ( 'NONE',  ( 0.000000000000000000, 0.000000000000000000, -1.000000000000000000 ) ) ;
#153 = CIRCLE ( 'NONE', #105, 0.06249999999999993061 ) ;
#154 =( GEOMETRIC_REPRESENTATION_CONTEXT ( 3 ) GLOBAL_UNCERTAINTY_ASSIGNED_CONTEXT ( ( #319 ) ) GLOBAL_UNIT_ASSIGNED_CONTEXT ( ( #202, #71, #196 ) ) REPRESENTATION_CONTEXT ( 'NONE', 'WORKASPACE' ) );
#155 = DIRECTION ( 'NONE',  ( -1.224646799147352961E-16, 1.000000000000000000, 0.000000000000000000 ) ) ;
#156 = LINE ( 'NONE', #281, #100 ) ;
#157 = EDGE_CURVE ( 'NONE', #6, #112, #204, .T. ) ;
#158 = LENGTH_MEASURE_WITH_UNIT ( LENGTH_MEASURE( 0.02539999999999999897 ), #125 );
#159 = COLOUR_RGB ( '',1.000000000000000000, 0.000000000000000000, 0.000000000000000000 ) ;
#160 = AXIS2_PLACEMENT_3D ( 'NONE', #29, #25, #203 ) ;
#161 = ORIENTED_EDGE ( 'NONE', *, *, #227, .T. ) ;
#162 = LINE ( 'NONE', #308, #332 ) ;
#163 = ORIENTED_EDGE ( 'NONE', *, *, #145, .T. ) ;
#164 = UNCERTAINTY_MEASURE_WITH_UNIT (LENGTH_MEASURE( 1.000000000000000082E-05 ), #264, 'distance_accuracy_value', 'NONE');
#165 = DIRECTION ( 'NONE',  ( -0.000000000000000000, -1.000000000000000000, -0.000000000000000000 ) ) ;
#166 = CARTESIAN_POINT ( 'NONE',  ( 0.06249999999999992367, 0.5000000000000001110, 7.654042494670956004E-18 ) ) ;
#167 = CARTESIAN_POINT ( 'NONE',  ( -0.06249999999999968081, 0.5000000000000001110, 0.000000000000000000 ) ) ;
#168 = AXIS2_PLACEMENT_3D ( 'NONE', #275, #306, #17 ) ;
#169 =( GEOMETRIC_REPRESENTATION_CONTEXT ( 3 ) GLOBAL_UNCERTAINTY_ASSIGNED_CONTEXT ( ( #249 ) ) GLOBAL_UNIT_ASSIGNED_CONTEXT ( ( #85, #10, #273 ) ) REPRESENTATION_CONTEXT ( 'NONE', 'WORKASPACE' ) );
#170 = SURFACE_SIDE_STYLE ('',( #175 ) ) ;
#171 = DIRECTION ( 'NONE',  ( 1.224646799147353207E-16, -0.000000000000000000, 1.000000000000000000 ) ) ;
#172 = PRESENTATION_STYLE_ASSIGNMENT (( #72 ) ) ;
#173 =( NAMED_UNIT ( * ) PLANE_ANGLE_UNIT ( ) SI_UNIT ( $, .RADIAN. ) );
#174 = PRODUCT_RELATED_PRODUCT_CATEGORY ( 'part', '', ( #35 ) ) ;
#175 = SURFACE_STYLE_FILL_AREA ( #342 ) ;
#176 = CIRCLE ( 'NONE', #42, 0.06249999999999999306 ) ;
#177 = APPLICATION_PROTOCOL_DEFINITION ( 'draft international standard', 'automotive_design', 1998, #36 ) ;
#178 = DIRECTION ( 'NONE',  ( -1.000000000000000000, 0.000000000000000000, 0.000000000000000000 ) ) ;
#179 = EDGE_CURVE ( 'NONE', #70, #6, #156, .T. ) ;
#180 = ORIENTED_EDGE ( 'NONE', *, *, #227, .F. ) ;
#181 =( NAMED_UNIT ( * ) PLANE_ANGLE_UNIT ( ) SI_UNIT ( $, .RADIAN. ) );
#182 = VECTOR ( 'NONE', #185, 39.37007874015748143 ) ;
#183 = ORIENTED_EDGE ( 'NONE', *, *, #48, .T. ) ;
#184 = EDGE_CURVE ( 'NONE', #347, #41, #212, .T. ) ;
#185 = DIRECTION ( 'NONE',  ( -1.224646799147352961E-16, 1.000000000000000000, -0.000000000000000000 ) ) ;
#186 = FACE_OUTER_BOUND ( 'NONE', #80, .T. ) ;
#187 = CYLINDRICAL_SURFACE ( 'NONE', #223, 0.06249999999999993061 ) ;
#188 = AXIS2_PLACEMENT_3D ( 'NONE', #261, #252, #320 ) ;
#189 = SURFACE_SIDE_STYLE ('',( #336 ) ) ;
#190 = DIMENSIONAL_EXPONENTS ( 1.000000000000000000, 0.000000000000000000, 0.000000000000000000, 0.000000000000000000, 0.000000000000000000, 0.000000000000000000, 0.000000000000000000 ) ;
#191 = SURFACE_STYLE_USAGE ( .BOTH. , #127 ) ;
#192 = VECTOR ( 'NONE', #59, 39.37007874015748143 ) ;
#193 =( LENGTH_UNIT ( ) NAMED_UNIT ( * ) SI_UNIT ( $, .METRE. ) );
#194 = CARTESIAN_POINT ( 'NONE',  ( 0.06249999999999993061, 2.500000000000000000, 7.654042494670956004E-18 ) ) ;
#195 = EDGE_LOOP ( 'NONE', ( #107, #330, #180, #206, #238 ) ) ;
#196 =( NAMED_UNIT ( * ) SI_UNIT ( $, .STERADIAN. ) SOLID_ANGLE_UNIT ( ) );
#197 = CARTESIAN_POINT ( 'NONE',  ( -7.654042494670957545E-18, 0.06250000000000000000, 0.000000000000000000 ) ) ;
#198 = AXIS2_PLACEMENT_3D ( 'NONE', #280, #13, #312 ) ;
#199 = UNCERTAINTY_MEASURE_WITH_UNIT (LENGTH_MEASURE( 1.000000000000000082E-05 ), #24, 'distance_accuracy_value', 'NONE');
#200 = ADVANCED_FACE ( 'NONE', ( #305 ), #151, .T. ) ;
#201 = DIRECTION ( 'NONE',  ( -1.000000000000000000, 0.000000000000000000, 0.000000000000000000 ) ) ;
#202 =( CONVERSION_BASED_UNIT ( 'INCH', #344 ) LENGTH_UNIT ( ) NAMED_UNIT ( #190 ) );
#203 = DIRECTION ( 'NONE',  ( 1.000000000000000000, 0.000000000000000000, 0.000000000000000000 ) ) ;
#204 = CIRCLE ( 'NONE', #121, 0.06249999999999999306 ) ;
#205 = ADVANCED_FACE ( 'NONE', ( #186 ), #286, .T. ) ;
#206 = ORIENTED_EDGE ( 'NONE', *, *, #157, .F. ) ;
#207 = DIRECTION ( 'NONE',  ( 1.000000000000000000, 0.000000000000000000, 0.000000000000000000 ) ) ;
#208 = ORIENTED_EDGE ( 'NONE', *, *, #362, .T. ) ;
#209 = SURFACE_STYLE_USAGE ( .BOTH. , #86 ) ;
#210 = AXIS2_PLACEMENT_3D ( 'NONE', #197, #171, #3 ) ;
#211 = ADVANCED_FACE ( 'NONE', ( #221 ), #363, .F. ) ;
#212 = LINE ( 'NONE', #214, #192 ) ;
#213 = FACE_OUTER_BOUND ( 'NONE', #343, .T. ) ;
#214 = CARTESIAN_POINT ( 'NONE',  ( 0.06249999999999981265, 2.500000000000000000, 7.654042494670948300E-18 ) ) ;
#215 = DIMENSIONAL_EXPONENTS ( 1.000000000000000000, 0.000000000000000000, 0.000000000000000000, 0.000000000000000000, 0.000000000000000000, 0.000000000000000000, 0.000000000000000000 ) ;
#216 = DIRECTION ( 'NONE',  ( -1.000000000000000000, 0.000000000000000000, 0.000000000000000000 ) ) ;
#217 = DIRECTION ( 'NONE',  ( -1.000000000000000000, 0.000000000000000000, 0.000000000000000000 ) ) ;
#218 = FILL_AREA_STYLE_COLOUR ( '', #159 ) ;
#219 = ADVANCED_FACE ( 'NONE', ( #213 ), #60, .F. ) ;
#220 = CIRCLE ( 'NONE', #87, 0.06249999999999980571 ) ;
#221 = FACE_OUTER_BOUND ( 'NONE', #9, .T. ) ;
#222 = EDGE_CURVE ( 'NONE', #114, #56, #176, .T. ) ;
#223 = AXIS2_PLACEMENT_3D ( 'NONE', #241, #90, #94 ) ;
#224 =( GEOMETRIC_REPRESENTATION_CONTEXT ( 3 ) GLOBAL_UNCERTAINTY_ASSIGNED_CONTEXT ( ( #258 ) ) GLOBAL_UNIT_ASSIGNED_CONTEXT ( ( #247, #314, #78 ) ) REPRESENTATION_CONTEXT ( 'NONE', 'WORKASPACE' ) );
#225 = ORIENTED_EDGE ( 'NONE', *, *, #73, .T. ) ;
#226 = CARTESIAN_POINT ( 'NONE',  ( 0.000000000000000000, 0.000000000000000000, 0.000000000000000000 ) ) ;
#227 = EDGE_CURVE ( 'NONE', #112, #114, #7, .T. ) ;
#228 =( GEOMETRIC_REPRESENTATION_CONTEXT ( 3 ) GLOBAL_UNCERTAINTY_ASSIGNED_CONTEXT ( ( #77 ) ) GLOBAL_UNIT_ASSIGNED_CONTEXT ( ( #360, #181, #97 ) ) REPRESENTATION_CONTEXT ( 'NONE', 'WORKASPACE' ) );
#229 = ORIENTED_EDGE ( 'NONE', *, *, #115, .T. ) ;
#230 = CARTESIAN_POINT ( 'NONE',  ( 0.06249999999999999306, 0.06250000000000001388, 0.000000000000000000 ) ) ;
#231 =( LENGTH_UNIT ( ) NAMED_UNIT ( * ) SI_UNIT ( $, .METRE. ) );
#232 = EDGE_CURVE ( 'NONE', #347, #148, #220, .T. ) ;
#233 = DIRECTION ( 'NONE',  ( 0.000000000000000000, 0.000000000000000000, -1.000000000000000000 ) ) ;
#234 = ORIENTED_EDGE ( 'NONE', *, *, #115, .F. ) ;
#235 = MECHANICAL_DESIGN_GEOMETRIC_PRESENTATION_REPRESENTATION (  '', ( #1 ), #228 ) ;
#236 = CYLINDRICAL_SURFACE ( 'NONE', #69, 0.06249999999999996531 ) ;
#237 = PRODUCT_DEFINITION_FORMATION_WITH_SPECIFIED_SOURCE ( 'ANY', '', #35, .NOT_KNOWN. ) ;
#238 = ORIENTED_EDGE ( 'NONE', *, *, #179, .F. ) ;
#239 = EDGE_LOOP ( 'NONE', ( #366, #229, #274, #299, #348 ) ) ;
#240 = SHAPE_DEFINITION_REPRESENTATION ( #304, #110 ) ;
#241 = CARTESIAN_POINT ( 'NONE',  ( -1.224646799147352961E-16, 2.500000000000000000, 0.000000000000000000 ) ) ;
#242 = CARTESIAN_POINT ( 'NONE',  ( -7.654042494670957545E-18, 0.06250000000000000000, 0.000000000000000000 ) ) ;
#243 = DIRECTION ( 'NONE',  ( -1.000000000000000000, 0.000000000000000000, 0.000000000000000000 ) ) ;
#244 = CARTESIAN_POINT ( 'NONE',  ( 0.000000000000000000, 0.06250000000000001388, 0.000000000000000000 ) ) ;
#245 = CIRCLE ( 'NONE', #198, 0.06249999999999993061 ) ;
#246 =( GEOMETRIC_REPRESENTATION_CONTEXT ( 3 ) GLOBAL_UNCERTAINTY_ASSIGNED_CONTEXT ( ( #164 ) ) GLOBAL_UNIT_ASSIGNED_CONTEXT ( ( #264, #83, #111 ) ) REPRESENTATION_CONTEXT ( 'NONE', 'WORKASPACE' ) );
#247 =( CONVERSION_BASED_UNIT ( 'INCH', #158 ) LENGTH_UNIT ( ) NAMED_UNIT ( #272 ) );
#248 = EDGE_CURVE ( 'NONE', #70, #84, #245, .T. ) ;
#249 = UNCERTAINTY_MEASURE_WITH_UNIT (LENGTH_MEASURE( 1.000000000000000082E-05 ), #85, 'distance_accuracy_value', 'NONE');
#250 = LENGTH_MEASURE_WITH_UNIT ( LENGTH_MEASURE( 0.02539999999999999897 ), #268 );
#251 = FILL_AREA_STYLE_COLOUR ( '', #350 ) ;
#252 = DIRECTION ( 'NONE',  ( -0.000000000000000000, -1.000000000000000000, -0.000000000000000000 ) ) ;
#253 = DIRECTION ( 'NONE',  ( 0.000000000000000000, -0.000000000000000000, 1.000000000000000000 ) ) ;
#254 = CLOSED_SHELL ( 'NONE', ( #287, #219, #200, #211 ) ) ;
#255 = STYLED_ITEM ( 'NONE', ( #365 ), #340 ) ;
#256 = FILL_AREA_STYLE_COLOUR ( '', #132 ) ;
#257 = PRESENTATION_LAYER_ASSIGNMENT (  '', '', ( #140 ) ) ;
#258 = UNCERTAINTY_MEASURE_WITH_UNIT (LENGTH_MEASURE( 1.000000000000000082E-05 ), #247, 'distance_accuracy_value', 'NONE');
#259 = EDGE_CURVE ( 'NONE', #148, #317, #311, .T. ) ;
#260 = CARTESIAN_POINT ( 'NONE',  ( 0.000000000000000000, 0.5000000000000000000, 0.000000000000000000 ) ) ;
#261 = CARTESIAN_POINT ( 'NONE',  ( 0.000000000000000000, 0.06250000000000001388, 0.000000000000000000 ) ) ;
#262 = CARTESIAN_POINT ( 'NONE',  ( -0.06250000000000000000, 0.06250000000000001388, 7.654042494670956004E-18 ) ) ;
#263 = AXIS2_PLACEMENT_3D ( 'NONE', #61, #358, #152 ) ;
#264 =( CONVERSION_BASED_UNIT ( 'INCH', #266 ) LENGTH_UNIT ( ) NAMED_UNIT ( #38 ) );
#265 = DIRECTION ( 'NONE',  ( -1.224646799147352961E-16, 1.000000000000000000, -0.000000000000000000 ) ) ;
#266 = LENGTH_MEASURE_WITH_UNIT ( LENGTH_MEASURE( 0.02539999999999999897 ), #231 );
#267 = ORIENTED_EDGE ( 'NONE', *, *, #271, .T. ) ;
#268 =( LENGTH_UNIT ( ) NAMED_UNIT ( * ) SI_UNIT ( $, .METRE. ) );
#269 = CIRCLE ( 'NONE', #210, 0.06250000000000000000 ) ;
#270 = EDGE_LOOP ( 'NONE', ( #267, #285, #21, #79 ) ) ;
#271 = EDGE_CURVE ( 'NONE', #148, #347, #11, .T. ) ;
#272 = DIMENSIONAL_EXPONENTS ( 1.000000000000000000, 0.000000000000000000, 0.000000000000000000, 0.000000000000000000, 0.000000000000000000, 0.000000000000000000, 0.000000000000000000 ) ;
#273 =( NAMED_UNIT ( * ) SI_UNIT ( $, .STERADIAN. ) SOLID_ANGLE_UNIT ( ) );
#274 = ORIENTED_EDGE ( 'NONE', *, *, #179, .T. ) ;
#275 = CARTESIAN_POINT ( 'NONE',  ( 0.06249999999999993061, 2.500000000000000000, 0.000000000000000000 ) ) ;
#276 =( GEOMETRIC_REPRESENTATION_CONTEXT ( 3 ) GLOBAL_UNCERTAINTY_ASSIGNED_CONTEXT ( ( #199 ) ) GLOBAL_UNIT_ASSIGNED_CONTEXT ( ( #24, #49, #104 ) ) REPRESENTATION_CONTEXT ( 'NONE', 'WORKASPACE' ) );
#277 = COLOUR_RGB ( '',1.000000000000000000, 0.000000000000000000, 0.000000000000000000 ) ;
#278 = CARTESIAN_POINT ( 'NONE',  ( -1.224646799147352961E-16, 2.500000000000000000, 0.000000000000000000 ) ) ;
#279 = CARTESIAN_POINT ( 'NONE',  ( 1.224646799147353207E-16, 0.5000000000000000000, 0.000000000000000000 ) ) ;
#280 = CARTESIAN_POINT ( 'NONE',  ( 0.000000000000000000, 0.5000000000000000000, 0.000000000000000000 ) ) ;
#281 = CARTESIAN_POINT ( 'NONE',  ( 0.000000000000000000, 0.000000000000000000, -0.06249999999999996531 ) ) ;
#282 = AXIS2_PLACEMENT_3D ( 'NONE', #242, #16, #357 ) ;
#283 = DIMENSIONAL_EXPONENTS ( 1.000000000000000000, 0.000000000000000000, 0.000000000000000000, 0.000000000000000000, 0.000000000000000000, 0.000000000000000000, 0.000000000000000000 ) ;
#284 = MECHANICAL_DESIGN_GEOMETRIC_PRESENTATION_REPRESENTATION (  '', ( #140 ), #154 ) ;
#285 = ORIENTED_EDGE ( 'NONE', *, *, #184, .T. ) ;
#286 = SPHERICAL_SURFACE ( 'NONE', #282, 0.06250000000000000000 ) ;
#287 = ADVANCED_FACE ( 'NONE', ( #335 ), #187, .T. ) ;
#288 = ORIENTED_EDGE ( 'NONE', *, *, #184, .F. ) ;
#289 = LENGTH_MEASURE_WITH_UNIT ( LENGTH_MEASURE( 0.02539999999999999897 ), #193 );
#290 = CARTESIAN_POINT ( 'NONE',  ( 0.000000000000000000, 0.06250000000000001388, 0.000000000000000000 ) ) ;
#291 =( CONVERSION_BASED_UNIT ( 'INCH', #289 ) LENGTH_UNIT ( ) NAMED_UNIT ( #119 ) );
#292 = DIRECTION ( 'NONE',  ( 0.000000000000000000, 0.000000000000000000, -1.000000000000000000 ) ) ;
#293 = SURFACE_STYLE_FILL_AREA ( #372 ) ;
#294 = SURFACE_STYLE_USAGE ( .BOTH. , #170 ) ;
#295 = EDGE_CURVE ( 'NONE', #84, #114, #162, .T. ) ;
#296 = LENGTH_MEASURE_WITH_UNIT ( LENGTH_MEASURE( 0.02539999999999999897 ), #28 );
#297 = CARTESIAN_POINT ( 'NONE',  ( 0.000000000000000000, 0.000000000000000000, 0.000000000000000000 ) ) ;
#298 = SURFACE_STYLE_USAGE ( .BOTH. , #346 ) ;
#299 = ORIENTED_EDGE ( 'NONE', *, *, #145, .F. ) ;
#300 = FILL_AREA_STYLE_COLOUR ( '', #82 ) ;
#301 = ADVANCED_FACE ( 'NONE', ( #124 ), #93, .T. ) ;
#302 = CLOSED_SHELL ( 'NONE', ( #205, #373, #313, #301, #340 ) ) ;
#303 = ORIENTED_EDGE ( 'NONE', *, *, #271, .F. ) ;
#304 = PRODUCT_DEFINITION_SHAPE ( 'NONE', 'NONE',  #150 ) ;
#305 = FACE_OUTER_BOUND ( 'NONE', #144, .T. ) ;
#306 = DIRECTION ( 'NONE',  ( 1.224646799147352961E-16, -1.000000000000000000, 0.000000000000000000 ) ) ;
#307 = MECHANICAL_DESIGN_GEOMETRIC_PRESENTATION_REPRESENTATION (  '', ( #33 ), #276 ) ;
#308 = CARTESIAN_POINT ( 'NONE',  ( 7.654042494670954463E-18, 0.000000000000000000, 0.06249999999999996531 ) ) ;
#309 = CIRCLE ( 'NONE', #53, 0.06250000000000000000 ) ;
#310 = DIRECTION ( 'NONE',  ( 0.000000000000000000, 0.000000000000000000, -1.000000000000000000 ) ) ;
#311 = LINE ( 'NONE', #122, #182 ) ;
#312 = DIRECTION ( 'NONE',  ( 0.000000000000000000, 0.000000000000000000, -1.000000000000000000 ) ) ;
#313 = ADVANCED_FACE ( 'NONE', ( #134 ), #318, .T. ) ;
#314 =( NAMED_UNIT ( * ) PLANE_ANGLE_UNIT ( ) SI_UNIT ( $, .RADIAN. ) );
#315 = PRESENTATION_LAYER_ASSIGNMENT (  '', '', ( #62 ) ) ;
#316 = PRESENTATION_LAYER_ASSIGNMENT (  '', '', ( #255 ) ) ;
#317 = VERTEX_POINT ( 'NONE', #46 ) ;
#318 = PLANE ( 'NONE',  #106 ) ;
#319 = UNCERTAINTY_MEASURE_WITH_UNIT (LENGTH_MEASURE( 1.000000000000000082E-05 ), #202, 'distance_accuracy_value', 'NONE');
#320 = DIRECTION ( 'NONE',  ( 0.000000000000000000, 0.000000000000000000, -1.000000000000000000 ) ) ;
#321 = VERTEX_POINT ( 'NONE', #326 ) ;
#322 = COLOUR_RGB ( '',1.000000000000000000, 0.000000000000000000, 0.000000000000000000 ) ;
#323 = CARTESIAN_POINT ( 'NONE',  ( 7.654042494670957545E-18, 0.06250000000000001388, 0.06249999999999999306 ) ) ;
#324 = SPHERICAL_SURFACE ( 'NONE', #160, 0.06250000000000000000 ) ;
#325 = DIRECTION ( 'NONE',  ( -1.224646799147352961E-16, 1.000000000000000000, -0.000000000000000000 ) ) ;
#326 = CARTESIAN_POINT ( 'NONE',  ( -3.827021247335478772E-18, 0.000000000000000000, 0.000000000000000000 ) ) ;
#327 = FILL_AREA_STYLE ('',( #51 ) ) ;
#328 = PRESENTATION_LAYER_ASSIGNMENT (  '', '', ( #33 ) ) ;
#329 = ORIENTED_EDGE ( 'NONE', *, *, #232, .F. ) ;
#330 = ORIENTED_EDGE ( 'NONE', *, *, #295, .T. ) ;
#331 = PRESENTATION_STYLE_ASSIGNMENT (( #209 ) ) ;
#332 = VECTOR ( 'NONE', #37, 39.37007874015748143 ) ;
#333 =( GEOMETRIC_REPRESENTATION_CONTEXT ( 3 ) GLOBAL_UNCERTAINTY_ASSIGNED_CONTEXT ( ( #129 ) ) GLOBAL_UNIT_ASSIGNED_CONTEXT ( ( #291, #22, #131 ) ) REPRESENTATION_CONTEXT ( 'NONE', 'WORKASPACE' ) );
#334 = DIRECTION ( 'NONE',  ( -1.224646799147352961E-16, 1.000000000000000000, -0.000000000000000000 ) ) ;
#335 = FACE_OUTER_BOUND ( 'NONE', #270, .T. ) ;
#336 = SURFACE_STYLE_FILL_AREA ( #15 ) ;
#337 = FILL_AREA_STYLE ('',( #218 ) ) ;
#338 = CIRCLE ( 'NONE', #369, 0.06250000000000005551 ) ;
#339 = DIRECTION ( 'NONE',  ( -0.000000000000000000, -1.000000000000000000, -0.000000000000000000 ) ) ;
#340 = ADVANCED_FACE ( 'NONE', ( #367 ), #324, .T. ) ;
#341 = PRESENTATION_STYLE_ASSIGNMENT (( #191 ) ) ;
#342 = FILL_AREA_STYLE ('',( #102 ) ) ;
#343 = EDGE_LOOP ( 'NONE', ( #303, #329 ) ) ;
#344 = LENGTH_MEASURE_WITH_UNIT ( LENGTH_MEASURE( 0.02539999999999999897 ), #101 );
#345 = CARTESIAN_POINT ( 'NONE',  ( 0.000000000000000000, 0.5000000000000000000, 0.000000000000000000 ) ) ;
#346 = SURFACE_SIDE_STYLE ('',( #81 ) ) ;
#347 = VERTEX_POINT ( 'NONE', #166 ) ;
#348 = ORIENTED_EDGE ( 'NONE', *, *, #222, .F. ) ;
#349 = CIRCLE ( 'NONE', #188, 0.06249999999999999306 ) ;
#350 = COLOUR_RGB ( '',1.000000000000000000, 0.000000000000000000, 0.000000000000000000 ) ;
#351 = CARTESIAN_POINT ( 'NONE',  ( -1.224646799147352961E-16, 2.500000000000000000, 0.000000000000000000 ) ) ;
#352 = ORIENTED_EDGE ( 'NONE', *, *, #48, .F. ) ;
#353 = PRESENTATION_STYLE_ASSIGNMENT (( #96 ) ) ;
#354 = SURFACE_STYLE_FILL_AREA ( #147 ) ;
#355 = EDGE_CURVE ( 'NONE', #112, #321, #309, .T. ) ;
#356 = PRESENTATION_LAYER_ASSIGNMENT (  '', '', ( #139 ) ) ;
#357 = DIRECTION ( 'NONE',  ( 1.000000000000000000, 0.000000000000000000, 0.000000000000000000 ) ) ;
#358 = DIRECTION ( 'NONE',  ( -0.000000000000000000, -1.000000000000000000, -0.000000000000000000 ) ) ;
#359 = DIRECTION ( 'NONE',  ( -0.000000000000000000, -1.000000000000000000, -0.000000000000000000 ) ) ;
#360 =( CONVERSION_BASED_UNIT ( 'INCH', #250 ) LENGTH_UNIT ( ) NAMED_UNIT ( #95 ) );
#361 = DIRECTION ( 'NONE',  ( -1.224646799147352961E-16, 1.000000000000000000, -0.000000000000000000 ) ) ;
#362 = EDGE_CURVE ( 'NONE', #317, #41, #338, .T. ) ;
#363 = PLANE ( 'NONE',  #168 ) ;
#364 = LENGTH_MEASURE_WITH_UNIT ( LENGTH_MEASURE( 0.02539999999999999897 ), #126 );
#365 = PRESENTATION_STYLE_ASSIGNMENT (( #294 ) ) ;
#366 = ORIENTED_EDGE ( 'NONE', *, *, #295, .F. ) ;
#367 = FACE_OUTER_BOUND ( 'NONE', #99, .T. ) ;
#368 =( GEOMETRIC_REPRESENTATION_CONTEXT ( 3 ) GLOBAL_UNCERTAINTY_ASSIGNED_CONTEXT ( ( #371 ) ) GLOBAL_UNIT_ASSIGNED_CONTEXT ( ( #103, #173, #137 ) ) REPRESENTATION_CONTEXT ( 'NONE', 'WORKASPACE' ) );
#369 = AXIS2_PLACEMENT_3D ( 'NONE', #351, #265, #138 ) ;
#370 = FILL_AREA_STYLE ('',( #256 ) ) ;
#371 = UNCERTAINTY_MEASURE_WITH_UNIT (LENGTH_MEASURE( 1.000000000000000082E-05 ), #103, 'distance_accuracy_value', 'NONE');
#372 = FILL_AREA_STYLE ('',( #251 ) ) ;
#373 = ADVANCED_FACE ( 'NONE', ( #4 ), #236, .T. ) ;
ENDSEC;
END-ISO-10303-21;
