ISO-10303-21;
HEADER;
FILE_DESCRIPTION (( 'STEP AP214' ),
    '1' );
FILE_NAME ('30337W.STEP',
    '2023-06-22T18:22:35',
    ( '' ),
    ( '' ),
    'SwSTEP 2.0',
    'SolidWorks 2023',
    '' );
FILE_SCHEMA (( 'AUTOMOTIVE_DESIGN' ));
ENDSEC;

DATA;
#1 = SURFACE_SIDE_STYLE ('',( #101 ) ) ;
#2 = ORIENTED_EDGE ( 'NONE', *, *, #64, .T. ) ;
#3 = AXIS2_PLACEMENT_3D ( 'NONE', #160, #14, #302 ) ;
#4 = PRODUCT ( '30337W', '30337W', '', ( #42 ) ) ;
#5 = EDGE_CURVE ( 'NONE', #51, #122, #186, .T. ) ;
#6 = PLANE ( 'NONE',  #124 ) ;
#7 = FILL_AREA_STYLE_COLOUR ( '', #90 ) ;
#8 = VERTEX_POINT ( 'NONE', #19 ) ;
#9 = UNCERTAINTY_MEASURE_WITH_UNIT (LENGTH_MEASURE( 1.000000000000000082E-05 ), #191, 'distance_accuracy_value', 'NONE');
#10 = ADVANCED_FACE ( 'NONE', ( #93 ), #134, .T. ) ;
#11 =( CONVERSION_BASED_UNIT ( 'INCH', #131 ) LENGTH_UNIT ( ) NAMED_UNIT ( #152 ) );
#12 = FACE_OUTER_BOUND ( 'NONE', #227, .T. ) ;
#13 = AXIS2_PLACEMENT_3D ( 'NONE', #198, #241, #60 ) ;
#14 = DIRECTION ( 'NONE',  ( -6.123233995736769734E-17, 1.000000000000000000, -0.000000000000000000 ) ) ;
#15 = PRESENTATION_STYLE_ASSIGNMENT (( #281 ) ) ;
#16 = ORIENTED_EDGE ( 'NONE', *, *, #158, .F. ) ;
#17 = DIRECTION ( 'NONE',  ( -1.000000000000000000, 0.000000000000000000, 0.000000000000000000 ) ) ;
#18 = STYLED_ITEM ( 'NONE', ( #15 ), #282 ) ;
#19 = CARTESIAN_POINT ( 'NONE',  ( 0.1875000000000000278, 1.000000000000000000, 2.296212748401288650E-17 ) ) ;
#20 = APPLICATION_PROTOCOL_DEFINITION ( 'draft international standard', 'automotive_design', 1998, #223 ) ;
#21 =( NAMED_UNIT ( * ) SI_UNIT ( $, .STERADIAN. ) SOLID_ANGLE_UNIT ( ) );
#22 = DIRECTION ( 'NONE',  ( 0.000000000000000000, 0.000000000000000000, -1.000000000000000000 ) ) ;
#23 = SURFACE_STYLE_USAGE ( .BOTH. , #1 ) ;
#24 = COLOUR_RGB ( '',1.000000000000000000, 0.000000000000000000, 0.000000000000000000 ) ;
#25 = VERTEX_POINT ( 'NONE', #112 ) ;
#26 = ADVANCED_FACE ( 'NONE', ( #38 ), #159, .T. ) ;
#27 = AXIS2_PLACEMENT_3D ( 'NONE', #162, #234, #22 ) ;
#28 = AXIS2_PLACEMENT_3D ( 'NONE', #301, #62, #34 ) ;
#29 = CARTESIAN_POINT ( 'NONE',  ( 3.515061990613733472E-34, 1.000000000000000000, 0.000000000000000000 ) ) ;
#30 = DIRECTION ( 'NONE',  ( 6.123233995736769734E-17, -1.000000000000000000, 0.000000000000000000 ) ) ;
#31 = EDGE_CURVE ( 'NONE', #8, #192, #229, .T. ) ;
#32 = PLANE ( 'NONE',  #187 ) ;
#33 = VECTOR ( 'NONE', #169, 39.37007874015748143 ) ;
#34 = DIRECTION ( 'NONE',  ( 0.000000000000000000, 0.000000000000000000, -1.000000000000000000 ) ) ;
#35 = VERTEX_POINT ( 'NONE', #63 ) ;
#36 = PRESENTATION_STYLE_ASSIGNMENT (( #280 ) ) ;
#37 = VECTOR ( 'NONE', #68, 39.37007874015748143 ) ;
#38 = FACE_OUTER_BOUND ( 'NONE', #215, .T. ) ;
#39 = FILL_AREA_STYLE ('',( #65 ) ) ;
#40 = UNCERTAINTY_MEASURE_WITH_UNIT (LENGTH_MEASURE( 1.000000000000000082E-05 ), #146, 'distance_accuracy_value', 'NONE');
#41 = SURFACE_SIDE_STYLE ('',( #214 ) ) ;
#42 = PRODUCT_CONTEXT ( 'NONE', #67, 'mechanical' ) ;
#43 = FILL_AREA_STYLE_COLOUR ( '', #261 ) ;
#44 = MECHANICAL_DESIGN_GEOMETRIC_PRESENTATION_REPRESENTATION (  '', ( #233 ), #296 ) ;
#45 = LINE ( 'NONE', #75, #33 ) ;
#46 = EDGE_LOOP ( 'NONE', ( #144, #103, #293, #290 ) ) ;
#47 = DIRECTION ( 'NONE',  ( 0.000000000000000000, -1.000000000000000000, -0.000000000000000000 ) ) ;
#48 = DIMENSIONAL_EXPONENTS ( 1.000000000000000000, 0.000000000000000000, 0.000000000000000000, 0.000000000000000000, 0.000000000000000000, 0.000000000000000000, 0.000000000000000000 ) ;
#49 = DIRECTION ( 'NONE',  ( -0.000000000000000000, -1.000000000000000000, -0.000000000000000000 ) ) ;
#50 = LENGTH_MEASURE_WITH_UNIT ( LENGTH_MEASURE( 0.02539999999999999897 ), #292 );
#51 = VERTEX_POINT ( 'NONE', #205 ) ;
#52 = STYLED_ITEM ( 'NONE', ( #98 ), #119 ) ;
#53 = MECHANICAL_DESIGN_GEOMETRIC_PRESENTATION_REPRESENTATION (  '', ( #18 ), #268 ) ;
#54 = SURFACE_SIDE_STYLE ('',( #83 ) ) ;
#55 = EDGE_CURVE ( 'NONE', #25, #170, #154, .T. ) ;
#56 =( LENGTH_UNIT ( ) NAMED_UNIT ( * ) SI_UNIT ( $, .METRE. ) );
#57 = PRODUCT_DEFINITION_CONTEXT ( 'detailed design', #223, 'design' ) ;
#58 = STYLED_ITEM ( 'NONE', ( #36 ), #87 ) ;
#59 = EDGE_CURVE ( 'NONE', #8, #122, #92, .T. ) ;
#60 = DIRECTION ( 'NONE',  ( 0.000000000000000000, -0.000000000000000000, 1.000000000000000000 ) ) ;
#61 = CARTESIAN_POINT ( 'NONE',  ( -1.224646799147353700E-16, 3.000000000000000444, 0.000000000000000000 ) ) ;
#62 = DIRECTION ( 'NONE',  ( -0.000000000000000000, -1.000000000000000000, -0.000000000000000000 ) ) ;
#63 = CARTESIAN_POINT ( 'NONE',  ( 0.000000000000000000, 0.000000000000000000, -0.1875000000000000278 ) ) ;
#64 = EDGE_CURVE ( 'NONE', #25, #35, #156, .T. ) ;
#65 = FILL_AREA_STYLE_COLOUR ( '', #179 ) ;
#66 = LENGTH_MEASURE_WITH_UNIT ( LENGTH_MEASURE( 0.02539999999999999897 ), #157 );
#67 = APPLICATION_CONTEXT ( 'automotive_design' ) ;
#68 = DIRECTION ( 'NONE',  ( -0.000000000000000000, -1.000000000000000000, -0.000000000000000000 ) ) ;
#69 = AXIS2_PLACEMENT_3D ( 'NONE', #291, #100, #206 ) ;
#70 = PRODUCT_RELATED_PRODUCT_CATEGORY ( 'part', '', ( #4 ) ) ;
#71 = DIMENSIONAL_EXPONENTS ( 1.000000000000000000, 0.000000000000000000, 0.000000000000000000, 0.000000000000000000, 0.000000000000000000, 0.000000000000000000, 0.000000000000000000 ) ;
#72 = CYLINDRICAL_SURFACE ( 'NONE', #85, 0.1875000000000000278 ) ;
#73 = CARTESIAN_POINT ( 'NONE',  ( 0.000000000000000000, 0.000000000000000000, 0.000000000000000000 ) ) ;
#74 = CIRCLE ( 'NONE', #267, 0.1875000000000000278 ) ;
#75 = CARTESIAN_POINT ( 'NONE',  ( 2.296212748401287726E-17, 0.000000000000000000, 0.1875000000000000278 ) ) ;
#76 = ORIENTED_EDGE ( 'NONE', *, *, #255, .T. ) ;
#77 = LENGTH_MEASURE_WITH_UNIT ( LENGTH_MEASURE( 0.02539999999999999897 ), #210 );
#78 = ORIENTED_EDGE ( 'NONE', *, *, #55, .T. ) ;
#79 = ORIENTED_EDGE ( 'NONE', *, *, #135, .F. ) ;
#80 = PRESENTATION_LAYER_ASSIGNMENT (  '', '', ( #288 ) ) ;
#81 = CARTESIAN_POINT ( 'NONE',  ( -0.1875000000000002220, 3.000000000000000444, 0.000000000000000000 ) ) ;
#82 = UNCERTAINTY_MEASURE_WITH_UNIT (LENGTH_MEASURE( 1.000000000000000082E-05 ), #137, 'distance_accuracy_value', 'NONE');
#83 = SURFACE_STYLE_FILL_AREA ( #300 ) ;
#84 = CARTESIAN_POINT ( 'NONE',  ( -1.224646799147353700E-16, 3.000000000000000444, 0.000000000000000000 ) ) ;
#85 = AXIS2_PLACEMENT_3D ( 'NONE', #73, #167, #264 ) ;
#86 = COLOUR_RGB ( '',1.000000000000000000, 0.000000000000000000, 0.000000000000000000 ) ;
#87 = MANIFOLD_SOLID_BREP ( 'Revolve - Tool Body (Straight Shanked)', #165 ) ;
#88 =( NAMED_UNIT ( * ) SI_UNIT ( $, .STERADIAN. ) SOLID_ANGLE_UNIT ( ) );
#89 = CARTESIAN_POINT ( 'NONE',  ( 0.000000000000000000, 1.000000000000000000, 0.000000000000000000 ) ) ;
#90 = COLOUR_RGB ( '',0.7921568627450980005, 0.8196078431372548767, 0.9333333333333333481 ) ;
#91 = SURFACE_SIDE_STYLE ('',( #254 ) ) ;
#92 = LINE ( 'NONE', #116, #272 ) ;
#93 = FACE_OUTER_BOUND ( 'NONE', #46, .T. ) ;
#94 = PRESENTATION_LAYER_ASSIGNMENT (  '', '', ( #233 ) ) ;
#95 = CARTESIAN_POINT ( 'NONE',  ( -1.224646799147353700E-16, 3.000000000000000444, 0.000000000000000000 ) ) ;
#96 = PRESENTATION_LAYER_ASSIGNMENT (  '', '', ( #18 ) ) ;
#97 = ORIENTED_EDGE ( 'NONE', *, *, #125, .T. ) ;
#98 = PRESENTATION_STYLE_ASSIGNMENT (( #142 ) ) ;
#99 = ORIENTED_EDGE ( 'NONE', *, *, #5, .T. ) ;
#100 = DIRECTION ( 'NONE',  ( 0.000000000000000000, 0.000000000000000000, 1.000000000000000000 ) ) ;
#101 = SURFACE_STYLE_FILL_AREA ( #308 ) ;
#102 = ORIENTED_EDGE ( 'NONE', *, *, #55, .F. ) ;
#103 = ORIENTED_EDGE ( 'NONE', *, *, #59, .T. ) ;
#104 = FILL_AREA_STYLE ('',( #173 ) ) ;
#105 = DIRECTION ( 'NONE',  ( -6.123233995736769734E-17, 1.000000000000000000, 0.000000000000000000 ) ) ;
#106 = FACE_OUTER_BOUND ( 'NONE', #194, .T. ) ;
#107 = PRESENTATION_LAYER_ASSIGNMENT (  '', '', ( #199 ) ) ;
#108 = DIRECTION ( 'NONE',  ( -6.123233995736769734E-17, 1.000000000000000000, -0.000000000000000000 ) ) ;
#109 = PLANE ( 'NONE',  #225 ) ;
#110 =( GEOMETRIC_REPRESENTATION_CONTEXT ( 3 ) GLOBAL_UNCERTAINTY_ASSIGNED_CONTEXT ( ( #114 ) ) GLOBAL_UNIT_ASSIGNED_CONTEXT ( ( #123, #209, #172 ) ) REPRESENTATION_CONTEXT ( 'NONE', 'WORKASPACE' ) );
#111 = AXIS2_PLACEMENT_3D ( 'NONE', #133, #108, #283 ) ;
#112 = CARTESIAN_POINT ( 'NONE',  ( 0.000000000000000000, 1.000000000000000000, -0.1875000000000000278 ) ) ;
#113 = EDGE_CURVE ( 'NONE', #170, #25, #136, .T. ) ;
#114 = UNCERTAINTY_MEASURE_WITH_UNIT (LENGTH_MEASURE( 1.000000000000000082E-05 ), #123, 'distance_accuracy_value', 'NONE');
#115 = LENGTH_MEASURE_WITH_UNIT ( LENGTH_MEASURE( 0.02539999999999999897 ), #138 );
#116 = CARTESIAN_POINT ( 'NONE',  ( 0.1874999999999999445, 3.000000000000000444, 2.296212748401288342E-17 ) ) ;
#117 = DIMENSIONAL_EXPONENTS ( 1.000000000000000000, 0.000000000000000000, 0.000000000000000000, 0.000000000000000000, 0.000000000000000000, 0.000000000000000000, 0.000000000000000000 ) ;
#118 = MECHANICAL_DESIGN_GEOMETRIC_PRESENTATION_REPRESENTATION (  '', ( #199 ), #147 ) ;
#119 = ADVANCED_FACE ( 'NONE', ( #259 ), #72, .T. ) ;
#120 = PRODUCT_DEFINITION_SHAPE ( 'NONE', 'NONE',  #177 ) ;
#121 = DIRECTION ( 'NONE',  ( 0.000000000000000000, 0.000000000000000000, -1.000000000000000000 ) ) ;
#122 = VERTEX_POINT ( 'NONE', #262 ) ;
#123 =( CONVERSION_BASED_UNIT ( 'INCH', #77 ) LENGTH_UNIT ( ) NAMED_UNIT ( #171 ) );
#124 = AXIS2_PLACEMENT_3D ( 'NONE', #196, #30, #127 ) ;
#125 = EDGE_CURVE ( 'NONE', #170, #309, #45, .T. ) ;
#126 =( NAMED_UNIT ( * ) PLANE_ANGLE_UNIT ( ) SI_UNIT ( $, .RADIAN. ) );
#127 = DIRECTION ( 'NONE',  ( 1.000000000000000000, 6.123233995736769734E-17, 0.000000000000000000 ) ) ;
#128 = SURFACE_SIDE_STYLE ('',( #243 ) ) ;
#129 = ORIENTED_EDGE ( 'NONE', *, *, #31, .F. ) ;
#130 = AXIS2_PLACEMENT_3D ( 'NONE', #84, #220, #297 ) ;
#131 = LENGTH_MEASURE_WITH_UNIT ( LENGTH_MEASURE( 0.02539999999999999897 ), #56 );
#132 = DIRECTION ( 'NONE',  ( -1.000000000000000000, -6.123233995736769734E-17, 0.000000000000000000 ) ) ;
#133 = CARTESIAN_POINT ( 'NONE',  ( 3.032960542342103792E-32, 1.000000000000000000, 0.000000000000000000 ) ) ;
#134 = CYLINDRICAL_SURFACE ( 'NONE', #244, 0.1875000000000000833 ) ;
#135 = EDGE_CURVE ( 'NONE', #309, #35, #74, .T. ) ;
#136 = CIRCLE ( 'NONE', #27, 0.1875000000000000278 ) ;
#137 =( CONVERSION_BASED_UNIT ( 'INCH', #115 ) LENGTH_UNIT ( ) NAMED_UNIT ( #48 ) );
#138 =( LENGTH_UNIT ( ) NAMED_UNIT ( * ) SI_UNIT ( $, .METRE. ) );
#139 = EDGE_LOOP ( 'NONE', ( #242, #148 ) ) ;
#140 = AXIS2_PLACEMENT_3D ( 'NONE', #95, #203, #17 ) ;
#141 =( LENGTH_UNIT ( ) NAMED_UNIT ( * ) SI_UNIT ( $, .METRE. ) );
#142 = SURFACE_STYLE_USAGE ( .BOTH. , #41 ) ;
#143 = CARTESIAN_POINT ( 'NONE',  ( 0.000000000000000000, 0.000000000000000000, 0.000000000000000000 ) ) ;
#144 = ORIENTED_EDGE ( 'NONE', *, *, #276, .T. ) ;
#145 = CARTESIAN_POINT ( 'NONE',  ( 2.296212748401287726E-17, 0.000000000000000000, 0.1875000000000000278 ) ) ;
#146 =( CONVERSION_BASED_UNIT ( 'INCH', #50 ) LENGTH_UNIT ( ) NAMED_UNIT ( #238 ) );
#147 =( GEOMETRIC_REPRESENTATION_CONTEXT ( 3 ) GLOBAL_UNCERTAINTY_ASSIGNED_CONTEXT ( ( #270 ) ) GLOBAL_UNIT_ASSIGNED_CONTEXT ( ( #216, #271, #149 ) ) REPRESENTATION_CONTEXT ( 'NONE', 'WORKASPACE' ) );
#148 = ORIENTED_EDGE ( 'NONE', *, *, #135, .T. ) ;
#149 =( NAMED_UNIT ( * ) SI_UNIT ( $, .STERADIAN. ) SOLID_ANGLE_UNIT ( ) );
#150 = PLANE ( 'NONE',  #13 ) ;
#151 = MECHANICAL_DESIGN_GEOMETRIC_PRESENTATION_REPRESENTATION (  '', ( #288 ), #161 ) ;
#152 = DIMENSIONAL_EXPONENTS ( 1.000000000000000000, 0.000000000000000000, 0.000000000000000000, 0.000000000000000000, 0.000000000000000000, 0.000000000000000000, 0.000000000000000000 ) ;
#153 = DIRECTION ( 'NONE',  ( -1.000000000000000000, 0.000000000000000000, 0.000000000000000000 ) ) ;
#154 = CIRCLE ( 'NONE', #204, 0.1875000000000000278 ) ;
#155 = FILL_AREA_STYLE_COLOUR ( '', #86 ) ;
#156 = LINE ( 'NONE', #284, #37 ) ;
#157 =( LENGTH_UNIT ( ) NAMED_UNIT ( * ) SI_UNIT ( $, .METRE. ) );
#158 = EDGE_CURVE ( 'NONE', #35, #309, #218, .T. ) ;
#159 = CYLINDRICAL_SURFACE ( 'NONE', #245, 0.1875000000000000833 ) ;
#160 = CARTESIAN_POINT ( 'NONE',  ( 3.032960542342103792E-32, 1.000000000000000000, 0.000000000000000000 ) ) ;
#161 =( GEOMETRIC_REPRESENTATION_CONTEXT ( 3 ) GLOBAL_UNCERTAINTY_ASSIGNED_CONTEXT ( ( #40 ) ) GLOBAL_UNIT_ASSIGNED_CONTEXT ( ( #146, #126, #286 ) ) REPRESENTATION_CONTEXT ( 'NONE', 'WORKASPACE' ) );
#162 = CARTESIAN_POINT ( 'NONE',  ( 0.000000000000000000, 1.000000000000000000, 0.000000000000000000 ) ) ;
#163 = LENGTH_MEASURE_WITH_UNIT ( LENGTH_MEASURE( 0.02539999999999999897 ), #141 );
#164 = DIRECTION ( 'NONE',  ( -0.000000000000000000, -1.000000000000000000, -0.000000000000000000 ) ) ;
#165 = CLOSED_SHELL ( 'NONE', ( #10, #228, #26, #190 ) ) ;
#166 = CARTESIAN_POINT ( 'NONE',  ( 0.000000000000000000, 0.000000000000000000, 0.000000000000000000 ) ) ;
#167 = DIRECTION ( 'NONE',  ( -0.000000000000000000, -1.000000000000000000, -0.000000000000000000 ) ) ;
#168 = ORIENTED_EDGE ( 'NONE', *, *, #197, .F. ) ;
#169 = DIRECTION ( 'NONE',  ( -0.000000000000000000, -1.000000000000000000, -0.000000000000000000 ) ) ;
#170 = VERTEX_POINT ( 'NONE', #240 ) ;
#171 = DIMENSIONAL_EXPONENTS ( 1.000000000000000000, 0.000000000000000000, 0.000000000000000000, 0.000000000000000000, 0.000000000000000000, 0.000000000000000000, 0.000000000000000000 ) ;
#172 =( NAMED_UNIT ( * ) SI_UNIT ( $, .STERADIAN. ) SOLID_ANGLE_UNIT ( ) );
#173 = FILL_AREA_STYLE_COLOUR ( '', #224 ) ;
#174 = PRESENTATION_LAYER_ASSIGNMENT (  '', '', ( #52 ) ) ;
#175 = UNCERTAINTY_MEASURE_WITH_UNIT (LENGTH_MEASURE( 1.000000000000000082E-05 ), #235, 'distance_accuracy_value', 'NONE');
#176 = FACE_OUTER_BOUND ( 'NONE', #263, .T. ) ;
#177 = PRODUCT_DEFINITION ( 'UNKNOWN', '', #247, #57 ) ;
#178 = LINE ( 'NONE', #81, #306 ) ;
#179 = COLOUR_RGB ( '',0.7921568627450980005, 0.8196078431372548767, 0.9333333333333333481 ) ;
#180 = UNCERTAINTY_MEASURE_WITH_UNIT (LENGTH_MEASURE( 1.000000000000000082E-05 ), #11, 'distance_accuracy_value', 'NONE');
#181 = MECHANICAL_DESIGN_GEOMETRIC_PRESENTATION_REPRESENTATION (  '', ( #52 ), #110 ) ;
#182 = DIRECTION ( 'NONE',  ( -0.000000000000000000, -1.000000000000000000, -0.000000000000000000 ) ) ;
#183 = MANIFOLD_SOLID_BREP ( 'Revolve - Cutting Edge', #277 ) ;
#184 = DIRECTION ( 'NONE',  ( -6.123233995736769734E-17, 1.000000000000000000, -0.000000000000000000 ) ) ;
#185 = DIMENSIONAL_EXPONENTS ( 1.000000000000000000, 0.000000000000000000, 0.000000000000000000, 0.000000000000000000, 0.000000000000000000, 0.000000000000000000, 0.000000000000000000 ) ;
#186 = CIRCLE ( 'NONE', #140, 0.1875000000000001388 ) ;
#187 = AXIS2_PLACEMENT_3D ( 'NONE', #29, #105, #132 ) ;
#188 = SHAPE_DEFINITION_REPRESENTATION ( #120, #275 ) ;
#189 = ORIENTED_EDGE ( 'NONE', *, *, #276, .F. ) ;
#190 = ADVANCED_FACE ( 'NONE', ( #106 ), #6, .F. ) ;
#191 =( CONVERSION_BASED_UNIT ( 'INCH', #163 ) LENGTH_UNIT ( ) NAMED_UNIT ( #71 ) );
#192 = VERTEX_POINT ( 'NONE', #246 ) ;
#193 = EDGE_LOOP ( 'NONE', ( #189, #129 ) ) ;
#194 = EDGE_LOOP ( 'NONE', ( #99, #201 ) ) ;
#195 = PRESENTATION_STYLE_ASSIGNMENT (( #217 ) ) ;
#196 = CARTESIAN_POINT ( 'NONE',  ( 0.1875000000000000278, 3.000000000000000444, 0.000000000000000000 ) ) ;
#197 = EDGE_CURVE ( 'NONE', #122, #51, #251, .T. ) ;
#198 = CARTESIAN_POINT ( 'NONE',  ( 0.000000000000000000, 1.000000000000000000, 0.000000000000000000 ) ) ;
#199 = STYLED_ITEM ( 'NONE', ( #195 ), #211 ) ;
#200 = SURFACE_SIDE_STYLE ('',( #252 ) ) ;
#201 = ORIENTED_EDGE ( 'NONE', *, *, #197, .T. ) ;
#202 = CARTESIAN_POINT ( 'NONE',  ( -1.224646799147353700E-16, 3.000000000000000444, 0.000000000000000000 ) ) ;
#203 = DIRECTION ( 'NONE',  ( -6.123233995736769734E-17, 1.000000000000000000, -0.000000000000000000 ) ) ;
#204 = AXIS2_PLACEMENT_3D ( 'NONE', #89, #182, #304 ) ;
#205 = CARTESIAN_POINT ( 'NONE',  ( -0.1875000000000002776, 3.000000000000000444, 0.000000000000000000 ) ) ;
#206 = DIRECTION ( 'NONE',  ( 1.000000000000000000, 0.000000000000000000, 0.000000000000000000 ) ) ;
#207 = MECHANICAL_DESIGN_GEOMETRIC_PRESENTATION_REPRESENTATION (  '', ( #58 ), #239 ) ;
#208 =( GEOMETRIC_REPRESENTATION_CONTEXT ( 3 ) GLOBAL_UNCERTAINTY_ASSIGNED_CONTEXT ( ( #9 ) ) GLOBAL_UNIT_ASSIGNED_CONTEXT ( ( #191, #237, #21 ) ) REPRESENTATION_CONTEXT ( 'NONE', 'WORKASPACE' ) );
#209 =( NAMED_UNIT ( * ) PLANE_ANGLE_UNIT ( ) SI_UNIT ( $, .RADIAN. ) );
#210 =( LENGTH_UNIT ( ) NAMED_UNIT ( * ) SI_UNIT ( $, .METRE. ) );
#211 = ADVANCED_FACE ( 'NONE', ( #12 ), #150, .T. ) ;
#212 = ORIENTED_EDGE ( 'NONE', *, *, #113, .T. ) ;
#213 = PRESENTATION_LAYER_ASSIGNMENT (  '', '', ( #58 ) ) ;
#214 = SURFACE_STYLE_FILL_AREA ( #260 ) ;
#215 = EDGE_LOOP ( 'NONE', ( #265, #221, #76, #168 ) ) ;
#216 =( CONVERSION_BASED_UNIT ( 'INCH', #248 ) LENGTH_UNIT ( ) NAMED_UNIT ( #117 ) );
#217 = SURFACE_STYLE_USAGE ( .BOTH. , #54 ) ;
#218 = CIRCLE ( 'NONE', #256, 0.1875000000000000278 ) ;
#219 = DIRECTION ( 'NONE',  ( -6.123233995736769734E-17, 1.000000000000000000, -0.000000000000000000 ) ) ;
#220 = DIRECTION ( 'NONE',  ( -6.123233995736769734E-17, 1.000000000000000000, -0.000000000000000000 ) ) ;
#221 = ORIENTED_EDGE ( 'NONE', *, *, #31, .T. ) ;
#222 = CYLINDRICAL_SURFACE ( 'NONE', #28, 0.1875000000000000278 ) ;
#223 = APPLICATION_CONTEXT ( 'automotive_design' ) ;
#224 = COLOUR_RGB ( '',1.000000000000000000, 0.000000000000000000, 0.000000000000000000 ) ;
#225 = AXIS2_PLACEMENT_3D ( 'NONE', #166, #47, #307 ) ;
#226 = FACE_OUTER_BOUND ( 'NONE', #139, .T. ) ;
#227 = EDGE_LOOP ( 'NONE', ( #102, #295 ) ) ;
#228 = ADVANCED_FACE ( 'NONE', ( #249 ), #32, .F. ) ;
#229 = CIRCLE ( 'NONE', #3, 0.1875000000000000278 ) ;
#230 =( NAMED_UNIT ( * ) PLANE_ANGLE_UNIT ( ) SI_UNIT ( $, .RADIAN. ) );
#231 = DIRECTION ( 'NONE',  ( 0.000000000000000000, 0.000000000000000000, -1.000000000000000000 ) ) ;
#232 = ORIENTED_EDGE ( 'NONE', *, *, #64, .F. ) ;
#233 = STYLED_ITEM ( 'NONE', ( #294 ), #266 ) ;
#234 = DIRECTION ( 'NONE',  ( -0.000000000000000000, -1.000000000000000000, -0.000000000000000000 ) ) ;
#235 =( CONVERSION_BASED_UNIT ( 'INCH', #66 ) LENGTH_UNIT ( ) NAMED_UNIT ( #185 ) );
#236 = PRESENTATION_STYLE_ASSIGNMENT (( #23 ) ) ;
#237 =( NAMED_UNIT ( * ) PLANE_ANGLE_UNIT ( ) SI_UNIT ( $, .RADIAN. ) );
#238 = DIMENSIONAL_EXPONENTS ( 1.000000000000000000, 0.000000000000000000, 0.000000000000000000, 0.000000000000000000, 0.000000000000000000, 0.000000000000000000, 0.000000000000000000 ) ;
#239 =( GEOMETRIC_REPRESENTATION_CONTEXT ( 3 ) GLOBAL_UNCERTAINTY_ASSIGNED_CONTEXT ( ( #82 ) ) GLOBAL_UNIT_ASSIGNED_CONTEXT ( ( #137, #230, #274 ) ) REPRESENTATION_CONTEXT ( 'NONE', 'WORKASPACE' ) );
#240 = CARTESIAN_POINT ( 'NONE',  ( 2.296212748401287726E-17, 1.000000000000000000, 0.1875000000000000278 ) ) ;
#241 = DIRECTION ( 'NONE',  ( 0.000000000000000000, 1.000000000000000000, 0.000000000000000000 ) ) ;
#242 = ORIENTED_EDGE ( 'NONE', *, *, #158, .T. ) ;
#243 = SURFACE_STYLE_FILL_AREA ( #104 ) ;
#244 = AXIS2_PLACEMENT_3D ( 'NONE', #61, #184, #153 ) ;
#245 = AXIS2_PLACEMENT_3D ( 'NONE', #202, #303, #250 ) ;
#246 = CARTESIAN_POINT ( 'NONE',  ( -0.1875000000000000278, 1.000000000000000000, 0.000000000000000000 ) ) ;
#247 = PRODUCT_DEFINITION_FORMATION_WITH_SPECIFIED_SOURCE ( 'ANY', '', #4, .NOT_KNOWN. ) ;
#248 = LENGTH_MEASURE_WITH_UNIT ( LENGTH_MEASURE( 0.02539999999999999897 ), #273 );
#249 = FACE_OUTER_BOUND ( 'NONE', #193, .T. ) ;
#250 = DIRECTION ( 'NONE',  ( -1.000000000000000000, 0.000000000000000000, 0.000000000000000000 ) ) ;
#251 = CIRCLE ( 'NONE', #130, 0.1875000000000001388 ) ;
#252 = SURFACE_STYLE_FILL_AREA ( #257 ) ;
#253 = EDGE_LOOP ( 'NONE', ( #78, #97, #16, #232 ) ) ;
#254 = SURFACE_STYLE_FILL_AREA ( #39 ) ;
#255 = EDGE_CURVE ( 'NONE', #192, #51, #178, .T. ) ;
#256 = AXIS2_PLACEMENT_3D ( 'NONE', #143, #49, #121 ) ;
#257 = FILL_AREA_STYLE ('',( #155 ) ) ;
#258 = APPLICATION_PROTOCOL_DEFINITION ( 'draft international standard', 'automotive_design', 1998, #67 ) ;
#259 = FACE_OUTER_BOUND ( 'NONE', #253, .T. ) ;
#260 = FILL_AREA_STYLE ('',( #43 ) ) ;
#261 = COLOUR_RGB ( '',1.000000000000000000, 0.000000000000000000, 0.000000000000000000 ) ;
#262 = CARTESIAN_POINT ( 'NONE',  ( 0.1875000000000000278, 3.000000000000000444, 2.296212748401288650E-17 ) ) ;
#263 = EDGE_LOOP ( 'NONE', ( #287, #212, #2, #79 ) ) ;
#264 = DIRECTION ( 'NONE',  ( 0.000000000000000000, 0.000000000000000000, -1.000000000000000000 ) ) ;
#265 = ORIENTED_EDGE ( 'NONE', *, *, #59, .F. ) ;
#266 = ADVANCED_FACE ( 'NONE', ( #176 ), #222, .T. ) ;
#267 = AXIS2_PLACEMENT_3D ( 'NONE', #285, #164, #231 ) ;
#268 =( GEOMETRIC_REPRESENTATION_CONTEXT ( 3 ) GLOBAL_UNCERTAINTY_ASSIGNED_CONTEXT ( ( #175 ) ) GLOBAL_UNIT_ASSIGNED_CONTEXT ( ( #235, #305, #289 ) ) REPRESENTATION_CONTEXT ( 'NONE', 'WORKASPACE' ) );
#269 = SURFACE_STYLE_USAGE ( .BOTH. , #128 ) ;
#270 = UNCERTAINTY_MEASURE_WITH_UNIT (LENGTH_MEASURE( 1.000000000000000082E-05 ), #216, 'distance_accuracy_value', 'NONE');
#271 =( NAMED_UNIT ( * ) PLANE_ANGLE_UNIT ( ) SI_UNIT ( $, .RADIAN. ) );
#272 = VECTOR ( 'NONE', #278, 39.37007874015748143 ) ;
#273 =( LENGTH_UNIT ( ) NAMED_UNIT ( * ) SI_UNIT ( $, .METRE. ) );
#274 =( NAMED_UNIT ( * ) SI_UNIT ( $, .STERADIAN. ) SOLID_ANGLE_UNIT ( ) );
#275 = ADVANCED_BREP_SHAPE_REPRESENTATION ( '30337W', ( #183, #87, #69 ), #208 ) ;
#276 = EDGE_CURVE ( 'NONE', #192, #8, #279, .T. ) ;
#277 = CLOSED_SHELL ( 'NONE', ( #119, #211, #266, #282 ) ) ;
#278 = DIRECTION ( 'NONE',  ( -6.123233995736769734E-17, 1.000000000000000000, -0.000000000000000000 ) ) ;
#279 = CIRCLE ( 'NONE', #111, 0.1875000000000000278 ) ;
#280 = SURFACE_STYLE_USAGE ( .BOTH. , #91 ) ;
#281 = SURFACE_STYLE_USAGE ( .BOTH. , #200 ) ;
#282 = ADVANCED_FACE ( 'NONE', ( #226 ), #109, .T. ) ;
#283 = DIRECTION ( 'NONE',  ( -1.000000000000000000, 0.000000000000000000, 0.000000000000000000 ) ) ;
#284 = CARTESIAN_POINT ( 'NONE',  ( 0.000000000000000000, 0.000000000000000000, -0.1875000000000000278 ) ) ;
#285 = CARTESIAN_POINT ( 'NONE',  ( 0.000000000000000000, 0.000000000000000000, 0.000000000000000000 ) ) ;
#286 =( NAMED_UNIT ( * ) SI_UNIT ( $, .STERADIAN. ) SOLID_ANGLE_UNIT ( ) );
#287 = ORIENTED_EDGE ( 'NONE', *, *, #125, .F. ) ;
#288 = STYLED_ITEM ( 'NONE', ( #236 ), #183 ) ;
#289 =( NAMED_UNIT ( * ) SI_UNIT ( $, .STERADIAN. ) SOLID_ANGLE_UNIT ( ) );
#290 = ORIENTED_EDGE ( 'NONE', *, *, #255, .F. ) ;
#291 = CARTESIAN_POINT ( 'NONE',  ( 0.000000000000000000, 0.000000000000000000, 0.000000000000000000 ) ) ;
#292 =( LENGTH_UNIT ( ) NAMED_UNIT ( * ) SI_UNIT ( $, .METRE. ) );
#293 = ORIENTED_EDGE ( 'NONE', *, *, #5, .F. ) ;
#294 = PRESENTATION_STYLE_ASSIGNMENT (( #269 ) ) ;
#295 = ORIENTED_EDGE ( 'NONE', *, *, #113, .F. ) ;
#296 =( GEOMETRIC_REPRESENTATION_CONTEXT ( 3 ) GLOBAL_UNCERTAINTY_ASSIGNED_CONTEXT ( ( #180 ) ) GLOBAL_UNIT_ASSIGNED_CONTEXT ( ( #11, #299, #88 ) ) REPRESENTATION_CONTEXT ( 'NONE', 'WORKASPACE' ) );
#297 = DIRECTION ( 'NONE',  ( -1.000000000000000000, 0.000000000000000000, 0.000000000000000000 ) ) ;
#298 = FILL_AREA_STYLE_COLOUR ( '', #24 ) ;
#299 =( NAMED_UNIT ( * ) PLANE_ANGLE_UNIT ( ) SI_UNIT ( $, .RADIAN. ) );
#300 = FILL_AREA_STYLE ('',( #298 ) ) ;
#301 = CARTESIAN_POINT ( 'NONE',  ( 0.000000000000000000, 0.000000000000000000, 0.000000000000000000 ) ) ;
#302 = DIRECTION ( 'NONE',  ( -1.000000000000000000, 0.000000000000000000, 0.000000000000000000 ) ) ;
#303 = DIRECTION ( 'NONE',  ( -6.123233995736769734E-17, 1.000000000000000000, -0.000000000000000000 ) ) ;
#304 = DIRECTION ( 'NONE',  ( 0.000000000000000000, 0.000000000000000000, -1.000000000000000000 ) ) ;
#305 =( NAMED_UNIT ( * ) PLANE_ANGLE_UNIT ( ) SI_UNIT ( $, .RADIAN. ) );
#306 = VECTOR ( 'NONE', #219, 39.37007874015748143 ) ;
#307 = DIRECTION ( 'NONE',  ( 0.000000000000000000, 0.000000000000000000, -1.000000000000000000 ) ) ;
#308 = FILL_AREA_STYLE ('',( #7 ) ) ;
#309 = VERTEX_POINT ( 'NONE', #145 ) ;
ENDSEC;
END-ISO-10303-21;
